  0
SECTION
  2
HEADER
  9
$ACADVER
  1
AC1015
  9
$ACADMAINTVER
 70
     6
  9
$DWGCODEPAGE
  3
ANSI_932
  9
$INSBASE
 10
0.0
 20
0.0
 30
0.0
  9
$EXTMIN
 10
11687.65105542679
 20
-12087.69273462467
 30
0.0
  9
$EXTMAX
 10
12067.61305542679
 20
-11748.12663580513
 30
0.0
  9
$LIMMIN
 10
0.0
 20
0.0
  9
$LIMMAX
 10
840.0
 20
594.0
  9
$ORTHOMODE
 70
     1
  9
$REGENMODE
 70
     1
  9
$FILLMODE
 70
     1
  9
$QTEXTMODE
 70
     0
  9
$MIRRTEXT
 70
     1
  9
$LTSCALE
 40
7.0
  9
$ATTMODE
 70
     0
  9
$TEXTSIZE
 40
6.0
  9
$TRACEWID
 40
1.0
  9
$TEXTSTYLE
  7
STANDARD
  9
$CLAYER
  8
寸法線
  9
$CELTYPE
  6
BYLAYER
  9
$CECOLOR
 62
   256
  9
$CELTSCALE
 40
1.0
  9
$DISPSILH
 70
     0
  9
$DIMSCALE
 40
1.0
  9
$DIMASZ
 40
10.0
  9
$DIMEXO
 40
3.0
  9
$DIMDLI
 40
7.149999999999999
  9
$DIMRND
 40
0.0
  9
$DIMDLE
 40
0.0
  9
$DIMEXE
 40
2.0
  9
$DIMTP
 40
0.0
  9
$DIMTM
 40
0.0
  9
$DIMTXT
 40
18.0
  9
$DIMCEN
 40
0.0
  9
$DIMTSZ
 40
0.0
  9
$DIMTOL
 70
     0
  9
$DIMLIM
 70
     0
  9
$DIMTIH
 70
     0
  9
$DIMTOH
 70
     0
  9
$DIMSE1
 70
     0
  9
$DIMSE2
 70
     0
  9
$DIMTAD
 70
     3
  9
$DIMZIN
 70
     8
  9
$DIMBLK
  1
OPEN
  9
$DIMASO
 70
     1
  9
$DIMSHO
 70
     0
  9
$DIMPOST
  1

  9
$DIMAPOST
  1

  9
$DIMALT
 70
     0
  9
$DIMALTD
 70
     2
  9
$DIMALTF
 40
25.4
  9
$DIMLFAC
 40
1.0
  9
$DIMTOFL
 70
     0
  9
$DIMTVP
 40
0.0
  9
$DIMTIX
 70
     0
  9
$DIMSOXD
 70
     0
  9
$DIMSAH
 70
     0
  9
$DIMBLK1
  1

  9
$DIMBLK2
  1

  9
$DIMSTYLE
  2
STANDARD
  9
$DIMCLRD
 70
     8
  9
$DIMCLRE
 70
     8
  9
$DIMCLRT
 70
     0
  9
$DIMTFAC
 40
1.0
  9
$DIMGAP
 40
4.0
  9
$DIMJUST
 70
     0
  9
$DIMSD1
 70
     0
  9
$DIMSD2
 70
     0
  9
$DIMTOLJ
 70
     1
  9
$DIMTZIN
 70
     0
  9
$DIMALTZ
 70
     0
  9
$DIMALTTZ
 70
     0
  9
$DIMUPT
 70
     1
  9
$DIMDEC
 70
     2
  9
$DIMTDEC
 70
     2
  9
$DIMALTU
 70
     2
  9
$DIMALTTD
 70
     2
  9
$DIMTXSTY
  7
STANDARD
  9
$DIMAUNIT
 70
     0
  9
$DIMADEC
 70
     2
  9
$DIMALTRND
 40
0.0
  9
$DIMAZIN
 70
     2
  9
$DIMDSEP
 70
    46
  9
$DIMATFIT
 70
     3
  9
$DIMFRAC
 70
     0
  9
$DIMLDRBLK
  1
OPEN
  9
$DIMLUNIT
 70
     2
  9
$DIMLWD
 70
    -2
  9
$DIMLWE
 70
    -2
  9
$DIMTMOVE
 70
     0
  9
$LUNITS
 70
     2
  9
$LUPREC
 70
     2
  9
$SKETCHINC
 40
0.1
  9
$FILLETRAD
 40
0.6
  9
$AUNITS
 70
     0
  9
$AUPREC
 70
     2
  9
$MENU
  1
ACAD
  9
$ELEVATION
 40
0.0
  9
$PELEVATION
 40
0.0
  9
$THICKNESS
 40
0.0
  9
$LIMCHECK
 70
     0
  9
$CHAMFERA
 40
0.0
  9
$CHAMFERB
 40
0.0
  9
$CHAMFERC
 40
0.0
  9
$CHAMFERD
 40
0.0
  9
$SKPOLY
 70
     0
  9
$TDCREATE
 40
2449505.922222222
  9
$TDUCREATE
 40
2449505.547222222
  9
$TDUPDATE
 40
2456822.491499213
  9
$TDUUPDATE
 40
2456822.116499213
  9
$TDINDWG
 40
2.3829488657
  9
$TDUSRTIMER
 40
2456822.116365463
  9
$USRTIMER
 70
     1
  9
$ANGBASE
 50
0.0
  9
$ANGDIR
 70
     0
  9
$PDMODE
 70
     3
  9
$PDSIZE
 40
0.0
  9
$PLINEWID
 40
0.0
  9
$SPLFRAME
 70
     0
  9
$SPLINETYPE
 70
     6
  9
$SPLINESEGS
 70
     8
  9
$HANDSEED
  5
6CB44
  9
$SURFTAB1
 70
     6
  9
$SURFTAB2
 70
     6
  9
$SURFTYPE
 70
     6
  9
$SURFU
 70
     6
  9
$SURFV
 70
     6
  9
$UCSBASE
  2

  9
$UCSNAME
  2

  9
$UCSORG
 10
0.0
 20
0.0
 30
0.0
  9
$UCSXDIR
 10
1.0
 20
0.0
 30
0.0
  9
$UCSYDIR
 10
0.0
 20
1.0
 30
0.0
  9
$UCSORTHOREF
  2

  9
$UCSORTHOVIEW
 70
     0
  9
$UCSORGTOP
 10
0.0
 20
0.0
 30
0.0
  9
$UCSORGBOTTOM
 10
0.0
 20
0.0
 30
0.0
  9
$UCSORGLEFT
 10
0.0
 20
0.0
 30
0.0
  9
$UCSORGRIGHT
 10
0.0
 20
0.0
 30
0.0
  9
$UCSORGFRONT
 10
0.0
 20
0.0
 30
0.0
  9
$UCSORGBACK
 10
0.0
 20
0.0
 30
0.0
  9
$PUCSBASE
  2

  9
$PUCSNAME
  2

  9
$PUCSORG
 10
0.0
 20
0.0
 30
0.0
  9
$PUCSXDIR
 10
1.0
 20
0.0
 30
0.0
  9
$PUCSYDIR
 10
0.0
 20
1.0
 30
0.0
  9
$PUCSORTHOREF
  2

  9
$PUCSORTHOVIEW
 70
     0
  9
$PUCSORGTOP
 10
0.0
 20
0.0
 30
0.0
  9
$PUCSORGBOTTOM
 10
0.0
 20
0.0
 30
0.0
  9
$PUCSORGLEFT
 10
0.0
 20
0.0
 30
0.0
  9
$PUCSORGRIGHT
 10
0.0
 20
0.0
 30
0.0
  9
$PUCSORGFRONT
 10
0.0
 20
0.0
 30
0.0
  9
$PUCSORGBACK
 10
0.0
 20
0.0
 30
0.0
  9
$USERI1
 70
     0
  9
$USERI2
 70
     0
  9
$USERI3
 70
     0
  9
$USERI4
 70
     0
  9
$USERI5
 70
     0
  9
$USERR1
 40
0.0
  9
$USERR2
 40
0.0
  9
$USERR3
 40
0.0
  9
$USERR4
 40
0.0
  9
$USERR5
 40
0.0
  9
$WORLDVIEW
 70
     0
  9
$SHADEDGE
 70
     3
  9
$SHADEDIF
 70
    70
  9
$TILEMODE
 70
     1
  9
$MAXACTVP
 70
    16
  9
$PINSBASE
 10
0.0
 20
0.0
 30
0.0
  9
$PLIMCHECK
 70
     0
  9
$PEXTMIN
 10
1.000000000000000E+20
 20
1.000000000000000E+20
 30
1.000000000000000E+20
  9
$PEXTMAX
 10
-1.000000000000000E+20
 20
-1.000000000000000E+20
 30
-1.000000000000000E+20
  9
$PLIMMIN
 10
0.0
 20
0.0
  9
$PLIMMAX
 10
0.0
 20
0.0
  9
$UNITMODE
 70
     0
  9
$VISRETAIN
 70
     0
  9
$PLINEGEN
 70
     0
  9
$PSLTSCALE
 70
     0
  9
$TREEDEPTH
 70
  3020
  9
$CMLSTYLE
  2
STANDARD
  9
$CMLJUST
 70
     0
  9
$CMLSCALE
 40
1.0
  9
$PROXYGRAPHICS
 70
     1
  9
$MEASUREMENT
 70
     0
  9
$CELWEIGHT
370
    -1
  9
$ENDCAPS
280
     0
  9
$JOINSTYLE
280
     0
  9
$LWDISPLAY
290
     0
  9
$INSUNITS
 70
     0
  9
$HYPERLINKBASE
  1

  9
$STYLESHEET
  1
spax form.ctb
  9
$XEDIT
290
     1
  9
$CEPSNTYPE
380
     0
  9
$PSTYLEMODE
290
     1
  9
$FINGERPRINTGUID
  2
{C1CFCF3E-DF91-11D3-B30C-0060B0FA8DFC}
  9
$VERSIONGUID
  2
{9AD143F0-0679-4C18-AECF-B085A511A17D}
  9
$EXTNAMES
290
     1
  9
$PSVPSCALE
 40
0.0
  9
$OLESTARTUP
290
     0
  0
ENDSEC
  0
SECTION
  2
CLASSES
  0
CLASS
  1
LWPOLYLINE
  2
AcDbPolyline
  3
ObjectDBX Classes
 90
        0
280
     0
281
     1
  0
CLASS
  1
ACDBDICTIONARYWDFLT
  2
AcDbDictionaryWithDefault
  3
ObjectDBX Classes
 90
        0
280
     0
281
     0
  0
CLASS
  1
ACDBPLACEHOLDER
  2
AcDbPlaceHolder
  3
ObjectDBX Classes
 90
        0
280
     0
281
     0
  0
CLASS
  1
LAYOUT
  2
AcDbLayout
  3
ObjectDBX Classes
 90
        0
280
     0
281
     0
  0
CLASS
  1
DICTIONARYVAR
  2
AcDbDictionaryVar
  3
ObjectDBX Classes
 90
        0
280
     0
281
     0
  0
CLASS
  1
LONG_TRANSACTION
  2
AcDbLongTransaction
  3
ObjectDBX Classes
 90
        0
280
     0
281
     0
  0
CLASS
  1
LWPOLYLINE
  2
AcDbPolyline
  3
ObjectDBX Classes
 90
        0
280
     0
281
     1
  0
CLASS
  1
HATCH
  2
AcDbHatch
  3
ObjectDBX Classes
 90
        0
280
     0
281
     1
  0
CLASS
  1
XRECORD
  2
AcDbXrecord
  3
ObjectDBX Classes
 90
        0
280
     0
281
     0
  0
CLASS
  1
SORTENTSTABLE
  2
AcDbSortentsTable
  3
ObjectDBX Classes
 90
        0
280
     0
281
     0
  0
CLASS
  1
MATERIAL
  2
AcDbMaterial
  3
ObjectDBX Classes
 90
     1153
280
     0
281
     0
  0
CLASS
  1
VISUALSTYLE
  2
AcDbVisualStyle
  3
ObjectDBX Classes
 90
     4095
280
     0
281
     0
  0
CLASS
  1
TABLESTYLE
  2
AcDbTableStyle
  3
ObjectDBX Classes
 90
     4095
280
     0
281
     0
  0
CLASS
  1
SCALE
  2
AcDbScale
  3
ObjectDBX Classes
 90
     1153
280
     0
281
     0
  0
CLASS
  1
MLEADERSTYLE
  2
AcDbMLeaderStyle
  3
ACDB_MLEADERSTYLE_CLASS
 90
     4095
280
     0
281
     0
  0
CLASS
  1
CELLSTYLEMAP
  2
AcDbCellStyleMap
  3
ObjectDBX Classes
 90
     1152
280
     0
281
     0
  0
CLASS
  1
RASTERVARIABLES
  2
AcDbRasterVariables
  3
ISM
 90
        0
280
     0
281
     0
  0
CLASS
  1
SUN
  2
AcDbSun
  3
SCENEOE
 90
     1153
280
     0
281
     0
  0
ENDSEC
  0
SECTION
  2
TABLES
  0
TABLE
  2
VPORT
  5
8
330
0
100
AcDbSymbolTable
 70
     1
  0
VPORT
  5
6A835
330
8
100
AcDbSymbolTableRecord
100
AcDbViewportTableRecord
  2
*Active
 70
     0
 10
0.0
 20
0.0
 11
1.0
 21
1.0
 12
11877.63205542679
 22
-11917.9096852149
 13
0.0
 23
0.0
 14
1.0
 24
1.0
 15
20.0
 25
20.0
 16
0.0
 26
0.0
 36
1.0
 17
0.0
 27
0.0
 37
0.0
 40
346.3574207959285
 41
2.027568922305764
 42
50.0
 43
0.0
 44
0.0
 50
0.0
 51
0.0
 71
    16
 72
  2000
 73
     1
 74
     0
 75
     0
 76
     0
 77
     0
 78
     1
281
     0
 65
     1
110
0.0
120
0.0
130
0.0
111
1.0
121
0.0
131
0.0
112
0.0
122
1.0
132
0.0
 79
     0
146
0.0
  0
ENDTAB
  0
TABLE
  2
LTYPE
  5
5
330
0
100
AcDbSymbolTable
 70
     4
  0
LTYPE
  5
12
330
5
100
AcDbSymbolTableRecord
100
AcDbLinetypeTableRecord
  2
BYBLOCK
 70
     0
  3

 72
    65
 73
     0
 40
0.0
  0
LTYPE
  5
13
330
5
100
AcDbSymbolTableRecord
100
AcDbLinetypeTableRecord
  2
BYLAYER
 70
     0
  3

 72
    65
 73
     0
 40
0.0
  0
LTYPE
  5
14
330
5
100
AcDbSymbolTableRecord
100
AcDbLinetypeTableRecord
  2
CONTINUOUS
 70
     0
  3
Solid line
 72
    65
 73
     0
 40
0.0
  0
LTYPE
  5
3D
330
5
100
AcDbSymbolTableRecord
100
AcDbLinetypeTableRecord
  2
PHANTOM
 70
     0
  3
_____ _ _ _____ _ _ _____ _ _ _____ _ _ ____
 72
    65
 73
     6
 40
2.5
 49
1.25
 74
     0
 49
-0.25
 74
     0
 49
0.25
 74
     0
 49
-0.25
 74
     0
 49
0.25
 74
     0
 49
-0.25
 74
     0
  0
LTYPE
  5
40D2
330
5
100
AcDbSymbolTableRecord
100
AcDbLinetypeTableRecord
  2
CENTER
 70
     0
  3
____ _ ____ _ ____ _ ____ _ ____ _ ____ _ ____ 
 72
    65
 73
     4
 40
2.0
 49
1.25
 74
     0
 49
-0.25
 74
     0
 49
0.25
 74
     0
 49
-0.25
 74
     0
  0
LTYPE
  5
A244
330
5
100
AcDbSymbolTableRecord
100
AcDbLinetypeTableRecord
  2
HIDDEN
 70
     0
  3
_ _ _ _ _ _ _ _ _ _ _ _ _ _ _ _ _ _ _ _ _ _ _
 72
    65
 73
     2
 40
0.375
 49
0.25
 74
     0
 49
-0.125
 74
     0
  0
ENDTAB
  0
TABLE
  2
LAYER
  5
2
102
{ACAD_XDICTIONARY
360
66435
102
}
330
0
100
AcDbSymbolTable
 70
    12
  0
LAYER
  5
F
102
{ACAD_XDICTIONARY
360
67B49
102
}
330
2
100
AcDbSymbolTableRecord
100
AcDbLayerTableRecord
  2
0
 70
     0
 62
     7
  6
CONTINUOUS
370
    -3
390
40CA
  0
LAYER
  5
4C
102
{ACAD_XDICTIONARY
360
67B51
102
}
330
2
100
AcDbSymbolTableRecord
100
AcDbLayerTableRecord
  2
寸法線
 70
     0
 62
     7
  6
CONTINUOUS
370
    -3
390
40CA
  0
LAYER
  5
4D
102
{ACAD_XDICTIONARY
360
67B53
102
}
330
2
100
AcDbSymbolTableRecord
100
AcDbLayerTableRecord
  2
姿図
 70
     0
 62
     8
  6
CONTINUOUS
370
    -3
390
40CA
  0
LAYER
  5
40D4
102
{ACAD_XDICTIONARY
360
67B57
102
}
330
2
100
AcDbSymbolTableRecord
100
AcDbLayerTableRecord
  2
文字
 70
     0
 62
     7
  6
CONTINUOUS
370
    -3
390
40CA
  0
LAYER
  5
6688C
102
{ACAD_XDICTIONARY
360
67B5D
102
}
330
2
100
AcDbSymbolTableRecord
100
AcDbLayerTableRecord
  2
C-SUNPO
 70
     0
 62
     7
  6
CONTINUOUS
370
    -3
390
40CA
  0
ENDTAB
  0
TABLE
  2
STYLE
  5
3
330
0
100
AcDbSymbolTable
 70
     1
  0
STYLE
  5
10
330
3
100
AcDbSymbolTableRecord
100
AcDbTextStyleTableRecord
  2
STANDARD
 70
     0
 40
0.0
 41
1.0
 50
0.0
 71
     0
 42
6.0
  3
MONOTXT
  4
BIGFONT
  0
ENDTAB
  0
TABLE
  2
VIEW
  5
6
330
0
100
AcDbSymbolTable
 70
     1
  0
VIEW
  5
41
330
6
100
AcDbSymbolTableRecord
100
AcDbViewTableRecord
  2
CUT1
 70
     0
 40
612.7795527156796
 10
420.0000000000169
 20
306.3897763578398
 41
840.0000000000338
 11
0.0
 21
0.0
 31
1.0
 12
0.0
 22
0.0
 32
0.0
 42
50.0
 43
0.0
 44
0.0
 50
0.0
 71
     0
281
     0
 72
     0
  0
ENDTAB
  0
TABLE
  2
UCS
  5
7
330
0
100
AcDbSymbolTable
 70
     0
  0
ENDTAB
  0
TABLE
  2
APPID
  5
9
330
0
100
AcDbSymbolTable
 70
     4
  0
APPID
  5
11
330
9
100
AcDbSymbolTableRecord
100
AcDbRegAppTableRecord
  2
ACAD
 70
     0
  0
APPID
  5
668EE
330
9
100
AcDbSymbolTableRecord
100
AcDbRegAppTableRecord
  2
ACAD_MLEADERVER
 70
     0
  0
APPID
  5
67776
330
9
100
AcDbSymbolTableRecord
100
AcDbRegAppTableRecord
  2
ACAD_EXEMPT_FROM_CAD_STANDARDS
 70
     0
  0
APPID
  5
68A85
330
9
100
AcDbSymbolTableRecord
100
AcDbRegAppTableRecord
  2
ACAD_PSEXT
 70
     0
  0
ENDTAB
  0
TABLE
  2
DIMSTYLE
  5
A
330
0
100
AcDbSymbolTable
 70
     5
100
AcDbDimStyleTable
  0
DIMSTYLE
105
1B3A
330
A
100
AcDbSymbolTableRecord
100
AcDbDimStyleTableRecord
  2
STANDARD
 70
     0
 41
10.0
 42
3.0
 43
7.149999999999999
 44
2.0
 73
     0
 74
     0
 77
     3
 78
     8
 79
     2
140
18.0
141
0.0
147
4.0
176
     8
177
     8
178
     0
179
     2
271
     2
272
     2
288
     1
340
10
341
49C3
342
49C3
  0
DIMSTYLE
105
A246
330
A
100
AcDbSymbolTableRecord
100
AcDbDimStyleTableRecord
  2
STANDERD
 70
     0
 40
0.0
 41
4.0
 42
1.5
 43
3.75
 44
1.25
 73
     0
 74
     0
 77
     3
 78
     8
140
5.0
141
0.0
147
2.5
171
     0
173
     1
178
     0
288
     1
340
10
341
49C3
343
49C3
344
49C3
  0
DIMSTYLE
105
6357F
330
A
100
AcDbSymbolTableRecord
100
AcDbDimStyleTableRecord
  2
STANDARD-5
 70
     0
 41
7.5
 42
7.5
 43
1.9
 44
5.0
 73
     0
 74
     0
 77
     1
 78
     8
 79
     2
140
12.5
141
0.0
147
3.0
171
     0
173
     1
176
     8
177
     8
271
     2
178
   256
179
     2
271
     2
272
     2
274
     0
340
10
341
49C3
343
49C3
344
49C3
  0
ENDTAB
  0
TABLE
  2
BLOCK_RECORD
  5
1
330
0
100
AcDbSymbolTable
 70
   185
  0
BLOCK_RECORD
  5
18
330
1
100
AcDbSymbolTableRecord
100
AcDbBlockTableRecord
  2
*MODEL_SPACE
340
40CD
  0
BLOCK_RECORD
  5
15
330
1
100
AcDbSymbolTableRecord
100
AcDbBlockTableRecord
  2
*PAPER_SPACE
340
40CE
  0
BLOCK_RECORD
  5
49C3
330
1
100
AcDbSymbolTableRecord
100
AcDbBlockTableRecord
  2
_OPEN
340
0
102
{BLKREFS
331
61C68
331
61C69
331
61C71
331
61C72
331
61C7A
331
61C7B
331
61C83
331
61C84
331
61C8C
331
61C8D
331
61C95
331
61C96
331
61CA0
331
61CA1
331
61CB2
331
61CB3
331
61CBB
331
61CBC
331
61CC4
331
61CC5
331
61CCD
331
61CCE
331
6228C
331
6228D
331
62297
331
62298
331
622A0
331
622A1
331
622B3
331
622B4
331
62662
331
62663
331
63C04
331
63C05
331
63C0D
331
63C0E
331
63C16
331
63C17
331
63C1F
331
63C20
331
63C28
331
63C29
331
63C31
331
63C32
331
63C3A
331
63C3B
331
63C43
331
63C44
331
63C4C
331
63C4D
331
63C57
331
63C58
331
63C62
331
63C63
331
63C6B
331
63C6C
331
63C74
331
63C75
331
63C7F
331
63C80
331
63C8A
331
63C8B
331
63C95
331
63C96
331
63C9E
331
63C9F
331
63CA7
331
63CA8
331
63CB2
331
63CB3
331
65287
331
65288
331
65290
331
65291
331
65299
331
6529A
331
652A2
331
652A3
331
652AB
331
652AC
331
652B4
331
652B5
331
652C1
331
652C2
331
652CA
331
652CB
331
652D3
331
652D4
331
652DC
331
652DD
331
652E5
331
652E6
331
652EE
331
652EF
331
652F7
331
652F8
331
65300
331
65301
331
6530B
331
6530C
331
65316
331
65317
331
6531F
331
65320
331
65328
331
65329
331
65333
331
65334
331
663A5
331
663A6
331
663AE
331
663AF
331
663B7
331
663B8
331
663C0
331
663C1
331
663CD
331
663CE
331
663D6
331
663D7
331
663DF
331
663E0
331
667F5
331
667F6
331
66800
331
66801
331
66809
331
6680A
331
66812
331
66813
331
6681B
331
6681C
331
66824
331
66825
331
6682D
331
6682E
331
66836
331
66837
331
6683F
331
66840
331
676E2
331
676E3
331
676EB
331
676EC
331
676F4
331
676F5
331
676FD
331
676FE
331
67706
331
67707
331
6770F
331
67710
331
67718
331
67719
331
67721
331
67722
331
6772A
331
6772B
331
67733
331
67734
331
6773C
331
6773D
331
67747
331
67748
331
67750
331
67751
331
67B2F
331
67B30
331
67B3A
331
67B3B
331
67B43
331
67B44
331
689CF
331
689D0
331
689D8
331
689D9
331
689E1
331
689E2
331
689EA
331
689EB
331
689F3
331
689F4
331
689FC
331
689FD
331
68A05
331
68A06
331
68A0E
331
68A0F
331
68A17
331
68A18
331
68A20
331
68A21
331
68A2B
331
68A2C
331
68A34
331
68A35
331
68A3F
331
68A40
331
68A48
331
68A49
331
68A53
331
68A54
331
68A5C
331
68A5D
331
6989B
331
6989C
331
698A4
331
698A5
331
698AD
331
698AE
331
698B6
331
698B7
331
698BF
331
698C0
331
698C8
331
698C9
331
698D1
331
698D2
331
698DA
331
698DB
331
698E3
331
698E4
331
698EC
331
698ED
331
698F9
331
698FA
331
69902
331
69903
331
6990D
331
6990E
331
69916
331
69917
331
6991F
331
69920
331
69928
331
69929
331
6A72C
331
6A72D
331
6A735
331
6A736
331
6A73E
331
6A73F
331
6A747
331
6A748
331
6A750
331
6A751
331
6A75B
331
6A75C
331
6A764
331
6A765
331
6A76D
331
6A76E
331
6A776
331
6A777
331
6A77F
331
6A780
331
6A78A
331
6A78B
331
6A793
331
6A794
331
6A79E
331
6A79F
331
6A7A7
331
6A7A8
331
6A7B0
331
6A7B1
331
6A7B9
331
6A7BA
331
6CA46
331
6CA47
331
6CA4F
331
6CA50
331
6CA58
331
6CA59
331
6CA63
331
6CA64
331
6CA6C
331
6CA6D
331
6CA75
331
6CA76
331
6CA7E
331
6CA7F
331
6CA87
331
6CA88
331
6CA90
331
6CA91
331
6CA99
331
6CA9A
331
6CAA4
331
6CAA5
331
6CAAD
331
6CAAE
331
6CAB6
331
6CAB7
331
6CABF
331
6CAC0
331
6CAC8
331
6CAC9
331
6CAD1
331
6CAD2
102
}
  0
ENDTAB
  0
ENDSEC
  0
SECTION
  2
BLOCKS
  0
BLOCK
  5
52
330
18
100
AcDbEntity
  8
0
100
AcDbBlockBegin
  2
*MODEL_SPACE
 70
     0
 10
0.0
 20
0.0
 30
0.0
  3
*MODEL_SPACE
  1
*MODEL_SPACE
  0
ENDBLK
  5
53
330
18
100
AcDbEntity
  8
0
100
AcDbBlockEnd
  0
BLOCK
  5
50
330
15
100
AcDbEntity
 67
     1
  8
0
100
AcDbBlockBegin
  2
*PAPER_SPACE
 70
     0
 10
0.0
 20
0.0
 30
0.0
  3
*PAPER_SPACE
  1
*PAPER_SPACE
  0
ENDBLK
  5
51
330
15
100
AcDbEntity
 67
     1
  8
0
100
AcDbBlockEnd
  0
BLOCK
  5
49C7
330
49C3
100
AcDbEntity
  8
0
100
AcDbBlockBegin
  2
_OPEN
 70
     0
 10
0.0
 20
0.0
 30
0.0
  3
_OPEN
  1
_OPEN
  0
LINE
  5
49C4
330
49C3
100
AcDbEntity
  8
0
  6
ByBlock
 62
     0
100
AcDbLine
 10
-1.0
 20
0.1666666666666667
 30
0.0
 11
0.0
 21
0.0
 31
0.0
  0
LINE
  5
49C5
330
49C3
100
AcDbEntity
  8
0
  6
ByBlock
 62
     0
100
AcDbLine
 10
0.0
 20
0.0
 30
0.0
 11
-1.0
 21
-0.1666666666666667
 31
0.0
  0
LINE
  5
49C6
330
49C3
100
AcDbEntity
  8
0
  6
ByBlock
 62
     0
100
AcDbLine
 10
0.0
 20
0.0
 30
0.0
 11
-1.0
 21
0.0
 31
0.0
  0
ENDBLK
  5
49C8
330
49C3
100
AcDbEntity
  8
0
100
AcDbBlockEnd
  0
ENDSEC
  0
SECTION
  2
ENTITIES
  0
TEXT
  5
6C7FF
330
18
100
AcDbEntity
  8
文字
100
AcDbText
 10
11687.65105542679
 20
-12087.69273462467
 30
0.0
 40
29.997
  1
SX-LB146S/900
100
AcDbText
  0
LINE
  5
6C80B
330
18
100
AcDbEntity
  8
姿図
100
AcDbLine
 10
11912.26309451805
 20
-11766.54839255326
 30
0.0
 11
12026.01147276926
 21
-11865.22522298268
 31
0.0
  0
LINE
  5
6C80C
330
18
100
AcDbEntity
  8
姿図
100
AcDbLine
 10
11912.26309451805
 20
-11763.9236174018
 30
0.0
 11
12026.01147276926
 21
-11862.60044783122
 31
0.0
  0
LINE
  5
6C80D
330
18
100
AcDbEntity
  8
姿図
100
AcDbLine
 10
11912.26309451805
 20
-11774.42271800764
 30
0.0
 11
12026.01147276926
 21
-11873.09954843706
 31
0.0
  0
LINE
  5
6C80E
330
18
100
AcDbEntity
  8
姿図
100
AcDbLine
 10
12039.24801754152
 20
-11973.54762015678
 30
0.0
 11
11896.76489174829
 21
-11852.44860140028
 31
0.0
  0
LINE
  5
6C80F
330
18
100
AcDbEntity
  8
姿図
100
AcDbLine
 10
12039.24801754152
 20
-11970.78750258781
 30
0.0
 11
11896.76489174829
 21
-11849.6884838313
 31
0.0
  0
LINE
  5
6C810
330
18
100
AcDbEntity
  8
姿図
100
AcDbLine
 10
12039.24801754152
 20
-11963.12475167131
 30
0.0
 11
11896.76489174829
 21
-11842.0257329148
 31
0.0
  0
LINE
  5
6C811
330
18
100
AcDbEntity
  8
姿図
100
AcDbLine
 10
12039.24801754152
 20
-11959.67397642414
 30
0.0
 11
11896.76489174829
 21
-11838.57495766764
 31
0.0
  0
LINE
  5
6C812
330
18
100
AcDbEntity
  8
姿図
100
AcDbLine
 10
12039.24801754152
 20
-11954.80229372226
 30
0.0
 11
11896.76489174829
 21
-11833.70327496576
 31
0.0
  0
LINE
  5
6C813
330
18
100
AcDbEntity
  8
姿図
100
AcDbLine
 10
12039.24801754152
 20
-11949.93061102038
 30
0.0
 11
11896.76489174829
 21
-11828.83159226388
 31
0.0
  0
LINE
  5
6C814
330
18
100
AcDbEntity
  8
姿図
100
AcDbLine
 10
12039.24801754152
 20
-11945.0589283185
 30
0.0
 11
11896.76489174829
 21
-11823.95990956199
 31
0.0
  0
LINE
  5
6C815
330
18
100
AcDbEntity
  8
姿図
100
AcDbLine
 10
12039.24801754152
 20
-11940.18724561662
 30
0.0
 11
11896.76489174829
 21
-11819.08822686011
 31
0.0
  0
LINE
  5
6C816
330
18
100
AcDbEntity
  8
姿図
100
AcDbLine
 10
12039.24801754152
 20
-11935.31556291474
 30
0.0
 11
11896.76489174829
 21
-11814.21654415823
 31
0.0
  0
LINE
  5
6C817
330
18
100
AcDbEntity
  8
姿図
100
AcDbLine
 10
12039.24801754152
 20
-11930.74836038172
 30
0.0
 11
11896.76489174829
 21
-11809.64934162522
 31
0.0
  0
LINE
  5
6C818
330
18
100
AcDbEntity
  8
姿図
100
AcDbLine
 10
12039.24801754152
 20
-11961.34861735292
 30
0.0
 11
11896.76489174829
 21
-11840.24959859641
 31
0.0
  0
LINE
  5
6C819
330
18
100
AcDbEntity
  8
姿図
100
AcDbLine
 10
12039.24801754152
 20
-11956.47693465103
 30
0.0
 11
11896.76489174829
 21
-11835.37791589453
 31
0.0
  0
LINE
  5
6C81A
330
18
100
AcDbEntity
  8
姿図
100
AcDbLine
 10
12039.24801754152
 20
-11951.60525194915
 30
0.0
 11
11896.76489174829
 21
-11830.50623319265
 31
0.0
  0
LINE
  5
6C81B
330
18
100
AcDbEntity
  8
姿図
100
AcDbLine
 10
12039.24801754152
 20
-11946.73356924727
 30
0.0
 11
11896.76489174829
 21
-11825.63455049077
 31
0.0
  0
LINE
  5
6C81C
330
18
100
AcDbEntity
  8
姿図
100
AcDbLine
 10
12039.24801754152
 20
-11941.86188654539
 30
0.0
 11
11896.76489174829
 21
-11820.76286778889
 31
0.0
  0
LINE
  5
6C81D
330
18
100
AcDbEntity
  8
姿図
100
AcDbLine
 10
12039.24801754152
 20
-11936.99020384351
 30
0.0
 11
11896.76489174829
 21
-11815.89118508701
 31
0.0
  0
LINE
  5
6C81E
330
18
100
AcDbEntity
  8
姿図
100
AcDbLine
 10
12039.24801754152
 20
-11932.77822817418
 30
0.0
 11
11896.76489174829
 21
-11811.67920941767
 31
0.0
  0
LINE
  5
6C81F
330
18
100
AcDbEntity
  8
姿図
100
AcDbLine
 10
12037.95008977434
 20
-11932.91932642115
 30
0.0
 11
11896.76489174829
 21
-11812.92344025068
 31
0.0
  0
LINE
  5
6C820
330
18
100
AcDbEntity
  8
姿図
100
AcDbLine
 10
12038.07034756623
 20
-11964.9008859897
 30
0.0
 11
11896.76489174829
 21
-11844.80279051891
 31
0.0
  0
LINE
  5
6C821
330
18
100
AcDbEntity
  8
姿図
100
AcDbLine
 10
12038.19147399398
 20
-11924.86174378362
 30
0.0
 11
11896.76489174829
 21
-11804.66070074296
 31
0.0
  0
LINE
  5
6C822
330
18
100
AcDbEntity
  8
姿図
100
AcDbLine
 10
12039.24801754152
 20
-11924.86174378362
 30
0.0
 11
11896.76489174829
 21
-11803.76272502711
 31
0.0
  0
LINE
  5
6C823
330
18
100
AcDbEntity
  8
姿図
100
AcDbLine
 10
12039.24801754152
 20
-11922.83187599117
 30
0.0
 11
11896.76489174829
 21
-11801.73285723466
 31
0.0
  0
LINE
  5
6C824
330
18
100
AcDbEntity
  8
姿図
100
AcDbLine
 10
12038.09847983429
 20
-11952.72845643405
 30
0.0
 11
11896.76489174829
 21
-11832.60645083327
 31
0.0
  0
LINE
  5
6C825
330
18
100
AcDbEntity
  8
姿図
100
AcDbLine
 10
12008.03075946483
 20
-11984.89705342052
 30
0.0
 11
11865.93480727874
 21
-11864.23899173077
 31
0.0
  0
LINE
  5
6C826
330
18
100
AcDbEntity
  8
姿図
100
AcDbLine
 10
12008.03075946481
 20
-11977.67331352492
 30
0.0
 11
11865.93480727874
 21
-11857.01525183518
 31
0.0
  0
LINE
  5
6C827
330
18
100
AcDbEntity
  8
姿図
100
AcDbLine
 10
11851.7551028644
 20
-11867.66860925076
 30
0.0
 11
11992.85609433745
 21
-11987.59292672926
 31
0.0
  0
LINE
  5
6C829
330
18
100
AcDbEntity
  8
姿図
100
AcDbLine
 10
11896.76489174829
 20
-11852.44860140028
 30
0.0
 11
11896.76489174829
 21
-11804.66070074296
 31
0.0
  0
LINE
  5
6C82A
330
18
100
AcDbEntity
  8
姿図
100
AcDbLine
 10
11896.76489174829
 20
-11804.66070074296
 30
0.0
 11
11894.52081613761
 21
-11805.05937468343
 31
0.0
  0
LINE
  5
6C82B
330
18
100
AcDbEntity
  8
姿図
100
AcDbLine
 10
11893.41433260124
 20
-11804.35797262554
 30
0.0
 11
11894.52081613761
 21
-11805.05937468343
 31
0.0
  0
LINE
  5
6C82C
330
18
100
AcDbEntity
  8
姿図
100
AcDbLine
 10
11752.69735238998
 20
-11796.51091892856
 30
0.0
 11
11873.77395400201
 21
-11899.29271675245
 31
0.0
  0
LINE
  5
6C82D
330
18
100
AcDbEntity
  8
姿図
100
AcDbLine
 10
11737.17958709686
 20
-11878.03980227335
 30
0.0
 11
11737.17958709686
 21
-11780.47795424718
 31
0.0
  0
LINE
  5
6C82E
330
18
100
AcDbEntity
  8
姿図
100
AcDbLine
 10
11752.69735238999
 20
-11872.98109960261
 30
0.0
 11
11752.69735238999
 21
-11796.51091892856
 31
0.0
  0
LINE
  5
6C82F
330
18
100
AcDbEntity
  8
姿図
100
AcDbLine
 10
11752.17958709686
 20
-11873.34364276388
 30
0.0
 11
11752.17958709686
 21
-11796.12627671217
 31
0.0
  0
LINE
  5
6C830
330
18
100
AcDbEntity
  8
姿図
100
AcDbLine
 10
11874.76489174829
 20
-11851.5656036388
 30
0.0
 11
11874.76489174829
 21
-11772.34823758708
 31
0.0
  0
LINE
  5
6C831
330
18
100
AcDbEntity
  8
姿図
100
AcDbLine
 10
11891.76489174829
 20
-11816.25752864235
 30
0.0
 11
11891.76489174829
 21
-11749.01491679391
 31
0.0
  0
LINE
  5
6C832
330
18
100
AcDbEntity
  8
姿図
100
AcDbLine
 10
11912.26309451805
 20
-11814.90506367987
 30
0.0
 11
11912.26309451805
 21
-11761.29884225034
 31
0.0
  0
LINE
  5
6C833
330
18
100
AcDbEntity
  8
姿図
100
AcDbLine
 10
11914.06668963215
 20
-12001.59035279263
 30
0.0
 11
11772.87168477232
 21
-11881.68273737496
 31
0.0
  0
LINE
  5
6C834
330
18
100
AcDbEntity
  8
姿図
100
AcDbLine
 10
11874.2382509655
 20
-12002.86262787922
 30
0.0
 11
11731.65994222681
 21
-11881.78051896289
 31
0.0
  0
LINE
  5
6C835
330
18
100
AcDbEntity
  8
姿図
100
AcDbLine
 10
11929.82627046076
 20
-11998.79056558439
 30
0.0
 11
11788.63126560093
 21
-11878.88295016673
 31
0.0
  0
LINE
  5
6C836
330
18
100
AcDbEntity
  8
姿図
100
AcDbLine
 10
11929.82627046077
 20
-11996.03044801542
 30
0.0
 11
11788.63126560093
 21
-11876.12283259775
 31
0.0
  0
LINE
  5
6C837
330
18
100
AcDbEntity
  8
姿図
100
AcDbLine
 10
11778.23722334284
 20
-11871.94705034681
 30
0.0
 11
11788.63126560093
 21
-11876.12283259775
 31
0.0
  0
LINE
  5
6C838
330
18
100
AcDbEntity
  8
姿図
100
AcDbLine
 10
11777.86443507801
 20
-11872.87496678141
 30
0.0
 11
11783.99598703757
 21
-11875.33830348985
 31
0.0
  0
LINE
  5
6C839
330
18
100
AcDbEntity
  8
姿図
100
AcDbLine
 10
11775.6318023413
 20
-11873.96864548671
 30
0.0
 11
11780.3585024407
 21
-11877.59254024573
 31
0.0
  0
LINE
  5
6C83A
330
18
100
AcDbEntity
  8
姿図
100
AcDbLine
 10
11784.21065742036
 20
-11876.90818103888
 30
0.0
 11
11776.21926098892
 21
-11878.32790214365
 31
0.0
  0
LINE
  5
6C83B
330
18
100
AcDbEntity
  8
姿図
100
AcDbLine
 10
11775.6318023413
 20
-11871.20852791774
 30
0.0
 11
11775.6318023413
 21
-11877.83561057866
 31
0.0
  0
LINE
  5
6C83C
330
18
100
AcDbEntity
  8
姿図
100
AcDbLine
 10
11777.86443507801
 20
-11872.87496678141
 30
0.0
 11
11778.23722334284
 21
-11871.94705034681
 31
0.0
  0
ARC
  5
6C83D
330
18
100
AcDbEntity
  8
姿図
100
AcDbCircle
 10
11776.1318023413
 20
-11877.83561057866
 30
0.0
 40
0.5
100
AcDbArc
 50
180.0
 51
280.0738452396548
  0
LINE
  5
6C83E
330
18
100
AcDbEntity
  8
姿図
100
AcDbLine
 10
11784.62319877274
 20
-11876.26621992446
 30
0.0
 11
11784.62319877274
 21
-11876.41588947389
 31
0.0
  0
ARC
  5
6C83F
330
18
100
AcDbEntity
  8
姿図
100
AcDbCircle
 10
11784.12319877274
 20
-11876.41588947389
 30
0.0
 40
0.5
100
AcDbArc
 50
280.0738452396548
 51
0.0
  0
ARC
  5
6C840
330
18
100
AcDbEntity
  8
姿図
100
AcDbCircle
 10
11783.62319877274
 20
-11876.26621992446
 30
0.0
 40
1.0
100
AcDbArc
 50
0.0
 51
68.11232009500608
  0
LINE
  5
6C841
330
18
100
AcDbEntity
  8
姿図
100
AcDbLine
 10
11788.63126560093
 20
-11876.12283259775
 30
0.0
 11
11788.63126560093
 21
-11878.88295016673
 31
0.0
  0
LINE
  5
6C842
330
18
100
AcDbEntity
  8
姿図
100
AcDbLine
 10
11772.87168477232
 20
-11874.45899747938
 30
0.0
 11
11772.87168477232
 21
-11881.68273737496
 31
0.0
  0
LINE
  5
6C843
330
18
100
AcDbEntity
  8
姿図
100
AcDbLine
 10
11788.63126560093
 20
-11878.88295016673
 30
0.0
 11
11772.87168477232
 21
-11881.68273737496
 31
0.0
  0
ELLIPSE
  5
6C844
330
18
100
AcDbEntity
  8
姿図
100
AcDbEllipse
 10
11744.39690021315
 20
-11834.51881357798
 30
0.0
 11
0.0
 21
-3.508473521634005
 31
0.0
210
0.0
220
0.0
230
1.0
 40
0.6840581766403772
 41
0.0
 42
6.283185307179586
  0
ELLIPSE
  5
6C845
330
18
100
AcDbEntity
  8
姿図
100
AcDbEllipse
 10
11744.39690021315
 20
-11865.73055601108
 30
0.0
 11
0.0
 21
-3.508473521634005
 31
0.0
210
0.0
220
0.0
230
1.0
 40
0.6840581766403772
 41
0.0
 42
6.283185307179586
  0
LINE
  5
6C846
330
18
100
AcDbEntity
  8
姿図
100
AcDbLine
 10
11731.65994222681
 20
-11881.78051896289
 30
0.0
 11
11731.65994222681
 21
-11879.02040139392
 31
0.0
  0
ELLIPSE
  5
6C847
330
18
100
AcDbEntity
  8
姿図
100
AcDbEllipse
 10
11744.79690021315
 20
-11834.51881357798
 30
0.0
 11
1.557139847723761E-15
 21
3.508473521634053
 31
0.0
210
0.0
220
0.0
230
1.0
 40
0.6840581766403936
 41
0.0834300866107265
 42
3.058162566979068
  0
LINE
  5
6C848
330
18
100
AcDbEntity
  8
姿図
100
AcDbLine
 10
11733.8290279498
 20
-11833.9222487317
 30
0.0
 11
11733.8290279498
 21
-11838.59590766569
 31
0.0
  0
LINE
  5
6C849
330
18
100
AcDbEntity
  8
姿図
100
AcDbLine
 10
11737.17958709686
 20
-11853.98586893281
 30
0.0
 11
11731.65994222681
 21
-11854.96646805338
 31
0.0
  0
LINE
  5
6C84A
330
18
100
AcDbEntity
  8
姿図
100
AcDbLine
 10
11737.17958709686
 20
-11872.15318567524
 30
0.0
 11
11731.65994222681
 21
-11873.13378479581
 31
0.0
  0
LINE
  5
6C84B
330
18
100
AcDbEntity
  8
姿図
100
AcDbLine
 10
11737.17958709686
 20
-11873.07261103306
 30
0.0
 11
11732.76190883052
 21
-11873.85743895676
 31
0.0
  0
LINE
  5
6C84C
330
18
100
AcDbEntity
  8
姿図
100
AcDbLine
 10
11737.17958709686
 20
-11872.15318567524
 30
0.0
 11
11731.65994222681
 21
-11873.13378479581
 31
0.0
  0
LINE
  5
6C84D
330
18
100
AcDbEntity
  8
姿図
100
AcDbLine
 10
11737.17958709686
 20
-11870.37705135685
 30
0.0
 11
11731.65994222681
 21
-11871.35765047742
 31
0.0
  0
LINE
  5
6C84E
330
18
100
AcDbEntity
  8
姿図
100
AcDbLine
 10
11737.17958709686
 20
-11868.60091703845
 30
0.0
 11
11731.65994222681
 21
-11869.58151615903
 31
0.0
  0
LINE
  5
6C84F
330
18
100
AcDbEntity
  8
姿図
100
AcDbLine
 10
11737.17958709686
 20
-11866.92627610968
 30
0.0
 11
11731.65994222681
 21
-11867.90687523026
 31
0.0
  0
LINE
  5
6C850
330
18
100
AcDbEntity
  8
姿図
100
AcDbLine
 10
11737.17958709686
 20
-11865.82945197719
 30
0.0
 11
11733.47870845797
 21
-11866.48693600453
 31
0.0
  0
LINE
  5
6C851
330
18
100
AcDbEntity
  8
姿図
100
AcDbLine
 10
11737.17958709686
 20
-11863.72923433657
 30
0.0
 11
11731.65994222681
 21
-11864.70983345715
 31
0.0
  0
LINE
  5
6C852
330
18
100
AcDbEntity
  8
姿図
100
AcDbLine
 10
11737.17958709686
 20
-11862.0545934078
 30
0.0
 11
11731.65994222681
 21
-11863.03519252837
 31
0.0
  0
LINE
  5
6C853
330
18
100
AcDbEntity
  8
姿図
100
AcDbLine
 10
11737.17958709686
 20
-11860.95776927531
 30
0.0
 11
11733.47870845797
 21
-11861.61525330265
 31
0.0
  0
LINE
  5
6C854
330
18
100
AcDbEntity
  8
姿図
100
AcDbLine
 10
11737.17958709686
 20
-11858.85755163469
 30
0.0
 11
11731.65994222681
 21
-11859.83815075527
 31
0.0
  0
LINE
  5
6C855
330
18
100
AcDbEntity
  8
姿図
100
AcDbLine
 10
11737.17958709686
 20
-11857.18291070592
 30
0.0
 11
11731.65994222681
 21
-11858.16350982649
 31
0.0
  0
LINE
  5
6C856
330
18
100
AcDbEntity
  8
姿図
100
AcDbLine
 10
11737.17958709686
 20
-11856.08608657343
 30
0.0
 11
11733.47870845797
 21
-11856.74357060077
 31
0.0
  0
LINE
  5
6C857
330
18
100
AcDbEntity
  8
姿図
100
AcDbLine
 10
11737.17958709686
 20
-11847.43954530216
 30
0.0
 11
11731.65994222681
 21
-11848.42014442273
 31
0.0
  0
LINE
  5
6C858
330
18
100
AcDbEntity
  8
姿図
100
AcDbLine
 10
11737.17958709686
 20
-11844.24250352905
 30
0.0
 11
11731.65994222681
 21
-11845.22310264962
 31
0.0
  0
LINE
  5
6C859
330
18
100
AcDbEntity
  8
姿図
100
AcDbLine
 10
11737.17958709686
 20
-11846.34272116967
 30
0.0
 11
11733.47870845797
 21
-11847.00020519701
 31
0.0
  0
LINE
  5
6C85A
330
18
100
AcDbEntity
  8
姿図
100
AcDbLine
 10
11737.17958709686
 20
-11841.24348552384
 30
0.0
 11
11733.11371857333
 21
-11841.9658122663
 31
0.0
  0
LINE
  5
6C85B
330
18
100
AcDbEntity
  8
姿図
100
AcDbLine
 10
11737.17958709686
 20
-11842.56786260028
 30
0.0
 11
11731.65994222681
 21
-11843.54846172085
 31
0.0
  0
LINE
  5
6C85C
330
18
100
AcDbEntity
  8
姿図
100
AcDbLine
 10
11737.17958709686
 20
-11840.03052785972
 30
0.0
 11
11731.65994222681
 21
-11841.01112698029
 31
0.0
  0
LINE
  5
6C85D
330
18
100
AcDbEntity
  8
姿図
100
AcDbLine
 10
11737.17958709686
 20
-11838.00066006726
 30
0.0
 11
11731.65994222681
 21
-11838.98125918784
 31
0.0
  0
LINE
  5
6C85E
330
18
100
AcDbEntity
  8
姿図
100
AcDbLine
 10
11737.17958709686
 20
-11852.31122800404
 30
0.0
 11
11731.65994222681
 21
-11853.29182712461
 31
0.0
  0
LINE
  5
6C85F
330
18
100
AcDbEntity
  8
姿図
100
AcDbLine
 10
11737.17958709686
 20
-11851.21440387155
 30
0.0
 11
11733.47870845797
 21
-11851.87188789889
 31
0.0
  0
LINE
  5
6C860
330
18
100
AcDbEntity
  8
姿図
100
AcDbLine
 10
11737.17958709686
 20
-11849.11418623093
 30
0.0
 11
11731.65994222681
 21
-11850.0947853515
 31
0.0
  0
LINE
  5
6C861
330
18
100
AcDbEntity
  8
姿図
100
AcDbLine
 10
11731.65994222681
 20
-11854.96646805338
 30
0.0
 11
11731.65994222681
 21
-11853.29182712461
 31
0.0
  0
LINE
  5
6C862
330
18
100
AcDbEntity
  8
姿図
100
AcDbLine
 10
11731.65994222681
 20
-11859.83815075527
 30
0.0
 11
11733.47870845797
 21
-11861.61525330265
 31
0.0
  0
LINE
  5
6C863
330
18
100
AcDbEntity
  8
姿図
100
AcDbLine
 10
11731.65994222681
 20
-11854.96646805338
 30
0.0
 11
11733.47870845797
 21
-11856.74357060077
 31
0.0
  0
LINE
  5
6C864
330
18
100
AcDbEntity
  8
姿図
100
AcDbLine
 10
11733.47870845797
 20
-11856.74357060077
 30
0.0
 11
11731.65994222681
 21
-11858.16350982649
 31
0.0
  0
LINE
  5
6C865
330
18
100
AcDbEntity
  8
姿図
100
AcDbLine
 10
11733.47870845797
 20
-11861.61525330265
 30
0.0
 11
11731.65994222681
 21
-11863.03519252837
 31
0.0
  0
LINE
  5
6C866
330
18
100
AcDbEntity
  8
姿図
100
AcDbLine
 10
11731.65994222681
 20
-11864.70983345715
 30
0.0
 11
11733.47870845797
 21
-11866.48693600453
 31
0.0
  0
LINE
  5
6C867
330
18
100
AcDbEntity
  8
姿図
100
AcDbLine
 10
11733.47870845797
 20
-11866.48693600453
 30
0.0
 11
11731.65994222681
 21
-11867.90687523026
 31
0.0
  0
LINE
  5
6C868
330
18
100
AcDbEntity
  8
姿図
100
AcDbLine
 10
11731.65994222681
 20
-11859.83815075527
 30
0.0
 11
11731.65994222681
 21
-11858.16350982649
 31
0.0
  0
LINE
  5
6C869
330
18
100
AcDbEntity
  8
姿図
100
AcDbLine
 10
11731.65994222681
 20
-11864.70983345715
 30
0.0
 11
11731.65994222681
 21
-11863.03519252837
 31
0.0
  0
LINE
  5
6C86A
330
18
100
AcDbEntity
  8
姿図
100
AcDbLine
 10
11731.65994222681
 20
-11869.58151615903
 30
0.0
 11
11731.65994222681
 21
-11867.90687523026
 31
0.0
  0
LINE
  5
6C86B
330
18
100
AcDbEntity
  8
姿図
100
AcDbLine
 10
11731.65994222681
 20
-11871.35765047742
 30
0.0
 11
11731.65994222681
 21
-11873.13378479581
 31
0.0
  0
LINE
  5
6C86C
330
18
100
AcDbEntity
  8
姿図
100
AcDbLine
 10
11731.65994222681
 20
-11873.13378479581
 30
0.0
 11
11732.76190883052
 21
-11873.85743895676
 31
0.0
  0
LINE
  5
6C86D
330
18
100
AcDbEntity
  8
姿図
100
AcDbLine
 10
11731.65994222681
 20
-11869.58151615903
 30
0.0
 11
11733.11371857333
 21
-11870.53620144504
 31
0.0
  0
LINE
  5
6C86E
330
18
100
AcDbEntity
  8
姿図
100
AcDbLine
 10
11733.11371857333
 20
-11870.53620144504
 30
0.0
 11
11733.11371857333
 21
-11871.09937809931
 31
0.0
  0
LINE
  5
6C86F
330
18
100
AcDbEntity
  8
姿図
100
AcDbLine
 10
11731.65994222681
 20
-11841.01112698029
 30
0.0
 11
11731.65994222681
 21
-11838.98125918784
 31
0.0
  0
LINE
  5
6C870
330
18
100
AcDbEntity
  8
姿図
100
AcDbLine
 10
11731.65994222681
 20
-11845.22310264962
 30
0.0
 11
11731.65994222681
 21
-11843.54846172085
 31
0.0
  0
LINE
  5
6C871
330
18
100
AcDbEntity
  8
姿図
100
AcDbLine
 10
11733.11371857333
 20
-11841.9658122663
 30
0.0
 11
11733.11371857333
 21
-11843.29018934274
 31
0.0
  0
LINE
  5
6C872
330
18
100
AcDbEntity
  8
姿図
100
AcDbLine
 10
11731.65994222681
 20
-11845.22310264962
 30
0.0
 11
11733.47870845797
 21
-11847.00020519701
 31
0.0
  0
LINE
  5
6C873
330
18
100
AcDbEntity
  8
姿図
100
AcDbLine
 10
11731.65994222681
 20
-11841.01112698029
 30
0.0
 11
11733.11371857333
 21
-11841.9658122663
 31
0.0
  0
LINE
  5
6C874
330
18
100
AcDbEntity
  8
姿図
100
AcDbLine
 10
11733.47870845797
 20
-11847.00020519701
 30
0.0
 11
11731.65994222681
 21
-11848.42014442273
 31
0.0
  0
LINE
  5
6C875
330
18
100
AcDbEntity
  8
姿図
100
AcDbLine
 10
11731.65994222681
 20
-11850.0947853515
 30
0.0
 11
11733.47870845797
 21
-11851.87188789889
 31
0.0
  0
LINE
  5
6C876
330
18
100
AcDbEntity
  8
姿図
100
AcDbLine
 10
11733.47870845797
 20
-11851.87188789889
 30
0.0
 11
11731.65994222681
 21
-11853.29182712461
 31
0.0
  0
LINE
  5
6C877
330
18
100
AcDbEntity
  8
姿図
100
AcDbLine
 10
11731.65994222681
 20
-11850.0947853515
 30
0.0
 11
11731.65994222681
 21
-11848.42014442273
 31
0.0
  0
ELLIPSE
  5
6C878
330
18
100
AcDbEntity
  8
姿図
100
AcDbEllipse
 10
11744.79690021315
 20
-11865.73055601108
 30
0.0
 11
1.557139847723761E-15
 21
3.508473521634053
 31
0.0
210
0.0
220
0.0
230
1.0
 40
0.6840581766403936
 41
0.0834300866107265
 42
3.058162566979068
  0
LINE
  5
6C879
330
18
100
AcDbEntity
  8
姿図
100
AcDbLine
 10
11737.17958709686
 20
-11830.08417567671
 30
0.0
 11
11731.65994222681
 21
-11831.06477479728
 31
0.0
  0
LINE
  5
6C87A
330
18
100
AcDbEntity
  8
姿図
100
AcDbLine
 10
11737.17958709686
 20
-11833.32700113328
 30
0.0
 11
11733.11371857333
 21
-11834.04932787575
 31
0.0
  0
LINE
  5
6C87B
330
18
100
AcDbEntity
  8
姿図
100
AcDbLine
 10
11737.17958709686
 20
-11832.11404346916
 30
0.0
 11
11731.65994222681
 21
-11833.09464258973
 31
0.0
  0
LINE
  5
6C87C
330
18
100
AcDbEntity
  8
姿図
100
AcDbLine
 10
11731.65994222681
 20
-11833.09464258973
 30
0.0
 11
11731.65994222681
 21
-11831.06477479728
 31
0.0
  0
LINE
  5
6C87D
330
18
100
AcDbEntity
  8
姿図
100
AcDbLine
 10
11731.65994222681
 20
-11833.09464258973
 30
0.0
 11
11733.11371857333
 21
-11834.04932787575
 31
0.0
  0
LINE
  5
6C87E
330
18
100
AcDbEntity
  8
姿図
100
AcDbLine
 10
11737.17958709686
 20
-11878.03980227335
 30
0.0
 11
11731.65994222681
 21
-11879.02040139392
 31
0.0
  0
LINE
  5
6C87F
330
18
100
AcDbEntity
  8
姿図
100
AcDbLine
 10
11732.76190883052
 20
-11873.85743895676
 30
0.0
 11
11732.76190883052
 21
-11878.82463019705
 31
0.0
  0
LINE
  5
6C880
330
18
100
AcDbEntity
  8
姿図
100
AcDbLine
 10
11752.17958709686
 20
-11873.34364276388
 30
0.0
 11
11737.17958709686
 21
-11876.00848573022
 31
0.0
  0
LINE
  5
6C881
330
18
100
AcDbEntity
  8
姿図
100
AcDbLine
 10
11752.69735238999
 20
-11872.98109960261
 30
0.0
 11
11752.17958709686
 21
-11873.34364276388
 31
0.0
  0
LINE
  5
6C882
330
18
100
AcDbEntity
  8
姿図
100
AcDbLine
 10
11772.87168477232
 20
-11874.45899747938
 30
0.0
 11
11731.65994222681
 21
-11881.78051896289
 31
0.0
  0
LINE
  5
6C883
330
18
100
AcDbEntity
  8
姿図
100
AcDbLine
 10
11775.6318023413
 20
-11871.20852791774
 30
0.0
 11
11737.17958709686
 21
-11878.03980227335
 31
0.0
  0
LINE
  5
6C884
330
18
100
AcDbEntity
  8
姿図
100
AcDbLine
 10
11888.77395400201
 20
-11961.16742025585
 30
0.0
 11
11888.77395400201
 21
-11899.13160898003
 31
0.0
  0
LINE
  5
6C885
330
18
100
AcDbEntity
  8
姿図
100
AcDbLine
 10
11889.29171929514
 20
-11961.60712420789
 30
0.0
 11
11889.29171929514
 21
-11899.57166718759
 31
0.0
  0
LINE
  5
6C886
330
18
100
AcDbEntity
  8
姿図
100
AcDbLine
 10
11895.2330988324
 20
-11832.772147229
 30
0.0
 11
11895.2330988324
 21
-11833.97540747094
 31
0.0
  0
LINE
  5
6C887
330
18
100
AcDbEntity
  8
姿図
100
AcDbLine
 10
11894.5208161376
 20
-11813.29084102227
 30
0.0
 11
11894.5208161376
 21
-11814.6152180987
 31
0.0
  0
LINE
  5
6C888
330
18
100
AcDbEntity
  8
姿図
100
AcDbLine
 10
11895.23309883241
 20
-11828.00690063657
 30
0.0
 11
11895.2330988324
 21
-11829.10372476906
 31
0.0
  0
LINE
  5
6C889
330
18
100
AcDbEntity
  8
姿図
100
AcDbLine
 10
11895.2330988324
 20
-11823.13521793469
 30
0.0
 11
11895.2330988324
 21
-11824.23204206718
 31
0.0
  0
LINE
  5
6C88A
330
18
100
AcDbEntity
  8
姿図
100
AcDbLine
 10
11896.76489174829
 20
-11812.89216708179
 30
0.0
 11
11894.5208161376
 21
-11813.29084102227
 31
0.0
  0
LINE
  5
6C88B
330
18
100
AcDbEntity
  8
姿図
100
AcDbLine
 10
11896.76489174829
 20
-11817.99140272762
 30
0.0
 11
11895.2330988324
 21
-11818.26353523281
 31
0.0
  0
LINE
  5
6C88C
330
18
100
AcDbEntity
  8
姿図
100
AcDbLine
 10
11896.76489174829
 20
-11827.73476813139
 30
0.0
 11
11895.2330988324
 21
-11828.00690063657
 31
0.0
  0
LINE
  5
6C88D
330
18
100
AcDbEntity
  8
姿図
100
AcDbLine
 10
11896.76489174829
 20
-11837.47813353515
 30
0.0
 11
11895.2330988324
 21
-11837.75026604033
 31
0.0
  0
LINE
  5
6C88E
330
18
100
AcDbEntity
  8
姿図
100
AcDbLine
 10
11896.76489174829
 20
-11832.60645083327
 30
0.0
 11
11895.2330988324
 21
-11832.87858333845
 31
0.0
  0
LINE
  5
6C88F
330
18
100
AcDbEntity
  8
姿図
100
AcDbLine
 10
11896.76489174829
 20
-11844.72129259101
 30
0.0
 11
11894.51629920495
 21
-11845.12076899256
 31
0.0
  0
LINE
  5
6C890
330
18
100
AcDbEntity
  8
姿図
100
AcDbLine
 10
11895.34815879367
 20
-11823.11477681946
 30
0.0
 11
11895.2330988324
 21
-11823.13521793469
 31
0.0
  0
LINE
  5
6C891
330
18
100
AcDbEntity
  8
姿図
100
AcDbLine
 10
11895.20528629183
 20
-11823.00323402406
 30
0.0
 11
11895.23309883241
 21
-11823.02878182524
 31
0.0
  0
LINE
  5
6C892
330
18
100
AcDbEntity
  8
姿図
100
AcDbLine
 10
11895.2330988324
 20
-11818.26353523281
 30
0.0
 11
11895.2330988324
 21
-11818.9652121243
 31
0.0
  0
LINE
  5
6C893
330
18
100
AcDbEntity
  8
姿図
100
AcDbLine
 10
11896.76489174829
 20
-11819.08822686011
 30
0.0
 11
11895.64540982607
 21
-11819.28710976187
 31
0.0
  0
LINE
  5
6C894
330
18
100
AcDbEntity
  8
姿図
100
AcDbLine
 10
11896.76489174829
 20
-11838.57495766764
 30
0.0
 11
11895.64540982607
 21
-11838.77384056939
 31
0.0
  0
LINE
  5
6C895
330
18
100
AcDbEntity
  8
姿図
100
AcDbLine
 10
11895.23309883241
 20
-11837.64382993087
 30
0.0
 11
11895.23309883241
 21
-11838.45194293183
 31
0.0
  0
LINE
  5
6C896
330
18
100
AcDbEntity
  8
姿図
100
AcDbLine
 10
11894.61739674485
 20
-11805.04221653997
 30
0.0
 11
11894.61739674485
 21
-11810.03085742223
 31
0.0
  0
LINE
  5
6C897
330
18
100
AcDbEntity
  8
姿図
100
AcDbLine
 10
11891.76489174829
 20
-11848.54544827695
 30
0.0
 11
11874.76489174829
 21
-11851.5656036388
 31
0.0
  0
ELLIPSE
  5
6C898
330
18
100
AcDbEntity
  8
姿図
100
AcDbEllipse
 10
11882.59877866696
 20
-11841.24919824139
 30
0.0
 11
1.557139847723761E-15
 21
3.508473521634053
 31
0.0
210
0.0
220
0.0
230
1.0
 40
0.6840581766403936
 41
0.0834300866107265
 42
3.058162566979068
  0
ELLIPSE
  5
6C899
330
18
100
AcDbEntity
  8
姿図
100
AcDbEllipse
 10
11882.19877866696
 20
-11841.24919824139
 30
0.0
 11
0.0
 21
-3.508473521634005
 31
0.0
210
0.0
220
0.0
230
1.0
 40
0.6840581766403772
 41
0.0
 42
6.283185307179586
  0
ELLIPSE
  5
6C89A
330
18
100
AcDbEntity
  8
姿図
100
AcDbEllipse
 10
11882.59877866696
 20
-11810.0374558083
 30
0.0
 11
0.0
 21
-3.508473521634005
 31
0.0
210
0.0
220
0.0
230
1.0
 40
0.6840581766403772
 41
0.0
 42
6.283185307179586
  0
ELLIPSE
  5
6C89B
330
18
100
AcDbEntity
  8
姿図
100
AcDbEllipse
 10
11882.99877866696
 20
-11810.0374558083
 30
0.0
 11
1.557139847723761E-15
 21
3.508473521634053
 31
0.0
210
0.0
220
0.0
230
1.0
 40
0.6840581766403936
 41
0.0834300866107265
 42
3.058162566979068
  0
ARC
  5
6C89C
330
18
100
AcDbEntity
  8
姿図
  6
Continuous
370
     0
100
AcDbCircle
 10
11890.00590337979
 20
-11815.62175747982
 30
0.0
 40
0.5871021973724699
100
AcDbArc
 50
43.97061442796876
 51
173.0481439441934
  0
LINE
  5
6C89D
330
18
100
AcDbEntity
  8
姿図
  6
Continuous
370
     0
100
AcDbLine
 10
11889.24864981185
 20
-11817.66541375593
 30
0.0
 11
11889.42311743775
 21
-11815.55069739312
 31
0.0
  0
ARC
  5
6C89E
330
18
100
AcDbEntity
  8
姿図
  6
Continuous
370
     0
100
AcDbCircle
 10
11890.44458662719
 20
-11817.76408053723
 30
0.0
 40
1.2
100
AcDbArc
 50
175.2836838794859
 51
232.0202851621353
  0
LINE
  5
6C89F
330
18
100
AcDbEntity
  8
姿図
  6
Continuous
370
     0
100
AcDbLine
 10
11889.44797261441
 20
-11817.68185821948
 30
0.0
 11
11889.62244024031
 21
-11815.56714185667
 31
0.0
  0
ARC
  5
6C8A0
330
18
100
AcDbEntity
  8
姿図
  6
Continuous
370
     0
100
AcDbCircle
 10
11890.1207472467
 20
-11815.60825301555
 30
0.0
 40
0.5
100
AcDbArc
 50
52.02028516213533
 51
175.2836838794859
  0
ARC
  5
6C8A1
330
18
100
AcDbEntity
  8
姿図
  6
Continuous
370
     0
100
AcDbCircle
 10
11890.44458662718
 20
-11817.76408053723
 30
0.0
 40
1.0
100
AcDbArc
 50
175.2836838795905
 51
232.0202851621353
  0
ARC
  5
6C8A2
330
18
100
AcDbEntity
  8
姿図
  6
Continuous
370
     0
100
AcDbCircle
 10
11890.44458662718
 20
-11837.25081134476
 30
0.0
 40
1.0
100
AcDbArc
 50
175.2836838795905
 51
232.0202851621353
  0
ARC
  5
6C8A3
330
18
100
AcDbEntity
  8
姿図
  6
Continuous
370
     0
100
AcDbCircle
 10
11890.1207472467
 20
-11835.09498382307
 30
0.0
 40
0.5
100
AcDbArc
 50
52.02028516213533
 51
175.2836838794859
  0
LINE
  5
6C8A4
330
18
100
AcDbEntity
  8
姿図
  6
Continuous
370
     0
100
AcDbLine
 10
11889.44797261441
 20
-11837.168589027
 30
0.0
 11
11889.62244024031
 21
-11835.05387266419
 31
0.0
  0
ARC
  5
6C8A5
330
18
100
AcDbEntity
  8
姿図
  6
Continuous
370
     0
100
AcDbCircle
 10
11890.44458662718
 20
-11837.25081134476
 30
0.0
 40
1.2
100
AcDbArc
 50
175.2836838794859
 51
232.0202851621353
  0
LINE
  5
6C8A6
330
18
100
AcDbEntity
  8
姿図
  6
Continuous
370
     0
100
AcDbLine
 10
11889.24864981185
 20
-11837.15214456345
 30
0.0
 11
11889.42311743775
 21
-11835.03742820064
 31
0.0
  0
ARC
  5
6C8A7
330
18
100
AcDbEntity
  8
姿図
  6
Continuous
370
     0
100
AcDbCircle
 10
11890.00590337979
 20
-11835.10848828735
 30
0.0
 40
0.5871021973724699
100
AcDbArc
 50
43.97061442796876
 51
173.0481439441934
  0
LINE
  5
6C8A8
330
18
100
AcDbEntity
  8
姿図
100
AcDbLine
 10
11891.76489174829
 20
-11850.57676482008
 30
0.0
 11
11891.76489174829
 21
-11839.80399503477
 31
0.0
  0
LINE
  5
6C8A9
330
18
100
AcDbEntity
  8
姿図
100
AcDbLine
 10
11893.41433260124
 20
-11842.62098051322
 30
0.0
 11
11893.41433260124
 21
-11844.39711483162
 31
0.0
  0
LINE
  5
6C8AA
330
18
100
AcDbEntity
  8
姿図
100
AcDbLine
 10
11893.41433260124
 20
-11826.22979808919
 30
0.0
 11
11893.41433260124
 21
-11824.55515716041
 31
0.0
  0
LINE
  5
6C8AB
330
18
100
AcDbEntity
  8
姿図
100
AcDbLine
 10
11893.41433260124
 20
-11816.48643268542
 30
0.0
 11
11893.41433260124
 21
-11814.81179175665
 31
0.0
  0
LINE
  5
6C8AC
330
18
100
AcDbEntity
  8
姿図
100
AcDbLine
 10
11893.41433260124
 20
-11835.97316349295
 30
0.0
 11
11893.41433260124
 21
-11834.29852256418
 31
0.0
  0
LINE
  5
6C8AD
330
18
100
AcDbEntity
  8
姿図
100
AcDbLine
 10
11893.41433260124
 20
-11831.10148079107
 30
0.0
 11
11893.41433260124
 21
-11829.4268398623
 31
0.0
  0
LINE
  5
6C8AE
330
18
100
AcDbEntity
  8
姿図
100
AcDbLine
 10
11893.41433260124
 20
-11812.27445701609
 30
0.0
 11
11893.41433260124
 21
-11810.24458922364
 31
0.0
  0
LINE
  5
6C8AF
330
18
100
AcDbEntity
  8
姿図
100
AcDbLine
 10
11891.76489174829
 20
-11835.74425944987
 30
0.0
 11
11891.76489174829
 21
-11820.31726422725
 31
0.0
  0
LINE
  5
6C8B0
330
18
100
AcDbEntity
  8
姿図
  6
Continuous
370
     0
100
AcDbLine
 10
11896.76489174829
 20
-11824.22084238202
 30
0.0
 11
11889.70612769059
 21
-11818.70995494696
 31
0.0
  0
LINE
  5
6C8B1
330
18
100
AcDbEntity
  8
姿図
  6
Continuous
370
     0
100
AcDbLine
 10
11896.76489174829
 20
-11823.96710890797
 30
0.0
 11
11889.82920418003
 21
-11818.552309212
 31
0.0
  0
LINE
  5
6C8B2
330
18
100
AcDbEntity
  8
姿図
  6
Continuous
370
     0
100
AcDbLine
 10
11896.76489174829
 20
-11820.16110679712
 30
0.0
 11
11890.42843847028
 21
-11815.21413867816
 31
0.0
  0
LINE
  5
6C8B3
330
18
100
AcDbEntity
  8
姿図
  6
Continuous
370
     0
100
AcDbLine
 10
11896.76489174829
 20
-11839.64783760464
 30
0.0
 11
11890.42843847027
 21
-11834.70086948568
 31
0.0
  0
LINE
  5
6C8B4
330
18
100
AcDbEntity
  8
姿図
  6
Continuous
370
     0
100
AcDbLine
 10
11896.76489174829
 20
-11843.45383971549
 30
0.0
 11
11889.82920418003
 21
-11838.03904001952
 31
0.0
  0
LINE
  5
6C8B5
330
18
100
AcDbEntity
  8
姿図
  6
Continuous
370
     0
100
AcDbLine
 10
11896.76489174829
 20
-11843.70757318954
 30
0.0
 11
11889.70612769059
 21
-11838.19668575448
 31
0.0
  0
LINE
  5
6C8B6
330
18
100
AcDbEntity
  8
姿図
100
AcDbLine
 10
11893.41433260124
 20
-11835.97316349295
 30
0.0
 11
11895.23309883241
 21
-11837.64382993088
 31
0.0
  0
LINE
  5
6C8B7
330
18
100
AcDbEntity
  8
姿図
100
AcDbLine
 10
11893.41433260124
 20
-11831.10148079107
 30
0.0
 11
11895.23309883241
 21
-11832.772147229
 31
0.0
  0
LINE
  5
6C8B8
330
18
100
AcDbEntity
  8
姿図
100
AcDbLine
 10
11893.41433260124
 20
-11826.22979808918
 30
0.0
 11
11895.23309883241
 21
-11827.90046452712
 31
0.0
  0
LINE
  5
6C8B9
330
18
100
AcDbEntity
  8
姿図
100
AcDbLine
 10
11893.41433260124
 20
-11816.48643268542
 30
0.0
 11
11895.2330988324
 21
-11818.26353523281
 31
0.0
  0
LINE
  5
6C8BA
330
18
100
AcDbEntity
  8
姿図
100
AcDbLine
 10
11893.41433260124
 20
-11812.27445701609
 30
0.0
 11
11894.5208161376
 21
-11813.29084102227
 31
0.0
  0
LINE
  5
6C8BB
330
18
100
AcDbEntity
  8
姿図
100
AcDbLine
 10
11893.41433260124
 20
-11844.39711483162
 30
0.0
 11
11894.51629920495
 21
-11845.12076899256
 31
0.0
  0
LINE
  5
6C8BC
330
18
100
AcDbEntity
  8
姿図
100
AcDbLine
 10
11896.76489174829
 20
-11843.8018672332
 30
0.0
 11
11893.41433260124
 21
-11844.39711483162
 31
0.0
  0
LINE
  5
6C8BD
330
18
100
AcDbEntity
  8
姿図
100
AcDbLine
 10
11896.76489174829
 20
-11835.37791589453
 30
0.0
 11
11893.41433260124
 21
-11835.97316349295
 31
0.0
  0
LINE
  5
6C8BE
330
18
100
AcDbEntity
  8
姿図
100
AcDbLine
 10
11896.76489174829
 20
-11833.70327496576
 30
0.0
 11
11893.41433260124
 21
-11834.29852256418
 31
0.0
  0
LINE
  5
6C8BF
330
18
100
AcDbEntity
  8
姿図
100
AcDbLine
 10
11896.76489174829
 20
-11830.50623319265
 30
0.0
 11
11893.41433260124
 21
-11831.10148079107
 31
0.0
  0
LINE
  5
6C8C0
330
18
100
AcDbEntity
  8
姿図
100
AcDbLine
 10
11896.76489174829
 20
-11828.83159226387
 30
0.0
 11
11893.41433260124
 21
-11829.4268398623
 31
0.0
  0
LINE
  5
6C8C1
330
18
100
AcDbEntity
  8
姿図
100
AcDbLine
 10
11896.76489174829
 20
-11825.63455049076
 30
0.0
 11
11893.41433260124
 21
-11826.22979808918
 31
0.0
  0
LINE
  5
6C8C2
330
18
100
AcDbEntity
  8
姿図
100
AcDbLine
 10
11896.76489174829
 20
-11823.95990956199
 30
0.0
 11
11893.41433260124
 21
-11824.55515716042
 31
0.0
  0
LINE
  5
6C8C3
330
18
100
AcDbEntity
  8
姿図
100
AcDbLine
 10
11896.76489174829
 20
-11815.891185087
 30
0.0
 11
11893.41433260124
 21
-11816.48643268542
 31
0.0
  0
LINE
  5
6C8C4
330
18
100
AcDbEntity
  8
姿図
100
AcDbLine
 10
11896.76489174829
 20
-11814.21654415823
 30
0.0
 11
11893.41433260124
 21
-11814.81179175665
 31
0.0
  0
LINE
  5
6C8C5
330
18
100
AcDbEntity
  8
姿図
100
AcDbLine
 10
11896.76489174829
 20
-11811.67920941767
 30
0.0
 11
11893.41433260124
 21
-11812.27445701609
 31
0.0
  0
LINE
  5
6C8C6
330
18
100
AcDbEntity
  8
姿図
100
AcDbLine
 10
11896.76489174829
 20
-11843.8018672332
 30
0.0
 11
11893.41433260124
 21
-11844.39711483162
 31
0.0
  0
LINE
  5
6C8C7
330
18
100
AcDbEntity
  8
姿図
100
AcDbLine
 10
11896.76489174829
 20
-11809.64934162522
 30
0.0
 11
11893.41433260124
 21
-11810.24458922364
 31
0.0
  0
LINE
  5
6C8C8
330
18
100
AcDbEntity
  8
姿図
100
AcDbLine
 10
11895.00999847581
 20
-11842.33750058106
 30
0.0
 11
11893.41433260124
 21
-11842.62098051323
 31
0.0
  0
LINE
  5
6C8C9
330
18
100
AcDbEntity
  8
姿図
100
AcDbLine
 10
11886.33740545673
 20
-11897.06074173632
 30
0.0
 11
11873.77395400201
 21
-11899.29271675245
 31
0.0
  0
LINE
  5
6C8CA
330
18
100
AcDbEntity
  8
姿図
100
AcDbLine
 10
11873.77395400201
 20
-11899.29271675245
 30
0.0
 11
11873.77395400201
 21
-11948.4289084859
 31
0.0
  0
LINE
  5
6C8CB
330
18
100
AcDbEntity
  8
姿図
100
AcDbLine
 10
11874.2382509655
 20
-12002.86262787922
 30
0.0
 11
11908.41415086517
 21
-11996.79106744817
 31
0.0
  0
LINE
  5
6C8CC
330
18
100
AcDbEntity
  8
姿図
100
AcDbLine
 10
11863.93480727874
 20
-11854.61044666172
 30
0.0
 11
11863.93480727874
 21
-11862.56298758315
 31
0.0
  0
LINE
  5
6C8CD
330
18
100
AcDbEntity
  8
姿図
100
AcDbLine
 10
11863.93480727874
 20
-11862.56298758315
 30
0.0
 11
11861.11542931506
 21
-11863.97437270065
 31
0.0
  0
LINE
  5
6C8CE
330
18
100
AcDbEntity
  8
姿図
100
AcDbLine
 10
11865.93480727874
 20
-11857.01525183518
 30
0.0
 11
11865.93480727874
 21
-11864.23899173077
 31
0.0
  0
LINE
  5
6C8CF
330
18
100
AcDbEntity
  8
姿図
100
AcDbLine
 10
11891.76489174829
 20
-11850.57676482008
 30
0.0
 11
11863.93480727873
 21
-11854.61044666172
 31
0.0
  0
LINE
  5
6C8D0
330
18
100
AcDbEntity
  8
姿図
100
AcDbLine
 10
11896.76489174829
 20
-11852.44860140028
 30
0.0
 11
11865.93480727874
 21
-11857.01525183518
 31
0.0
  0
LINE
  5
6C8D1
330
18
100
AcDbEntity
  8
姿図
100
AcDbLine
 10
11856.0808959516
 20
-11864.00521127419
 30
0.0
 11
11856.73648215946
 21
-11863.04759067128
 31
0.0
  0
ARC
  5
6C8D2
330
18
100
AcDbEntity
  8
姿図
100
AcDbCircle
 10
11856.49347485286
 20
-11864.28766242082
 30
0.0
 40
0.5
100
AcDbArc
 50
145.6044933459071
 51
280.0738452396548
  0
LINE
  5
6C8D3
330
18
100
AcDbEntity
  8
姿図
100
AcDbLine
 10
11858.48882870916
 20
-11864.44100457731
 30
0.0
 11
11855.53023826218
 21
-11862.08842136721
 31
0.0
  0
LINE
  5
6C8D4
330
18
100
AcDbEntity
  8
姿図
100
AcDbLine
 10
11857.76125004308
 20
-11861.32015696769
 30
0.0
 11
11855.4955360602
 21
-11861.72267509909
 31
0.0
  0
LINE
  5
6C8D5
330
18
100
AcDbEntity
  8
姿図
100
AcDbLine
 10
11857.76125004308
 20
-11861.523288622
 30
0.0
 11
11855.57498526139
 21
-11861.9116921104
 31
0.0
  0
LINE
  5
6C8D6
330
18
100
AcDbEntity
  8
姿図
100
AcDbLine
 10
11855.4955360602
 20
-11861.72267509909
 30
0.0
 11
11855.4955360602
 21
-11861.98560544523
 31
0.0
  0
ARC
  5
6C8D7
330
18
100
AcDbEntity
  8
姿図
100
AcDbCircle
 10
11855.59247699091
 20
-11862.0101504234
 30
0.0
 40
0.1
100
AcDbArc
 50
100.0738452396548
 51
231.509322808635
  0
LINE
  5
6C8D8
330
18
100
AcDbEntity
  8
姿図
100
AcDbLine
 10
11857.79201345859
 20
-11858.85044026912
 30
0.0
 11
11858.95972278145
 21
-11859.80008332697
 31
0.0
  0
LINE
  5
6C8D9
330
18
100
AcDbEntity
  8
姿図
100
AcDbLine
 10
11858.95972278145
 20
-11859.80008332697
 30
0.0
 11
11859.42665569928
 21
-11862.42837844831
 31
0.0
  0
LINE
  5
6C8DA
330
18
100
AcDbEntity
  8
姿図
100
AcDbLine
 10
11857.9207838688
 20
-11861.31767063431
 30
0.0
 11
11858.95972278145
 21
-11859.80008332697
 31
0.0
  0
LINE
  5
6C8DB
330
18
100
AcDbEntity
  8
姿図
100
AcDbLine
 10
11858.48882870916
 20
-11864.44100457732
 30
0.0
 11
11856.58093350049
 21
-11864.7799539858
 31
0.0
  0
LINE
  5
6C8DC
330
18
100
AcDbEntity
  8
姿図
100
AcDbLine
 10
11858.15990233437
 20
-11861.62422546791
 30
0.0
 11
11858.15990233437
 21
-11861.42109381359
 31
0.0
  0
ARC
  5
6C8DD
330
18
100
AcDbEntity
  8
姿図
100
AcDbCircle
 10
11857.8487086907
 20
-11861.81244853267
 30
0.0
 40
0.5
100
AcDbArc
 50
51.50932280863501
 51
100.0738452396548
  0
ARC
  5
6C8DE
330
18
100
AcDbEntity
  8
姿図
100
AcDbCircle
 10
11857.8487086907
 20
-11862.01558018699
 30
0.0
 40
0.5
100
AcDbArc
 50
51.50932280863501
 51
100.0738452396548
  0
LINE
  5
6C8DF
330
18
100
AcDbEntity
  8
姿図
100
AcDbLine
 10
11855.87139757172
 20
-11861.65590097207
 30
0.0
 11
11857.79201345859
 21
-11858.85044026912
 31
0.0
  0
LINE
  5
6C8E0
330
18
100
AcDbEntity
  8
姿図
100
AcDbLine
 10
11851.7551028644
 20
-11867.66860925076
 30
0.0
 11
11855.55941271548
 21
-11862.11162002557
 31
0.0
  0
LINE
  5
6C8E1
330
18
100
AcDbEntity
  8
姿図
100
AcDbLine
 10
11865.93480727873
 20
-11864.23899173077
 30
0.0
 11
11851.7551028644
 21
-11867.66860925076
 31
0.0
  0
LINE
  5
6C8E2
330
18
100
AcDbEntity
  8
姿図
100
AcDbLine
 10
11861.11542931506
 20
-11863.97437270065
 30
0.0
 11
11858.48882870916
 21
-11864.44100457732
 31
0.0
  0
LINE
  5
6C8E3
330
18
100
AcDbEntity
  8
姿図
100
AcDbLine
 10
11861.11542931506
 20
-11863.97437270065
 30
0.0
 11
11858.15990233437
 21
-11861.62422546791
 31
0.0
  0
LINE
  5
6C8E4
330
18
100
AcDbEntity
  8
姿図
100
AcDbLine
 10
11861.27219429562
 20
-11863.89589590067
 30
0.0
 11
11858.15990233437
 21
-11861.42109381359
 31
0.0
  0
LINE
  5
6C8E5
330
18
100
AcDbEntity
  8
姿図
100
AcDbLine
 10
11929.82627046077
 20
-11996.03044801542
 30
0.0
 11
11929.82627046077
 21
-11998.79056558439
 31
0.0
  0
LINE
  5
6C8E6
330
18
100
AcDbEntity
  8
姿図
100
AcDbLine
 10
11914.06668963215
 20
-12001.59035279263
 30
0.0
 11
11929.82627046077
 21
-11998.79056558439
 31
0.0
  0
LINE
  5
6C8E7
330
18
100
AcDbEntity
  8
姿図
100
AcDbLine
 10
11896.76489174829
 20
-11748.12663580513
 30
0.0
 11
11737.17958709686
 21
-11780.47795424718
 31
0.0
  0
LINE
  5
6C8E8
330
18
100
AcDbEntity
  8
姿図
100
AcDbLine
 10
11874.84697664659
 20
-11772.81028112586
 30
0.0
 11
11752.69735238999
 21
-11796.51091892856
 31
0.0
  0
LINE
  5
6C8E9
330
18
100
AcDbEntity
  8
姿図
100
AcDbLine
 10
11874.76489174829
 20
-11772.34823758708
 30
0.0
 11
11752.17958709686
 21
-11796.12627671217
 31
0.0
  0
LINE
  5
6C8EA
330
18
100
AcDbEntity
  8
姿図
100
AcDbLine
 10
11896.76489174829
 20
-11748.12663580513
 30
0.0
 11
11912.26309451805
 21
-11761.29884225034
 31
0.0
  0
LINE
  5
6C8EB
330
18
100
AcDbEntity
  8
姿図
100
AcDbLine
 10
11896.76489174829
 20
-11801.73285723466
 30
0.0
 11
11893.41433260124
 21
-11802.32810483308
 31
0.0
  0
LINE
  5
6C8EC
330
18
100
AcDbEntity
  8
姿図
100
AcDbLine
 10
11896.76489174829
 20
-11803.76272502711
 30
0.0
 11
11893.41433260124
 21
-11804.35797262554
 31
0.0
  0
LINE
  5
6C8ED
330
18
100
AcDbEntity
  8
姿図
100
AcDbLine
 10
11893.41433260124
 20
-11804.35797262553
 30
0.0
 11
11893.41433260124
 21
-11802.32810483308
 31
0.0
  0
LINE
  5
6C8EE
330
18
100
AcDbEntity
  8
姿図
100
AcDbLine
 10
11896.76489174829
 20
-11804.66070074296
 30
0.0
 11
11896.76489174829
 21
-11748.12663580513
 31
0.0
  0
LINE
  5
6C92F
330
18
100
AcDbEntity
  8
姿図
100
AcDbLine
 10
12008.03075946481
 20
-11984.89705342052
 30
0.0
 11
11992.85609433747
 21
-11987.59292672926
 31
0.0
  0
LINE
  5
6C930
330
18
100
AcDbEntity
  8
姿図
100
AcDbLine
 10
12026.01147276926
 20
-11859.86338378454
 30
0.0
 11
12036.91826915485
 21
-11869.13326983398
 31
0.0
  0
LINE
  5
6C931
330
18
100
AcDbEntity
  8
姿図
100
AcDbLine
 10
12026.01147276926
 20
-11911.58189410929
 30
0.0
 11
12026.01147276926
 21
-11859.86338378454
 31
0.0
  0
LINE
  5
6C932
330
18
100
AcDbEntity
  8
姿図
100
AcDbLine
 10
12039.24801754152
 20
-11961.34861735291
 30
0.0
 11
12039.24801754152
 21
-11959.67397642414
 31
0.0
  0
LINE
  5
6C933
330
18
100
AcDbEntity
  8
姿図
100
AcDbLine
 10
12039.24801754152
 20
-11961.34861735291
 30
0.0
 11
12036.97300952583
 21
-11961.34861735291
 31
0.0
  0
LINE
  5
6C934
330
18
100
AcDbEntity
  8
姿図
100
AcDbLine
 10
12036.91826915485
 20
-11923.8677328643
 30
0.0
 11
12036.91826915485
 21
-11928.92948940006
 31
0.0
  0
LINE
  5
6C935
330
18
100
AcDbEntity
  8
姿図
100
AcDbLine
 10
12039.24801754152
 20
-11946.73356924727
 30
0.0
 11
12039.24801754152
 21
-11945.0589283185
 31
0.0
  0
LINE
  5
6C936
330
18
100
AcDbEntity
  8
姿図
100
AcDbLine
 10
12039.24801754152
 20
-11951.60525194915
 30
0.0
 11
12039.24801754152
 21
-11949.93061102038
 31
0.0
  0
LINE
  5
6C937
330
18
100
AcDbEntity
  8
姿図
100
AcDbLine
 10
12039.24801754152
 20
-11956.47693465103
 30
0.0
 11
12039.24801754152
 21
-11954.80229372226
 31
0.0
  0
LINE
  5
6C938
330
18
100
AcDbEntity
  8
姿図
100
AcDbLine
 10
12039.24801754152
 20
-11956.47693465103
 30
0.0
 11
12037.42925131035
 21
-11958.25403719842
 31
0.0
  0
LINE
  5
6C939
330
18
100
AcDbEntity
  8
姿図
100
AcDbLine
 10
12039.24801754152
 20
-11951.60525194915
 30
0.0
 11
12037.42925131035
 21
-11953.38235449654
 31
0.0
  0
LINE
  5
6C93A
330
18
100
AcDbEntity
  8
姿図
100
AcDbLine
 10
12039.24801754152
 20
-11946.73356924727
 30
0.0
 11
12037.42925131035
 21
-11948.51067179466
 31
0.0
  0
LINE
  5
6C93B
330
18
100
AcDbEntity
  8
姿図
100
AcDbLine
 10
12039.24801754152
 20
-11932.77822817417
 30
0.0
 11
12039.24801754152
 21
-11930.74836038172
 31
0.0
  0
LINE
  5
6C93C
330
18
100
AcDbEntity
  8
姿図
100
AcDbLine
 10
12039.24801754152
 20
-11936.99020384351
 30
0.0
 11
12039.24801754152
 21
-11935.31556291474
 31
0.0
  0
LINE
  5
6C93D
330
18
100
AcDbEntity
  8
姿図
100
AcDbLine
 10
12039.24801754152
 20
-11941.86188654539
 30
0.0
 11
12039.24801754152
 21
-11940.18724561662
 31
0.0
  0
LINE
  5
6C93E
330
18
100
AcDbEntity
  8
姿図
100
AcDbLine
 10
12037.95008977434
 20
-11932.91932642115
 30
0.0
 11
12037.95008977434
 21
-11934.30225041905
 31
0.0
  0
LINE
  5
6C93F
330
18
100
AcDbEntity
  8
姿図
100
AcDbLine
 10
12039.24801754152
 20
-11941.86188654539
 30
0.0
 11
12037.42925131035
 21
-11943.63898909278
 31
0.0
  0
LINE
  5
6C940
330
18
100
AcDbEntity
  8
姿図
100
AcDbLine
 10
12039.24801754152
 20
-11932.77822817417
 30
0.0
 11
12037.95008977434
 21
-11932.91932642115
 31
0.0
  0
LINE
  5
6C941
330
18
100
AcDbEntity
  8
姿図
100
AcDbLine
 10
12039.24801754152
 20
-11936.99020384351
 30
0.0
 11
12037.42925131035
 21
-11938.7673063909
 31
0.0
  0
LINE
  5
6C942
330
18
100
AcDbEntity
  8
姿図
100
AcDbLine
 10
12039.24801754152
 20
-11924.86174378362
 30
0.0
 11
12039.24801754152
 21
-11922.83187599117
 31
0.0
  0
LINE
  5
6C943
330
18
100
AcDbEntity
  8
姿図
100
AcDbLine
 10
12039.24801754152
 20
-11924.86174378362
 30
0.0
 11
12038.19147399398
 21
-11924.86174378362
 31
0.0
  0
LINE
  5
6C944
330
18
100
AcDbEntity
  8
姿図
100
AcDbLine
 10
12039.24801754152
 20
-11973.54762015678
 30
0.0
 11
12039.24801754152
 21
-11970.78750258781
 31
0.0
  0
LINE
  5
6C945
330
18
100
AcDbEntity
  8
姿図
100
AcDbLine
 10
12039.24801754152
 20
-11964.9008859897
 30
0.0
 11
12038.07034756623
 21
-11964.9008859897
 31
0.0
  0
LINE
  5
6C946
330
18
100
AcDbEntity
  8
姿図
100
AcDbLine
 10
12036.91826915485
 20
-11964.00144036585
 30
0.0
 11
12036.91826915485
 21
-11968.96863160615
 31
0.0
  0
LINE
  5
6C947
330
18
100
AcDbEntity
  8
姿図
100
AcDbLine
 10
12039.24801754152
 20
-11964.9008859897
 30
0.0
 11
12039.24801754152
 21
-11963.12475167131
 31
0.0
  0
LINE
  5
6C948
330
18
100
AcDbEntity
  8
姿図
100
AcDbLine
 10
12036.91826915485
 20
-11869.13326983398
 30
0.0
 11
12036.91826915485
 21
-11920.85178015873
 31
0.0
  0
LINE
  5
6C949
330
18
100
AcDbEntity
  8
姿図
100
AcDbLine
 10
12008.03075946481
 20
-11977.67331352493
 30
0.0
 11
12008.03075946481
 21
-11984.89705342052
 31
0.0
  0
LINE
  5
6C94A
330
18
100
AcDbEntity
  8
姿図
100
AcDbLine
 10
12008.03075946481
 20
-11979.09355953105
 30
0.0
 11
12039.24801754152
 21
-11973.54762015678
 31
0.0
  0
LINE
  5
6C94B
330
18
100
AcDbEntity
  8
姿図
100
AcDbLine
 10
12026.01147276926
 20
-11859.86338378454
 30
0.0
 11
12023.17901661842
 21
-11860.19309146092
 31
0.0
  0
ENDSEC
  0
SECTION
  2
OBJECTS
  0
DICTIONARY
  5
C
330
0
100
AcDbDictionary
281
     1
  3
ACAD_GROUP
350
D
  3
ACAD_IMAGE_VARS
350
6CB20
  3
ACAD_LAYOUT
350
40CB
  3
ACAD_MLINESTYLE
350
E
  3
ACAD_PLOTSETTINGS
350
40CC
  3
ACAD_PLOTSTYLENAME
350
40C9
  3
ACAD_SCALELIST
350
668CA
  3
AcadDim
350
FCCB
  3
AcDbVariableDictionary
350
6377
  3
APPDATA
350
6CB1F
  3
DWGPROPS
350
6CB43
  0
DICTIONARY
  5
66435
330
2
100
AcDbDictionary
280
     1
281
     1
  3
ACAD_LAYERSTATES
360
66436
  0
DICTIONARY
  5
67B49
330
F
100
AcDbDictionary
280
     1
281
     1
  3
ADSK_XREC_LAYER_RECONCILED
360
67B4A
  0
DICTIONARY
  5
67B51
330
4C
100
AcDbDictionary
280
     1
281
     1
  3
ADSK_XREC_LAYER_RECONCILED
360
67B52
  0
DICTIONARY
  5
67B53
330
4D
100
AcDbDictionary
280
     1
281
     1
  3
ADSK_XREC_LAYER_RECONCILED
360
67B54
  0
DICTIONARY
  5
67B57
330
40D4
100
AcDbDictionary
280
     1
281
     1
  3
ADSK_XREC_LAYER_RECONCILED
360
67B58
  0
DICTIONARY
  5
67B5D
330
6688C
100
AcDbDictionary
280
     1
281
     1
  3
ADSK_XREC_LAYER_RECONCILED
360
67B5E
  0
DICTIONARY
  5
D
102
{ACAD_REACTORS
330
C
102
}
330
C
100
AcDbDictionary
281
     1
  0
RASTERVARIABLES
  5
6CB20
102
{ACAD_REACTORS
330
C
102
}
330
C
100
AcDbRasterVariables
 90
        0
 70
     1
 71
     1
 72
     0
  0
DICTIONARY
  5
40CB
102
{ACAD_REACTORS
330
C
102
}
330
C
100
AcDbDictionary
281
     1
  3
Model
350
40CD
  3
ﾚｲｱｳﾄ1
350
40CE
  0
DICTIONARY
  5
E
102
{ACAD_REACTORS
330
C
102
}
330
C
100
AcDbDictionary
281
     1
  3
STANDARD
350
1B
  0
DICTIONARY
  5
40CC
102
{ACAD_REACTORS
330
C
102
}
330
C
100
AcDbDictionary
281
     1
  0
ACDBDICTIONARYWDFLT
  5
40C9
102
{ACAD_REACTORS
330
C
102
}
330
C
100
AcDbDictionary
281
     1
  3
Normal
350
40CA
100
AcDbDictionaryWithDefault
340
40CA
  0
DICTIONARY
  5
668CA
102
{ACAD_REACTORS
330
C
102
}
330
C
100
AcDbDictionary
281
     1
  3
A0
350
668CB
  3
A1
350
668CC
  3
A2
350
668CD
  3
A3
350
668CE
  3
A4
350
668CF
  3
A5
350
668D0
  3
A6
350
668D1
  3
A7
350
668D2
  3
A8
350
668D3
  3
A9
350
668D4
  3
B0
350
668D5
  3
B1
350
668D6
  3
B2
350
668D7
  3
B3
350
668D8
  3
B4
350
668D9
  3
B5
350
668DA
  3
B6
350
668DB
  3
B7
350
668DC
  3
B8
350
668DD
  3
B9
350
668DE
  3
C0
350
668DF
  3
C1
350
668E0
  3
C2
350
668E1
  3
C3
350
668E2
  3
C4
350
668E3
  3
C5
350
668E4
  3
C6
350
668E5
  3
C7
350
668E6
  3
C8
350
668E7
  3
C9
350
668E8
  3
D0
350
668E9
  3
D1
350
668EA
  3
D2
350
668EB
  0
XRECORD
  5
FCCB
102
{ACAD_REACTORS
330
C
102
}
330
C
100
AcDbXrecord
280
     1
 90
   990106
  3

 60
     0
 61
     0
 62
     1
 63
     3
 64
     0
 65
     0
 66
     0
 67
     3
 68
     1
 69
     0
 70
     0
 71
     0
 72
     0
 40
2.0
170
     0
  0
DICTIONARY
  5
6377
102
{ACAD_REACTORS
330
C
102
}
330
C
100
AcDbDictionary
281
     1
  3
DIMASSOC
350
73F2
  3
INDEXCTL
350
67B72
  3
PROJECTNAME
350
61970
  3
SORTENTS
350
6378
  0
DICTIONARY
  5
6CB1F
102
{ACAD_REACTORS
330
C
102
}
330
C
100
AcDbDictionary
281
     1
  0
XRECORD
  5
6CB43
102
{ACAD_REACTORS
330
C
102
}
330
C
100
AcDbXrecord
280
     1
  1
DWGPROPS COOKIE
  2

  3

  4

  6

  7

  8
SPAX
  9

300
=
301
=
302
=
303
=
304
=
305
=
306
=
307
=
308
=
309
=
 40
0.0
 41
2449505.547222222
 42
2456822.116499213
  1

 90
        0
  0
DICTIONARY
  5
66436
102
{ACAD_REACTORS
330
66435
102
}
330
66435
100
AcDbDictionary
281
     1
  0
XRECORD
  5
67B4A
102
{ACAD_REACTORS
330
67B49
102
}
330
67B49
100
AcDbXrecord
280
     1
290
     1
  0
XRECORD
  5
67B52
102
{ACAD_REACTORS
330
67B51
102
}
330
67B51
100
AcDbXrecord
280
     1
290
     1
  0
XRECORD
  5
67B54
102
{ACAD_REACTORS
330
67B53
102
}
330
67B53
100
AcDbXrecord
280
     1
290
     1
  0
XRECORD
  5
67B58
102
{ACAD_REACTORS
330
67B57
102
}
330
67B57
100
AcDbXrecord
280
     1
290
     1
  0
XRECORD
  5
67B5E
102
{ACAD_REACTORS
330
67B5D
102
}
330
67B5D
100
AcDbXrecord
280
     1
290
     1
  0
LAYOUT
  5
40CD
102
{ACAD_REACTORS
330
40CB
102
}
330
40CB
100
AcDbPlotSettings
  1

  2
JUST PDF 2.pc3
  4
A4
  6
CUT1
 40
3.174999952316284
 41
3.174999952316284
 42
3.175003051757812
 43
3.17498779296875
 44
209.8886566162109
 45
297.0530090332031
 46
14.27
 47
9.86
 48
11643.21013661481
 49
-10849.72352129548
140
13393.16232156387
141
-8139.796769908819
142
1.0
143
10.0
 70
 11940
 72
     1
 73
     0
 74
     4
  7
spax form.ctb
 75
     0
147
0.1
148
-11643.21013661481
149
10849.72352129548
100
AcDbLayout
  1
Model
 70
     1
 71
     0
 10
0.0
 20
0.0
 11
12.0
 21
9.0
 12
0.0
 22
0.0
 32
0.0
 14
11687.65105542679
 24
-12087.69273462467
 34
0.0
 15
12067.61305542679
 25
-11748.12663580513
 35
0.0
146
0.0
 13
0.0
 23
0.0
 33
0.0
 16
1.0
 26
0.0
 36
0.0
 17
0.0
 27
1.0
 37
0.0
 76
     0
330
18
331
6A835
1001
ACAD_PSEXT
1000
DWG To PDF.pc3
1000
PDF
1000
ファイル
1000

1070
     0
  0
LAYOUT
  5
40CE
102
{ACAD_REACTORS
330
40CB
102
}
330
40CB
100
AcDbPlotSettings
  1

  2
なし
  4

  6

 40
0.0
 41
0.0
 42
0.0
 43
0.0
 44
0.0
 45
0.0
 46
0.0
 47
0.0
 48
0.0
 49
0.0
140
0.0
141
0.0
142
1.0
143
1.0
 70
   688
 72
     0
 73
     0
 74
     5
  7
spax form.ctb
 75
    16
147
1.0
148
0.0
149
0.0
100
AcDbLayout
  1
ﾚｲｱｳﾄ1
 70
     0
 71
     1
 10
0.0
 20
0.0
 11
12.0
 21
9.0
 12
0.0
 22
0.0
 32
0.0
 14
1.000000000000000E+20
 24
1.000000000000000E+20
 34
1.000000000000000E+20
 15
-1.000000000000000E+20
 25
-1.000000000000000E+20
 35
-1.000000000000000E+20
146
0.0
 13
0.0
 23
0.0
 33
0.0
 16
1.0
 26
0.0
 36
0.0
 17
0.0
 27
1.0
 37
0.0
 76
     0
330
15
  0
MLINESTYLE
  5
1B
102
{ACAD_REACTORS
330
E
102
}
330
E
100
AcDbMlineStyle
  2
STANDARD
 70
     0
  3

 62
     0
 51
90.0
 52
90.0
 71
     2
 49
0.5
 62
   256
  6
BYLAYER
 49
-0.5
 62
   256
  6
BYLAYER
  0
ACDBPLACEHOLDER
  5
40CA
102
{ACAD_REACTORS
330
40C9
102
}
330
40C9
  0
SCALE
  5
668CB
102
{ACAD_REACTORS
330
668CA
102
}
330
668CA
100
AcDbScale
 70
     0
300
1:1
140
1.0
141
1.0
290
     1
1001
ACAD
1000
AcRTDxfName
1000
SCALE
1000
AcRTDxfName
1000
SCALE
1000
AcRTDxfName
1000
SCALE
  0
SCALE
  5
668CC
102
{ACAD_REACTORS
330
668CA
102
}
330
668CA
100
AcDbScale
 70
     0
300
1:2
140
1.0
141
2.0
290
     0
1001
ACAD
1000
AcRTDxfName
1000
SCALE
1000
AcRTDxfName
1000
SCALE
1000
AcRTDxfName
1000
SCALE
  0
SCALE
  5
668CD
102
{ACAD_REACTORS
330
668CA
102
}
330
668CA
100
AcDbScale
 70
     0
300
1:4
140
1.0
141
4.0
290
     0
1001
ACAD
1000
AcRTDxfName
1000
SCALE
1000
AcRTDxfName
1000
SCALE
1000
AcRTDxfName
1000
SCALE
  0
SCALE
  5
668CE
102
{ACAD_REACTORS
330
668CA
102
}
330
668CA
100
AcDbScale
 70
     0
300
1:5
140
1.0
141
5.0
290
     0
1001
ACAD
1000
AcRTDxfName
1000
SCALE
1000
AcRTDxfName
1000
SCALE
1000
AcRTDxfName
1000
SCALE
  0
SCALE
  5
668CF
102
{ACAD_REACTORS
330
668CA
102
}
330
668CA
100
AcDbScale
 70
     0
300
1:8
140
1.0
141
8.0
290
     0
1001
ACAD
1000
AcRTDxfName
1000
SCALE
1000
AcRTDxfName
1000
SCALE
1000
AcRTDxfName
1000
SCALE
  0
SCALE
  5
668D0
102
{ACAD_REACTORS
330
668CA
102
}
330
668CA
100
AcDbScale
 70
     0
300
1:10
140
1.0
141
10.0
290
     0
1001
ACAD
1000
AcRTDxfName
1000
SCALE
1000
AcRTDxfName
1000
SCALE
1000
AcRTDxfName
1000
SCALE
  0
SCALE
  5
668D1
102
{ACAD_REACTORS
330
668CA
102
}
330
668CA
100
AcDbScale
 70
     0
300
1:16
140
1.0
141
16.0
290
     0
1001
ACAD
1000
AcRTDxfName
1000
SCALE
1000
AcRTDxfName
1000
SCALE
1000
AcRTDxfName
1000
SCALE
  0
SCALE
  5
668D2
102
{ACAD_REACTORS
330
668CA
102
}
330
668CA
100
AcDbScale
 70
     0
300
1:20
140
1.0
141
20.0
290
     0
1001
ACAD
1000
AcRTDxfName
1000
SCALE
1000
AcRTDxfName
1000
SCALE
1000
AcRTDxfName
1000
SCALE
  0
SCALE
  5
668D3
102
{ACAD_REACTORS
330
668CA
102
}
330
668CA
100
AcDbScale
 70
     0
300
1:30
140
1.0
141
30.0
290
     0
1001
ACAD
1000
AcRTDxfName
1000
SCALE
1000
AcRTDxfName
1000
SCALE
1000
AcRTDxfName
1000
SCALE
  0
SCALE
  5
668D4
102
{ACAD_REACTORS
330
668CA
102
}
330
668CA
100
AcDbScale
 70
     0
300
1:40
140
1.0
141
40.0
290
     0
1001
ACAD
1000
AcRTDxfName
1000
SCALE
1000
AcRTDxfName
1000
SCALE
1000
AcRTDxfName
1000
SCALE
  0
SCALE
  5
668D5
102
{ACAD_REACTORS
330
668CA
102
}
330
668CA
100
AcDbScale
 70
     0
300
1:50
140
1.0
141
50.0
290
     0
1001
ACAD
1000
AcRTDxfName
1000
SCALE
1000
AcRTDxfName
1000
SCALE
1000
AcRTDxfName
1000
SCALE
  0
SCALE
  5
668D6
102
{ACAD_REACTORS
330
668CA
102
}
330
668CA
100
AcDbScale
 70
     0
300
1:100
140
1.0
141
100.0
290
     0
1001
ACAD
1000
AcRTDxfName
1000
SCALE
1000
AcRTDxfName
1000
SCALE
1000
AcRTDxfName
1000
SCALE
  0
SCALE
  5
668D7
102
{ACAD_REACTORS
330
668CA
102
}
330
668CA
100
AcDbScale
 70
     0
300
2:1
140
2.0
141
1.0
290
     0
1001
ACAD
1000
AcRTDxfName
1000
SCALE
1000
AcRTDxfName
1000
SCALE
1000
AcRTDxfName
1000
SCALE
  0
SCALE
  5
668D8
102
{ACAD_REACTORS
330
668CA
102
}
330
668CA
100
AcDbScale
 70
     0
300
4:1
140
4.0
141
1.0
290
     0
1001
ACAD
1000
AcRTDxfName
1000
SCALE
1000
AcRTDxfName
1000
SCALE
1000
AcRTDxfName
1000
SCALE
  0
SCALE
  5
668D9
102
{ACAD_REACTORS
330
668CA
102
}
330
668CA
100
AcDbScale
 70
     0
300
8:1
140
8.0
141
1.0
290
     0
1001
ACAD
1000
AcRTDxfName
1000
SCALE
1000
AcRTDxfName
1000
SCALE
1000
AcRTDxfName
1000
SCALE
  0
SCALE
  5
668DA
102
{ACAD_REACTORS
330
668CA
102
}
330
668CA
100
AcDbScale
 70
     0
300
10:1
140
10.0
141
1.0
290
     0
1001
ACAD
1000
AcRTDxfName
1000
SCALE
1000
AcRTDxfName
1000
SCALE
1000
AcRTDxfName
1000
SCALE
  0
SCALE
  5
668DB
102
{ACAD_REACTORS
330
668CA
102
}
330
668CA
100
AcDbScale
 70
     0
300
100:1
140
100.0
141
1.0
290
     0
1001
ACAD
1000
AcRTDxfName
1000
SCALE
1000
AcRTDxfName
1000
SCALE
1000
AcRTDxfName
1000
SCALE
  0
SCALE
  5
668DC
102
{ACAD_REACTORS
330
668CA
102
}
330
668CA
100
AcDbScale
 70
     0
300
1/128" = 1'-0"
140
0.0078125
141
12.0
290
     0
1001
ACAD
1000
AcRTDxfName
1000
SCALE
1000
AcRTDxfName
1000
SCALE
1000
AcRTDxfName
1000
SCALE
  0
SCALE
  5
668DD
102
{ACAD_REACTORS
330
668CA
102
}
330
668CA
100
AcDbScale
 70
     0
300
1/64" = 1'-0"
140
0.015625
141
12.0
290
     0
1001
ACAD
1000
AcRTDxfName
1000
SCALE
1000
AcRTDxfName
1000
SCALE
1000
AcRTDxfName
1000
SCALE
  0
SCALE
  5
668DE
102
{ACAD_REACTORS
330
668CA
102
}
330
668CA
100
AcDbScale
 70
     0
300
1/32" = 1'-0"
140
0.03125
141
12.0
290
     0
1001
ACAD
1000
AcRTDxfName
1000
SCALE
1000
AcRTDxfName
1000
SCALE
1000
AcRTDxfName
1000
SCALE
  0
SCALE
  5
668DF
102
{ACAD_REACTORS
330
668CA
102
}
330
668CA
100
AcDbScale
 70
     0
300
1/16" = 1'-0"
140
0.0625
141
12.0
290
     0
1001
ACAD
1000
AcRTDxfName
1000
SCALE
1000
AcRTDxfName
1000
SCALE
1000
AcRTDxfName
1000
SCALE
  0
SCALE
  5
668E0
102
{ACAD_REACTORS
330
668CA
102
}
330
668CA
100
AcDbScale
 70
     0
300
3/32" = 1'-0"
140
0.09375
141
12.0
290
     0
1001
ACAD
1000
AcRTDxfName
1000
SCALE
1000
AcRTDxfName
1000
SCALE
1000
AcRTDxfName
1000
SCALE
  0
SCALE
  5
668E1
102
{ACAD_REACTORS
330
668CA
102
}
330
668CA
100
AcDbScale
 70
     0
300
1/8" = 1'-0"
140
0.125
141
12.0
290
     0
1001
ACAD
1000
AcRTDxfName
1000
SCALE
1000
AcRTDxfName
1000
SCALE
1000
AcRTDxfName
1000
SCALE
  0
SCALE
  5
668E2
102
{ACAD_REACTORS
330
668CA
102
}
330
668CA
100
AcDbScale
 70
     0
300
3/16" = 1'-0"
140
0.1875
141
12.0
290
     0
1001
ACAD
1000
AcRTDxfName
1000
SCALE
1000
AcRTDxfName
1000
SCALE
1000
AcRTDxfName
1000
SCALE
  0
SCALE
  5
668E3
102
{ACAD_REACTORS
330
668CA
102
}
330
668CA
100
AcDbScale
 70
     0
300
1/4" = 1'-0"
140
0.25
141
12.0
290
     0
1001
ACAD
1000
AcRTDxfName
1000
SCALE
1000
AcRTDxfName
1000
SCALE
1000
AcRTDxfName
1000
SCALE
  0
SCALE
  5
668E4
102
{ACAD_REACTORS
330
668CA
102
}
330
668CA
100
AcDbScale
 70
     0
300
3/8" = 1'-0"
140
0.375
141
12.0
290
     0
1001
ACAD
1000
AcRTDxfName
1000
SCALE
1000
AcRTDxfName
1000
SCALE
1000
AcRTDxfName
1000
SCALE
  0
SCALE
  5
668E5
102
{ACAD_REACTORS
330
668CA
102
}
330
668CA
100
AcDbScale
 70
     0
300
1/2" = 1'-0"
140
0.5
141
12.0
290
     0
1001
ACAD
1000
AcRTDxfName
1000
SCALE
1000
AcRTDxfName
1000
SCALE
1000
AcRTDxfName
1000
SCALE
  0
SCALE
  5
668E6
102
{ACAD_REACTORS
330
668CA
102
}
330
668CA
100
AcDbScale
 70
     0
300
3/4" = 1'-0"
140
0.75
141
12.0
290
     0
1001
ACAD
1000
AcRTDxfName
1000
SCALE
1000
AcRTDxfName
1000
SCALE
1000
AcRTDxfName
1000
SCALE
  0
SCALE
  5
668E7
102
{ACAD_REACTORS
330
668CA
102
}
330
668CA
100
AcDbScale
 70
     0
300
1" = 1'-0"
140
1.0
141
12.0
290
     0
1001
ACAD
1000
AcRTDxfName
1000
SCALE
1000
AcRTDxfName
1000
SCALE
1000
AcRTDxfName
1000
SCALE
  0
SCALE
  5
668E8
102
{ACAD_REACTORS
330
668CA
102
}
330
668CA
100
AcDbScale
 70
     0
300
1-1/2" = 1'-0"
140
1.5
141
12.0
290
     0
1001
ACAD
1000
AcRTDxfName
1000
SCALE
1000
AcRTDxfName
1000
SCALE
1000
AcRTDxfName
1000
SCALE
  0
SCALE
  5
668E9
102
{ACAD_REACTORS
330
668CA
102
}
330
668CA
100
AcDbScale
 70
     0
300
3" = 1'-0"
140
3.0
141
12.0
290
     0
1001
ACAD
1000
AcRTDxfName
1000
SCALE
1000
AcRTDxfName
1000
SCALE
1000
AcRTDxfName
1000
SCALE
  0
SCALE
  5
668EA
102
{ACAD_REACTORS
330
668CA
102
}
330
668CA
100
AcDbScale
 70
     0
300
6" = 1'-0"
140
6.0
141
12.0
290
     0
1001
ACAD
1000
AcRTDxfName
1000
SCALE
1000
AcRTDxfName
1000
SCALE
1000
AcRTDxfName
1000
SCALE
  0
SCALE
  5
668EB
102
{ACAD_REACTORS
330
668CA
102
}
330
668CA
100
AcDbScale
 70
     0
300
1'-0" = 1'-0"
140
12.0
141
12.0
290
     0
1001
ACAD
1000
AcRTDxfName
1000
SCALE
1000
AcRTDxfName
1000
SCALE
1000
AcRTDxfName
1000
SCALE
  0
DICTIONARYVAR
  5
73F2
102
{ACAD_REACTORS
330
6377
102
}
330
6377
100
DictionaryVariables
280
     0
  1
1
  0
DICTIONARYVAR
  5
67B72
102
{ACAD_REACTORS
330
6377
102
}
330
6377
100
DictionaryVariables
280
     0
  1
0
  0
DICTIONARYVAR
  5
61970
102
{ACAD_REACTORS
330
6377
102
}
330
6377
100
DictionaryVariables
280
     0
  1

  0
DICTIONARYVAR
  5
6378
102
{ACAD_REACTORS
330
6377
102
}
330
6377
100
DictionaryVariables
280
     0
  1
96
  0
ENDSEC
  0
EOF
