  0
SECTION
  2
HEADER
  9
$ACADVER
  1
AC1015
  9
$ACADMAINTVER
 70
     6
  9
$DWGCODEPAGE
  3
ANSI_932
  9
$INSBASE
 10
0.0
 20
0.0
 30
0.0
  9
$EXTMIN
 10
9391.802452468744
 20
-11697.21776843986
 30
0.0
  9
$EXTMAX
 10
9771.764452468744
 20
-11349.91659017272
 30
0.0
  9
$LIMMIN
 10
0.0
 20
0.0
  9
$LIMMAX
 10
840.0
 20
594.0
  9
$ORTHOMODE
 70
     1
  9
$REGENMODE
 70
     1
  9
$FILLMODE
 70
     1
  9
$QTEXTMODE
 70
     0
  9
$MIRRTEXT
 70
     1
  9
$LTSCALE
 40
7.0
  9
$ATTMODE
 70
     0
  9
$TEXTSIZE
 40
6.0
  9
$TRACEWID
 40
1.0
  9
$TEXTSTYLE
  7
STANDARD
  9
$CLAYER
  8
寸法線
  9
$CELTYPE
  6
BYLAYER
  9
$CECOLOR
 62
   256
  9
$CELTSCALE
 40
1.0
  9
$DISPSILH
 70
     0
  9
$DIMSCALE
 40
1.0
  9
$DIMASZ
 40
10.0
  9
$DIMEXO
 40
3.0
  9
$DIMDLI
 40
7.149999999999999
  9
$DIMRND
 40
0.0
  9
$DIMDLE
 40
0.0
  9
$DIMEXE
 40
2.0
  9
$DIMTP
 40
0.0
  9
$DIMTM
 40
0.0
  9
$DIMTXT
 40
18.0
  9
$DIMCEN
 40
0.0
  9
$DIMTSZ
 40
0.0
  9
$DIMTOL
 70
     0
  9
$DIMLIM
 70
     0
  9
$DIMTIH
 70
     0
  9
$DIMTOH
 70
     0
  9
$DIMSE1
 70
     0
  9
$DIMSE2
 70
     0
  9
$DIMTAD
 70
     3
  9
$DIMZIN
 70
     8
  9
$DIMBLK
  1
OPEN
  9
$DIMASO
 70
     1
  9
$DIMSHO
 70
     0
  9
$DIMPOST
  1

  9
$DIMAPOST
  1

  9
$DIMALT
 70
     0
  9
$DIMALTD
 70
     2
  9
$DIMALTF
 40
25.4
  9
$DIMLFAC
 40
1.0
  9
$DIMTOFL
 70
     0
  9
$DIMTVP
 40
0.0
  9
$DIMTIX
 70
     0
  9
$DIMSOXD
 70
     0
  9
$DIMSAH
 70
     0
  9
$DIMBLK1
  1

  9
$DIMBLK2
  1

  9
$DIMSTYLE
  2
STANDARD
  9
$DIMCLRD
 70
     8
  9
$DIMCLRE
 70
     8
  9
$DIMCLRT
 70
     0
  9
$DIMTFAC
 40
1.0
  9
$DIMGAP
 40
4.0
  9
$DIMJUST
 70
     0
  9
$DIMSD1
 70
     0
  9
$DIMSD2
 70
     0
  9
$DIMTOLJ
 70
     1
  9
$DIMTZIN
 70
     0
  9
$DIMALTZ
 70
     0
  9
$DIMALTTZ
 70
     0
  9
$DIMUPT
 70
     1
  9
$DIMDEC
 70
     2
  9
$DIMTDEC
 70
     2
  9
$DIMALTU
 70
     2
  9
$DIMALTTD
 70
     2
  9
$DIMTXSTY
  7
STANDARD
  9
$DIMAUNIT
 70
     0
  9
$DIMADEC
 70
     2
  9
$DIMALTRND
 40
0.0
  9
$DIMAZIN
 70
     2
  9
$DIMDSEP
 70
    46
  9
$DIMATFIT
 70
     3
  9
$DIMFRAC
 70
     0
  9
$DIMLDRBLK
  1
OPEN
  9
$DIMLUNIT
 70
     2
  9
$DIMLWD
 70
    -2
  9
$DIMLWE
 70
    -2
  9
$DIMTMOVE
 70
     0
  9
$LUNITS
 70
     2
  9
$LUPREC
 70
     2
  9
$SKETCHINC
 40
0.1
  9
$FILLETRAD
 40
0.6
  9
$AUNITS
 70
     0
  9
$AUPREC
 70
     2
  9
$MENU
  1
ACAD
  9
$ELEVATION
 40
0.0
  9
$PELEVATION
 40
0.0
  9
$THICKNESS
 40
0.0
  9
$LIMCHECK
 70
     0
  9
$CHAMFERA
 40
0.0
  9
$CHAMFERB
 40
0.0
  9
$CHAMFERC
 40
0.0
  9
$CHAMFERD
 40
0.0
  9
$SKPOLY
 70
     0
  9
$TDCREATE
 40
2449505.922222222
  9
$TDUCREATE
 40
2449505.547222222
  9
$TDUPDATE
 40
2456822.491302026
  9
$TDUUPDATE
 40
2456822.116302026
  9
$TDINDWG
 40
2.5168631481
  9
$TDUSRTIMER
 40
2456822.116051678
  9
$USRTIMER
 70
     1
  9
$ANGBASE
 50
0.0
  9
$ANGDIR
 70
     0
  9
$PDMODE
 70
     3
  9
$PDSIZE
 40
0.0
  9
$PLINEWID
 40
0.0
  9
$SPLFRAME
 70
     0
  9
$SPLINETYPE
 70
     6
  9
$SPLINESEGS
 70
     8
  9
$HANDSEED
  5
6A3BA
  9
$SURFTAB1
 70
     6
  9
$SURFTAB2
 70
     6
  9
$SURFTYPE
 70
     6
  9
$SURFU
 70
     6
  9
$SURFV
 70
     6
  9
$UCSBASE
  2

  9
$UCSNAME
  2

  9
$UCSORG
 10
0.0
 20
0.0
 30
0.0
  9
$UCSXDIR
 10
1.0
 20
0.0
 30
0.0
  9
$UCSYDIR
 10
0.0
 20
1.0
 30
0.0
  9
$UCSORTHOREF
  2

  9
$UCSORTHOVIEW
 70
     0
  9
$UCSORGTOP
 10
0.0
 20
0.0
 30
0.0
  9
$UCSORGBOTTOM
 10
0.0
 20
0.0
 30
0.0
  9
$UCSORGLEFT
 10
0.0
 20
0.0
 30
0.0
  9
$UCSORGRIGHT
 10
0.0
 20
0.0
 30
0.0
  9
$UCSORGFRONT
 10
0.0
 20
0.0
 30
0.0
  9
$UCSORGBACK
 10
0.0
 20
0.0
 30
0.0
  9
$PUCSBASE
  2

  9
$PUCSNAME
  2

  9
$PUCSORG
 10
0.0
 20
0.0
 30
0.0
  9
$PUCSXDIR
 10
1.0
 20
0.0
 30
0.0
  9
$PUCSYDIR
 10
0.0
 20
1.0
 30
0.0
  9
$PUCSORTHOREF
  2

  9
$PUCSORTHOVIEW
 70
     0
  9
$PUCSORGTOP
 10
0.0
 20
0.0
 30
0.0
  9
$PUCSORGBOTTOM
 10
0.0
 20
0.0
 30
0.0
  9
$PUCSORGLEFT
 10
0.0
 20
0.0
 30
0.0
  9
$PUCSORGRIGHT
 10
0.0
 20
0.0
 30
0.0
  9
$PUCSORGFRONT
 10
0.0
 20
0.0
 30
0.0
  9
$PUCSORGBACK
 10
0.0
 20
0.0
 30
0.0
  9
$USERI1
 70
     0
  9
$USERI2
 70
     0
  9
$USERI3
 70
     0
  9
$USERI4
 70
     0
  9
$USERI5
 70
     0
  9
$USERR1
 40
0.0
  9
$USERR2
 40
0.0
  9
$USERR3
 40
0.0
  9
$USERR4
 40
0.0
  9
$USERR5
 40
0.0
  9
$WORLDVIEW
 70
     0
  9
$SHADEDGE
 70
     3
  9
$SHADEDIF
 70
    70
  9
$TILEMODE
 70
     1
  9
$MAXACTVP
 70
    16
  9
$PINSBASE
 10
0.0
 20
0.0
 30
0.0
  9
$PLIMCHECK
 70
     0
  9
$PEXTMIN
 10
1.000000000000000E+20
 20
1.000000000000000E+20
 30
1.000000000000000E+20
  9
$PEXTMAX
 10
-1.000000000000000E+20
 20
-1.000000000000000E+20
 30
-1.000000000000000E+20
  9
$PLIMMIN
 10
0.0
 20
0.0
  9
$PLIMMAX
 10
0.0
 20
0.0
  9
$UNITMODE
 70
     0
  9
$VISRETAIN
 70
     0
  9
$PLINEGEN
 70
     0
  9
$PSLTSCALE
 70
     0
  9
$TREEDEPTH
 70
  3020
  9
$CMLSTYLE
  2
STANDARD
  9
$CMLJUST
 70
     0
  9
$CMLSCALE
 40
1.0
  9
$PROXYGRAPHICS
 70
     1
  9
$MEASUREMENT
 70
     0
  9
$CELWEIGHT
370
    -1
  9
$ENDCAPS
280
     0
  9
$JOINSTYLE
280
     0
  9
$LWDISPLAY
290
     0
  9
$INSUNITS
 70
     0
  9
$HYPERLINKBASE
  1

  9
$STYLESHEET
  1
spax form.ctb
  9
$XEDIT
290
     1
  9
$CEPSNTYPE
380
     0
  9
$PSTYLEMODE
290
     1
  9
$FINGERPRINTGUID
  2
{C1CFCF3E-DF91-11D3-B30C-0060B0FA8DFC}
  9
$VERSIONGUID
  2
{87F4CA56-08A5-40B9-BAE8-758C622665A1}
  9
$EXTNAMES
290
     1
  9
$PSVPSCALE
 40
0.0
  9
$OLESTARTUP
290
     0
  0
ENDSEC
  0
SECTION
  2
CLASSES
  0
CLASS
  1
LWPOLYLINE
  2
AcDbPolyline
  3
ObjectDBX Classes
 90
        0
280
     0
281
     1
  0
CLASS
  1
ACDBDICTIONARYWDFLT
  2
AcDbDictionaryWithDefault
  3
ObjectDBX Classes
 90
        0
280
     0
281
     0
  0
CLASS
  1
ACDBPLACEHOLDER
  2
AcDbPlaceHolder
  3
ObjectDBX Classes
 90
        0
280
     0
281
     0
  0
CLASS
  1
LAYOUT
  2
AcDbLayout
  3
ObjectDBX Classes
 90
        0
280
     0
281
     0
  0
CLASS
  1
DICTIONARYVAR
  2
AcDbDictionaryVar
  3
ObjectDBX Classes
 90
        0
280
     0
281
     0
  0
CLASS
  1
LONG_TRANSACTION
  2
AcDbLongTransaction
  3
ObjectDBX Classes
 90
        0
280
     0
281
     0
  0
CLASS
  1
LWPOLYLINE
  2
AcDbPolyline
  3
ObjectDBX Classes
 90
        0
280
     0
281
     1
  0
CLASS
  1
HATCH
  2
AcDbHatch
  3
ObjectDBX Classes
 90
        0
280
     0
281
     1
  0
CLASS
  1
XRECORD
  2
AcDbXrecord
  3
ObjectDBX Classes
 90
        0
280
     0
281
     0
  0
CLASS
  1
SORTENTSTABLE
  2
AcDbSortentsTable
  3
ObjectDBX Classes
 90
        0
280
     0
281
     0
  0
CLASS
  1
MATERIAL
  2
AcDbMaterial
  3
ObjectDBX Classes
 90
     1153
280
     0
281
     0
  0
CLASS
  1
VISUALSTYLE
  2
AcDbVisualStyle
  3
ObjectDBX Classes
 90
     4095
280
     0
281
     0
  0
CLASS
  1
TABLESTYLE
  2
AcDbTableStyle
  3
ObjectDBX Classes
 90
     4095
280
     0
281
     0
  0
CLASS
  1
SCALE
  2
AcDbScale
  3
ObjectDBX Classes
 90
     1153
280
     0
281
     0
  0
CLASS
  1
MLEADERSTYLE
  2
AcDbMLeaderStyle
  3
ACDB_MLEADERSTYLE_CLASS
 90
     4095
280
     0
281
     0
  0
CLASS
  1
CELLSTYLEMAP
  2
AcDbCellStyleMap
  3
ObjectDBX Classes
 90
     1152
280
     0
281
     0
  0
CLASS
  1
RASTERVARIABLES
  2
AcDbRasterVariables
  3
ISM
 90
        0
280
     0
281
     0
  0
CLASS
  1
SUN
  2
AcDbSun
  3
SCENEOE
 90
     1153
280
     0
281
     0
  0
ENDSEC
  0
SECTION
  2
TABLES
  0
TABLE
  2
VPORT
  5
8
330
0
100
AcDbSymbolTable
 70
     1
  0
VPORT
  5
698DF
330
8
100
AcDbSymbolTableRecord
100
AcDbViewportTableRecord
  2
*Active
 70
     0
 10
0.0
 20
0.0
 11
1.0
 21
1.0
 12
9581.783452468744
 22
-11523.56717930629
 13
0.0
 23
0.0
 14
1.0
 24
1.0
 15
20.0
 25
20.0
 16
0.0
 26
0.0
 36
1.0
 17
0.0
 27
0.0
 37
0.0
 40
354.2472018324774
 41
2.027568922305764
 42
50.0
 43
0.0
 44
0.0
 50
0.0
 51
0.0
 71
    16
 72
  2000
 73
     1
 74
     0
 75
     0
 76
     0
 77
     0
 78
     1
281
     0
 65
     1
110
0.0
120
0.0
130
0.0
111
1.0
121
0.0
131
0.0
112
0.0
122
1.0
132
0.0
 79
     0
146
0.0
  0
ENDTAB
  0
TABLE
  2
LTYPE
  5
5
330
0
100
AcDbSymbolTable
 70
     4
  0
LTYPE
  5
12
330
5
100
AcDbSymbolTableRecord
100
AcDbLinetypeTableRecord
  2
BYBLOCK
 70
     0
  3

 72
    65
 73
     0
 40
0.0
  0
LTYPE
  5
13
330
5
100
AcDbSymbolTableRecord
100
AcDbLinetypeTableRecord
  2
BYLAYER
 70
     0
  3

 72
    65
 73
     0
 40
0.0
  0
LTYPE
  5
14
330
5
100
AcDbSymbolTableRecord
100
AcDbLinetypeTableRecord
  2
CONTINUOUS
 70
     0
  3
Solid line
 72
    65
 73
     0
 40
0.0
  0
LTYPE
  5
3D
330
5
100
AcDbSymbolTableRecord
100
AcDbLinetypeTableRecord
  2
PHANTOM
 70
     0
  3
_____ _ _ _____ _ _ _____ _ _ _____ _ _ ____
 72
    65
 73
     6
 40
2.5
 49
1.25
 74
     0
 49
-0.25
 74
     0
 49
0.25
 74
     0
 49
-0.25
 74
     0
 49
0.25
 74
     0
 49
-0.25
 74
     0
  0
LTYPE
  5
40D2
330
5
100
AcDbSymbolTableRecord
100
AcDbLinetypeTableRecord
  2
CENTER
 70
     0
  3
____ _ ____ _ ____ _ ____ _ ____ _ ____ _ ____ 
 72
    65
 73
     4
 40
2.0
 49
1.25
 74
     0
 49
-0.25
 74
     0
 49
0.25
 74
     0
 49
-0.25
 74
     0
  0
LTYPE
  5
A244
330
5
100
AcDbSymbolTableRecord
100
AcDbLinetypeTableRecord
  2
HIDDEN
 70
     0
  3
_ _ _ _ _ _ _ _ _ _ _ _ _ _ _ _ _ _ _ _ _ _ _
 72
    65
 73
     2
 40
0.375
 49
0.25
 74
     0
 49
-0.125
 74
     0
  0
ENDTAB
  0
TABLE
  2
LAYER
  5
2
102
{ACAD_XDICTIONARY
360
651A5
102
}
330
0
100
AcDbSymbolTable
 70
    12
  0
LAYER
  5
F
102
{ACAD_XDICTIONARY
360
678AC
102
}
330
2
100
AcDbSymbolTableRecord
100
AcDbLayerTableRecord
  2
0
 70
     0
 62
     7
  6
CONTINUOUS
370
    -3
390
40CA
  0
LAYER
  5
4C
102
{ACAD_XDICTIONARY
360
678B4
102
}
330
2
100
AcDbSymbolTableRecord
100
AcDbLayerTableRecord
  2
寸法線
 70
     0
 62
     7
  6
CONTINUOUS
370
    -3
390
40CA
  0
LAYER
  5
4D
102
{ACAD_XDICTIONARY
360
678B6
102
}
330
2
100
AcDbSymbolTableRecord
100
AcDbLayerTableRecord
  2
姿図
 70
     0
 62
     8
  6
CONTINUOUS
370
    -3
390
40CA
  0
LAYER
  5
40D4
102
{ACAD_XDICTIONARY
360
678BA
102
}
330
2
100
AcDbSymbolTableRecord
100
AcDbLayerTableRecord
  2
文字
 70
     0
 62
     7
  6
CONTINUOUS
370
    -3
390
40CA
  0
LAYER
  5
66A20
102
{ACAD_XDICTIONARY
360
678C0
102
}
330
2
100
AcDbSymbolTableRecord
100
AcDbLayerTableRecord
  2
C-SUNPO
 70
     0
 62
     7
  6
CONTINUOUS
370
    -3
390
40CA
  0
ENDTAB
  0
TABLE
  2
STYLE
  5
3
330
0
100
AcDbSymbolTable
 70
     1
  0
STYLE
  5
10
330
3
100
AcDbSymbolTableRecord
100
AcDbTextStyleTableRecord
  2
STANDARD
 70
     0
 40
0.0
 41
1.0
 50
0.0
 71
     0
 42
6.0
  3
MONOTXT
  4
BIGFONT
  0
ENDTAB
  0
TABLE
  2
VIEW
  5
6
330
0
100
AcDbSymbolTable
 70
     1
  0
VIEW
  5
41
330
6
100
AcDbSymbolTableRecord
100
AcDbViewTableRecord
  2
CUT1
 70
     0
 40
612.7795527156796
 10
420.0000000000169
 20
306.3897763578398
 41
840.0000000000338
 11
0.0
 21
0.0
 31
1.0
 12
0.0
 22
0.0
 32
0.0
 42
50.0
 43
0.0
 44
0.0
 50
0.0
 71
     0
281
     0
 72
     0
  0
ENDTAB
  0
TABLE
  2
UCS
  5
7
330
0
100
AcDbSymbolTable
 70
     0
  0
ENDTAB
  0
TABLE
  2
APPID
  5
9
330
0
100
AcDbSymbolTable
 70
     6
  0
APPID
  5
11
330
9
100
AcDbSymbolTableRecord
100
AcDbRegAppTableRecord
  2
ACAD
 70
     0
  0
APPID
  5
66A82
330
9
100
AcDbSymbolTableRecord
100
AcDbRegAppTableRecord
  2
ACAD_MLEADERVER
 70
     0
  0
APPID
  5
674D9
330
9
100
AcDbSymbolTableRecord
100
AcDbRegAppTableRecord
  2
ACAD_EXEMPT_FROM_CAD_STANDARDS
 70
     0
  0
APPID
  5
68399
330
9
100
AcDbSymbolTableRecord
100
AcDbRegAppTableRecord
  2
ACAD_PSEXT
 70
     0
  0
APPID
  5
6A348
330
9
100
AcDbSymbolTableRecord
100
AcDbRegAppTableRecord
  2
ACAD_DSTYLE_DIMJAG
 70
     0
  0
APPID
  5
6A349
330
9
100
AcDbSymbolTableRecord
100
AcDbRegAppTableRecord
  2
ACAD_DSTYLE_DIMTALN
 70
     0
  0
ENDTAB
  0
TABLE
  2
DIMSTYLE
  5
A
330
0
100
AcDbSymbolTable
 70
     5
100
AcDbDimStyleTable
  0
DIMSTYLE
105
1B3A
330
A
100
AcDbSymbolTableRecord
100
AcDbDimStyleTableRecord
  2
STANDARD
 70
     0
 41
10.0
 42
3.0
 43
7.149999999999999
 44
2.0
 73
     0
 74
     0
 77
     3
 78
     8
 79
     2
140
18.0
141
0.0
147
4.0
176
     8
177
     8
178
     0
179
     2
271
     2
272
     2
288
     1
340
10
341
49C3
342
49C3
  0
DIMSTYLE
105
A246
330
A
100
AcDbSymbolTableRecord
100
AcDbDimStyleTableRecord
  2
STANDERD
 70
     0
 40
0.0
 41
4.0
 42
1.5
 43
3.75
 44
1.25
 73
     0
 74
     0
 77
     3
 78
     8
140
5.0
141
0.0
147
2.5
171
     0
173
     1
178
     0
288
     1
340
10
341
49C3
343
49C3
344
49C3
  0
DIMSTYLE
105
631E8
330
A
100
AcDbSymbolTableRecord
100
AcDbDimStyleTableRecord
  2
STANDARD-5
 70
     0
 41
7.5
 42
7.5
 43
1.9
 44
5.0
 73
     0
 74
     0
 77
     1
 78
     8
 79
     2
140
12.5
141
0.0
147
3.0
171
     0
173
     1
176
     8
177
     8
271
     2
178
   256
179
     2
271
     2
272
     2
274
     0
340
10
341
49C3
343
49C3
344
49C3
  0
ENDTAB
  0
TABLE
  2
BLOCK_RECORD
  5
1
330
0
100
AcDbSymbolTable
 70
   153
  0
BLOCK_RECORD
  5
18
330
1
100
AcDbSymbolTableRecord
100
AcDbBlockTableRecord
  2
*MODEL_SPACE
340
40CD
  0
BLOCK_RECORD
  5
15
330
1
100
AcDbSymbolTableRecord
100
AcDbBlockTableRecord
  2
*PAPER_SPACE
340
40CE
  0
BLOCK_RECORD
  5
49C3
330
1
100
AcDbSymbolTableRecord
100
AcDbBlockTableRecord
  2
_OPEN
340
0
102
{BLKREFS
331
5A982
331
5A983
331
5A98B
331
5A98C
331
5A994
331
5A995
331
5A99D
331
5A99E
331
5A9A8
331
5A9A9
331
5A9B1
331
5A9B2
331
5A9BA
331
5A9BB
331
5A9C3
331
5A9C4
331
5A9CC
331
5A9CD
331
5A9E7
331
5A9E8
331
5A9F0
331
5A9F1
331
62286
331
62287
331
6228F
331
62290
331
62298
331
62299
331
622AD
331
622AE
331
62675
331
62676
331
63124
331
63125
331
6312D
331
6312E
331
63136
331
63137
331
6313F
331
63140
331
6314A
331
6314B
331
63153
331
63154
331
6315C
331
6315D
331
63165
331
63166
331
6316E
331
6316F
331
63177
331
63178
331
63182
331
63183
331
6318B
331
6318C
331
63194
331
63195
331
6386E
331
6386F
331
63879
331
6387A
331
63884
331
63885
331
6388D
331
6388E
331
63898
331
63899
331
638A1
331
638A2
331
6441E
331
6441F
331
64427
331
64428
331
64430
331
64431
331
64439
331
6443A
331
64442
331
64443
331
6444D
331
6444E
331
64456
331
64457
331
64461
331
64462
331
6446C
331
6446D
331
64475
331
64476
331
6447E
331
6447F
331
64489
331
6448A
331
64492
331
64493
331
6449D
331
6449E
331
644A6
331
644A7
331
644AF
331
644B0
331
644B8
331
644B9
331
644C1
331
644C2
331
644CA
331
644CB
331
650EC
331
650ED
331
6511D
331
6511E
331
65126
331
65127
331
65145
331
65146
331
6514E
331
6514F
331
65157
331
65158
331
65160
331
65161
331
6516B
331
6516C
331
65174
331
65175
331
6517D
331
6517E
331
65186
331
65187
331
6518F
331
65190
331
65198
331
65199
331
669C2
331
669C3
331
669CD
331
669CE
331
669D6
331
669D7
331
67445
331
67446
331
6744E
331
6744F
331
67474
331
67475
331
6747D
331
6747E
331
67488
331
67489
331
67491
331
67492
331
6749A
331
6749B
331
674A3
331
674A4
331
674AC
331
674AD
331
674B5
331
674B6
331
674BE
331
674BF
331
674C9
331
674CA
331
674D2
331
674D3
331
67892
331
67893
331
6789D
331
6789E
331
678A6
331
678A7
331
682E3
331
682E4
331
682EE
331
682EF
331
682F7
331
682F8
331
68300
331
68301
331
68309
331
6830A
331
68312
331
68313
331
6831B
331
6831C
331
68324
331
68325
331
6832F
331
68330
331
68338
331
68339
331
68341
331
68342
331
6834A
331
6834B
331
68353
331
68354
331
6835E
331
6835F
331
68367
331
68368
331
68370
331
68371
331
68D76
331
68D77
331
68D7F
331
68D80
331
68D88
331
68D89
331
68D91
331
68D92
331
68D9A
331
68D9B
331
68DA3
331
68DA4
331
68DAC
331
68DAD
331
68DB5
331
68DB6
331
68DBE
331
68DBF
331
68DC7
331
68DC8
331
68DD0
331
68DD1
331
68DDD
331
68DDE
331
68DE6
331
68DE7
331
68DEF
331
68DF0
331
68DFA
331
68DFB
331
68E03
331
68E04
331
697D6
331
697D7
331
697E1
331
697E2
331
697EC
331
697ED
331
697F5
331
697F6
331
697FE
331
697FF
331
69807
331
69808
331
69810
331
69811
331
69819
331
6981A
331
69822
331
69823
331
6982B
331
6982C
331
69834
331
69835
331
6983D
331
6983E
331
69846
331
69847
331
6984F
331
69850
331
6985A
331
6985B
331
69863
331
69864
331
6A2AE
331
6A2AF
331
6A2B7
331
6A2B8
331
6A2C0
331
6A2C1
331
6A2C9
331
6A2CA
331
6A2D2
331
6A2D3
331
6A2DD
331
6A2DE
331
6A2E6
331
6A2E7
331
6A2EF
331
6A2F0
331
6A2F8
331
6A2F9
331
6A301
331
6A302
331
6A30C
331
6A30D
331
6A315
331
6A316
331
6A320
331
6A321
331
6A329
331
6A32A
331
6A332
331
6A333
331
6A33B
331
6A33C
102
}
  0
ENDTAB
  0
ENDSEC
  0
SECTION
  2
BLOCKS
  0
BLOCK
  5
52
330
18
100
AcDbEntity
  8
0
100
AcDbBlockBegin
  2
*MODEL_SPACE
 70
     0
 10
0.0
 20
0.0
 30
0.0
  3
*MODEL_SPACE
  1
*MODEL_SPACE
  0
ENDBLK
  5
53
330
18
100
AcDbEntity
  8
0
100
AcDbBlockEnd
  0
BLOCK
  5
50
330
15
100
AcDbEntity
 67
     1
  8
0
100
AcDbBlockBegin
  2
*PAPER_SPACE
 70
     0
 10
0.0
 20
0.0
 30
0.0
  3
*PAPER_SPACE
  1
*PAPER_SPACE
  0
ENDBLK
  5
51
330
15
100
AcDbEntity
 67
     1
  8
0
100
AcDbBlockEnd
  0
BLOCK
  5
49C7
330
49C3
100
AcDbEntity
  8
0
100
AcDbBlockBegin
  2
_OPEN
 70
     0
 10
0.0
 20
0.0
 30
0.0
  3
_OPEN
  1
_OPEN
  0
LINE
  5
49C4
330
49C3
100
AcDbEntity
  8
0
  6
ByBlock
 62
     0
100
AcDbLine
 10
-1.0
 20
0.1666666666666667
 30
0.0
 11
0.0
 21
0.0
 31
0.0
  0
LINE
  5
49C5
330
49C3
100
AcDbEntity
  8
0
  6
ByBlock
 62
     0
100
AcDbLine
 10
0.0
 20
0.0
 30
0.0
 11
-1.0
 21
-0.1666666666666667
 31
0.0
  0
LINE
  5
49C6
330
49C3
100
AcDbEntity
  8
0
  6
ByBlock
 62
     0
100
AcDbLine
 10
0.0
 20
0.0
 30
0.0
 11
-1.0
 21
0.0
 31
0.0
  0
ENDBLK
  5
49C8
330
49C3
100
AcDbEntity
  8
0
100
AcDbBlockEnd
  0
ENDSEC
  0
SECTION
  2
ENTITIES
  0
TEXT
  5
6A06B
330
18
100
AcDbEntity
  8
文字
100
AcDbText
 10
9391.802452468744
 20
-11697.21776843986
 30
0.0
 40
29.997
  1
SX-LB146S/600
100
AcDbText
  0
LINE
  5
6A073
330
18
100
AcDbEntity
  8
姿図
100
AcDbLine
 10
9712.012252945155
 20
-11545.2485247522
 30
0.0
 11
9581.585461244738
 21
-11434.39640520086
 31
0.0
  0
LINE
  5
6A074
330
18
100
AcDbEntity
  8
姿図
100
AcDbLine
 10
9713.161790652379
 20
-11517.38181210177
 30
0.0
 11
9581.58546124474
 21
-11405.5526793947
 31
0.0
  0
LINE
  5
6A075
330
18
100
AcDbEntity
  8
姿図
100
AcDbLine
 10
9711.8638628852
 20
-11525.4393947393
 30
0.0
 11
9581.58546124474
 21
-11414.71339461827
 31
0.0
  0
LINE
  5
6A076
330
18
100
AcDbEntity
  8
姿図
100
AcDbLine
 10
9713.161790652382
 20
-11525.29829649233
 30
0.0
 11
9581.58546124474
 21
-11413.46916378526
 31
0.0
  0
LINE
  5
6A077
330
18
100
AcDbEntity
  8
姿図
100
AcDbLine
 10
9713.161790652382
 20
-11529.51027216166
 30
0.0
 11
9581.58546124474
 21
-11417.6811394546
 31
0.0
  0
LINE
  5
6A078
330
18
100
AcDbEntity
  8
姿図
100
AcDbLine
 10
9713.161790652382
 20
-11534.38195486354
 30
0.0
 11
9581.58546124474
 21
-11422.55282215648
 31
0.0
  0
LINE
  5
6A079
330
18
100
AcDbEntity
  8
姿図
100
AcDbLine
 10
9713.161790652382
 20
-11539.25363756542
 30
0.0
 11
9581.58546124474
 21
-11427.42450485836
 31
0.0
  0
LINE
  5
6A07A
330
18
100
AcDbEntity
  8
姿図
100
AcDbLine
 10
9713.161790652382
 20
-11544.12532026731
 30
0.0
 11
9581.58546124474
 21
-11432.29618756024
 31
0.0
  0
LINE
  5
6A07B
330
18
100
AcDbEntity
  8
姿図
100
AcDbLine
 10
9713.161790652382
 20
-11548.99700296918
 30
0.0
 11
9581.58546124474
 21
-11437.16787026212
 31
0.0
  0
LINE
  5
6A07C
330
18
100
AcDbEntity
  8
姿図
100
AcDbLine
 10
9713.161790652379
 20
-11553.86868567107
 30
0.0
 11
9581.585461244737
 21
-11442.039552964
 31
0.0
  0
LINE
  5
6A07D
330
18
100
AcDbEntity
  8
姿図
100
AcDbLine
 10
9711.984120677087
 20
-11557.42095430785
 30
0.0
 11
9581.585461244738
 21
-11446.5927448865
 31
0.0
  0
LINE
  5
6A07E
330
18
100
AcDbEntity
  8
姿図
100
AcDbLine
 10
9712.105247104839
 20
-11517.38181210177
 30
0.0
 11
9581.58546124474
 21
-11406.45065511055
 31
0.0
  0
LINE
  5
6A07F
330
18
100
AcDbEntity
  8
姿図
100
AcDbLine
 10
9713.161790652379
 20
-11515.35194430932
 30
0.0
 11
9581.58546124474
 21
-11403.52281160225
 31
0.0
  0
LINE
  5
6A080
330
18
100
AcDbEntity
  8
姿図
100
AcDbLine
 10
9713.161790652379
 20
-11523.26842869987
 30
0.0
 11
9581.585461244737
 21
-11411.43929599281
 31
0.0
  0
LINE
  5
6A081
330
18
100
AcDbEntity
  8
姿図
100
AcDbLine
 10
9713.161790652379
 20
-11527.83563123289
 30
0.0
 11
9581.585461244737
 21
-11416.00649852582
 31
0.0
  0
LINE
  5
6A082
330
18
100
AcDbEntity
  8
姿図
100
AcDbLine
 10
9713.161790652379
 20
-11532.70731393477
 30
0.0
 11
9581.585461244737
 21
-11420.8781812277
 31
0.0
  0
LINE
  5
6A083
330
18
100
AcDbEntity
  8
姿図
100
AcDbLine
 10
9713.161790652379
 20
-11537.57899663665
 30
0.0
 11
9581.585461244737
 21
-11425.74986392958
 31
0.0
  0
LINE
  5
6A084
330
18
100
AcDbEntity
  8
姿図
100
AcDbLine
 10
9713.161790652379
 20
-11542.45067933853
 30
0.0
 11
9581.585461244737
 21
-11430.62154663147
 31
0.0
  0
LINE
  5
6A085
330
18
100
AcDbEntity
  8
姿図
100
AcDbLine
 10
9713.161790652379
 20
-11547.32236204041
 30
0.0
 11
9581.585461244737
 21
-11435.49322933335
 31
0.0
  0
LINE
  5
6A086
330
18
100
AcDbEntity
  8
姿図
100
AcDbLine
 10
9713.161790652379
 20
-11552.19404474229
 30
0.0
 11
9581.585461244737
 21
-11440.36491203523
 31
0.0
  0
LINE
  5
6A087
330
18
100
AcDbEntity
  8
姿図
100
AcDbLine
 10
9713.161790652379
 20
-11555.64481998946
 30
0.0
 11
9581.585461244737
 21
-11443.81568728239
 31
0.0
  0
LINE
  5
6A088
330
18
100
AcDbEntity
  8
姿図
100
AcDbLine
 10
9713.161790652379
 20
-11563.30757090596
 30
0.0
 11
9581.585461244737
 21
-11451.47843819889
 31
0.0
  0
LINE
  5
6A089
330
18
100
AcDbEntity
  8
姿図
100
AcDbLine
 10
9713.161790652379
 20
-11566.06768847493
 30
0.0
 11
9581.585461244737
 21
-11454.23855576787
 31
0.0
  0
LINE
  5
6A08A
330
18
100
AcDbEntity
  8
姿図
100
AcDbLine
 10
9597.083664014492
 20
-11376.21267237523
 30
0.0
 11
9699.925245880124
 21
-11465.61961675521
 31
0.0
  0
LINE
  5
6A08B
330
18
100
AcDbEntity
  8
姿図
100
AcDbLine
 10
9597.083664014492
 20
-11368.33834692085
 30
0.0
 11
9699.925245880124
 21
-11457.74529130083
 31
0.0
  0
LINE
  5
6A08C
330
18
100
AcDbEntity
  8
姿図
100
AcDbLine
 10
9597.083664014492
 20
-11365.71357176939
 30
0.0
 11
9699.925245880124
 21
-11455.12051614937
 31
0.0
  0
LINE
  5
6A08D
330
18
100
AcDbEntity
  8
姿図
100
AcDbLine
 10
9536.575672360848
 20
-11469.45856361835
 30
0.0
 11
9666.769867448314
 21
-11580.11299504741
 31
0.0
  0
LINE
  5
6A08E
330
18
100
AcDbEntity
  8
姿図
100
AcDbLine
 10
9681.94453257569
 20
-11577.41712173867
 30
0.0
 11
9550.755376775182
 21
-11466.02894609836
 31
0.0
  0
LINE
  5
6A08F
330
18
100
AcDbEntity
  8
姿図
100
AcDbLine
 10
9681.944532575677
 20
-11570.19338184307
 30
0.0
 11
9550.755376775185
 21
-11458.80520620277
 31
0.0
  0
LINE
  5
6A091
330
18
100
AcDbEntity
  8
姿図
100
AcDbLine
 10
9581.58546124474
 20
-11349.91659017272
 30
0.0
 11
9422.000156593302
 21
-11382.26790861477
 31
0.0
  0
LINE
  5
6A092
330
18
100
AcDbEntity
  8
姿図
100
AcDbLine
 10
9559.58546124474
 20
-11374.13819195467
 30
0.0
 11
9437.000156593302
 21
-11397.91623107976
 31
0.0
  0
LINE
  5
6A093
330
18
100
AcDbEntity
  8
姿図
100
AcDbLine
 10
9559.667546143035
 20
-11374.60023549345
 30
0.0
 11
9437.517921886432
 21
-11398.30087329615
 31
0.0
  0
LINE
  5
6A094
330
18
100
AcDbEntity
  8
姿図
100
AcDbLine
 10
9597.083664014495
 20
-11416.69501804746
 30
0.0
 11
9597.083664014492
 21
-11363.08879661793
 31
0.0
  0
LINE
  5
6A095
330
18
100
AcDbEntity
  8
姿図
100
AcDbLine
 10
9581.58546124474
 20
-11406.45065511055
 30
0.0
 11
9581.58546124474
 21
-11349.91659017272
 31
0.0
  0
LINE
  5
6A096
330
18
100
AcDbEntity
  8
姿図
100
AcDbLine
 10
9576.58546124474
 20
-11418.04748300994
 30
0.0
 11
9576.58546124474
 21
-11350.8048711615
 31
0.0
  0
LINE
  5
6A097
330
18
100
AcDbEntity
  8
姿図
100
AcDbLine
 10
9559.585461244737
 20
-11453.35555800639
 30
0.0
 11
9559.58546124474
 21
-11374.13819195467
 31
0.0
  0
LINE
  5
6A098
330
18
100
AcDbEntity
  8
姿図
100
AcDbLine
 10
9587.996619365127
 20
-11594.10755078672
 30
0.0
 11
9457.692254268768
 21
-11483.47269174255
 31
0.0
  0
LINE
  5
6A099
330
18
100
AcDbEntity
  8
姿図
100
AcDbLine
 10
9603.756200193744
 20
-11591.30776357849
 30
0.0
 11
9473.451835097378
 21
-11480.67290453432
 31
0.0
  0
LINE
  5
6A09A
330
18
100
AcDbEntity
  8
姿図
100
AcDbLine
 10
9603.756200193744
 20
-11588.54764600952
 30
0.0
 11
9473.451835097381
 21
-11477.91278696534
 31
0.0
  0
LINE
  5
6A09B
330
18
100
AcDbEntity
  8
姿図
100
AcDbLine
 10
9548.168180698482
 20
-11492.34455525985
 30
0.0
 11
9437.517921886432
 21
-11398.30087329615
 31
0.0
  0
LINE
  5
6A09C
330
18
100
AcDbEntity
  8
姿図
100
AcDbLine
 10
9548.168180698482
 20
-11595.37982587332
 30
0.0
 11
9416.480511723257
 21
-11483.57047333048
 31
0.0
  0
LINE
  5
6A09D
330
18
100
AcDbEntity
  8
姿図
100
AcDbLine
 10
9437.000156593302
 20
-11475.13359713147
 30
0.0
 11
9422.000156593305
 21
-11477.79844009781
 31
0.0
  0
LINE
  5
6A09E
330
18
100
AcDbEntity
  8
姿図
100
AcDbLine
 10
9460.452371837742
 20
-11472.99848228533
 30
0.0
 11
9422.000156593305
 21
-11479.82975664094
 31
0.0
  0
LINE
  5
6A09F
330
18
100
AcDbEntity
  8
姿図
100
AcDbLine
 10
9422.000156593303
 20
-11479.82975664094
 30
0.0
 11
9422.000156593302
 21
-11382.26790861477
 31
0.0
  0
ELLIPSE
  5
6A0A0
330
18
100
AcDbEntity
  8
姿図
100
AcDbEllipse
 10
9429.217469709598
 20
-11467.52051037867
 30
0.0
 11
0.0
 21
-3.508473521634005
 31
0.0
210
0.0
220
0.0
230
1.0
 40
0.6840581766403772
 41
0.0
 42
6.283185307179586
  0
ELLIPSE
  5
6A0A1
330
18
100
AcDbEntity
  8
姿図
100
AcDbEllipse
 10
9429.617469709596
 20
-11467.52051037867
 30
0.0
 11
1.557139847723761E-15
 21
3.508473521634053
 31
0.0
210
0.0
220
0.0
230
1.0
 40
0.6840581766403936
 41
0.0834300866107265
 42
3.058162566979068
  0
LINE
  5
6A0A2
330
18
100
AcDbEntity
  8
姿図
100
AcDbLine
 10
9418.649597446252
 20
-11435.71220309929
 30
0.0
 11
9418.649597446252
 21
-11440.38586203328
 31
0.0
  0
ELLIPSE
  5
6A0A3
330
18
100
AcDbEntity
  8
姿図
100
AcDbEllipse
 10
9429.217469709598
 20
-11436.30876794557
 30
0.0
 11
0.0
 21
-3.508473521634005
 31
0.0
210
0.0
220
0.0
230
1.0
 40
0.6840581766403772
 41
0.0
 42
6.283185307179586
  0
ELLIPSE
  5
6A0A4
330
18
100
AcDbEntity
  8
姿図
100
AcDbEllipse
 10
9429.617469709596
 20
-11436.30876794557
 30
0.0
 11
1.557139847723761E-15
 21
3.508473521634053
 31
0.0
210
0.0
220
0.0
230
1.0
 40
0.6840581766403936
 41
0.0834300866107265
 42
3.058162566979068
  0
LINE
  5
6A0A5
330
18
100
AcDbEntity
  8
姿図
100
AcDbLine
 10
9473.451835097381
 20
-11477.91278696534
 30
0.0
 11
9473.451835097378
 21
-11480.67290453432
 31
0.0
  0
ARC
  5
6A0A6
330
18
100
AcDbEntity
  8
姿図
100
AcDbCircle
 10
9460.952371837742
 20
-11479.62556494625
 30
0.0
 40
0.5
100
AcDbArc
 50
180.0
 51
280.0738452396548
  0
LINE
  5
6A0A7
330
18
100
AcDbEntity
  8
姿図
100
AcDbLine
 10
9469.03122691681
 20
-11478.69813540647
 30
0.0
 11
9461.039830485366
 21
-11480.11785651124
 31
0.0
  0
ARC
  5
6A0A8
330
18
100
AcDbEntity
  8
姿図
100
AcDbCircle
 10
9468.443768269186
 20
-11478.05617429205
 30
0.0
 40
1.0
100
AcDbArc
 50
0.0
 51
68.11232009498238
  0
ARC
  5
6A0A9
330
18
100
AcDbEntity
  8
姿図
100
AcDbCircle
 10
9468.943768269186
 20
-11478.20584384148
 30
0.0
 40
0.5
100
AcDbArc
 50
280.0738452396548
 51
0.0
  0
LINE
  5
6A0AA
330
18
100
AcDbEntity
  8
姿図
100
AcDbLine
 10
9469.443768269186
 20
-11478.05617429205
 30
0.0
 11
9469.443768269186
 21
-11478.20584384148
 31
0.0
  0
LINE
  5
6A0AB
330
18
100
AcDbEntity
  8
姿図
100
AcDbLine
 10
9460.452371837742
 20
-11475.7585998543
 30
0.0
 11
9465.17907193715
 21
-11479.38249461332
 31
0.0
  0
LINE
  5
6A0AC
330
18
100
AcDbEntity
  8
姿図
100
AcDbLine
 10
9462.685004574458
 20
-11474.664921149
 30
0.0
 11
9463.057792839289
 21
-11473.7370047144
 31
0.0
  0
LINE
  5
6A0AD
330
18
100
AcDbEntity
  8
姿図
100
AcDbLine
 10
9460.452371837742
 20
-11472.99848228533
 30
0.0
 11
9460.452371837742
 21
-11479.62556494625
 31
0.0
  0
LINE
  5
6A0AE
330
18
100
AcDbEntity
  8
姿図
100
AcDbLine
 10
9462.685004574458
 20
-11474.664921149
 30
0.0
 11
9468.816556534017
 21
-11477.12825785744
 31
0.0
  0
LINE
  5
6A0AF
330
18
100
AcDbEntity
  8
姿図
100
AcDbLine
 10
9463.057792839289
 20
-11473.7370047144
 30
0.0
 11
9473.451835097381
 21
-11477.91278696534
 31
0.0
  0
LINE
  5
6A0B0
330
18
100
AcDbEntity
  8
姿図
100
AcDbLine
 10
9437.000156593302
 20
-11475.13359713147
 30
0.0
 11
9437.000156593302
 21
-11397.91623107976
 31
0.0
  0
LINE
  5
6A0B1
330
18
100
AcDbEntity
  8
姿図
100
AcDbLine
 10
9437.517921886432
 20
-11474.7710539702
 30
0.0
 11
9437.517921886432
 21
-11398.30087329615
 31
0.0
  0
LINE
  5
6A0B2
330
18
100
AcDbEntity
  8
姿図
100
AcDbLine
 10
9437.517921886432
 20
-11474.7710539702
 30
0.0
 11
9437.000156593302
 21
-11475.13359713147
 31
0.0
  0
LINE
  5
6A0B3
330
18
100
AcDbEntity
  8
姿図
100
AcDbLine
 10
9457.692254268768
 20
-11476.24895184697
 30
0.0
 11
9457.692254268768
 21
-11483.47269174255
 31
0.0
  0
LINE
  5
6A0B4
330
18
100
AcDbEntity
  8
姿図
100
AcDbLine
 10
9473.451835097378
 20
-11480.67290453432
 30
0.0
 11
9457.692254268768
 21
-11483.47269174255
 31
0.0
  0
LINE
  5
6A0B5
330
18
100
AcDbEntity
  8
姿図
100
AcDbLine
 10
9417.58247832697
 20
-11475.64739332435
 30
0.0
 11
9417.58247832697
 21
-11480.61458456464
 31
0.0
  0
LINE
  5
6A0B6
330
18
100
AcDbEntity
  8
姿図
100
AcDbLine
 10
9416.480511723257
 20
-11434.88459695732
 30
0.0
 11
9417.93428806978
 21
-11435.83928224334
 31
0.0
  0
LINE
  5
6A0B7
330
18
100
AcDbEntity
  8
姿図
100
AcDbLine
 10
9416.480511723257
 20
-11434.88459695732
 30
0.0
 11
9416.480511723257
 21
-11432.85472916487
 31
0.0
  0
LINE
  5
6A0B8
330
18
100
AcDbEntity
  8
姿図
100
AcDbLine
 10
9416.480511723257
 20
-11451.88473971909
 30
0.0
 11
9416.480511723257
 21
-11450.21009879032
 31
0.0
  0
LINE
  5
6A0B9
330
18
100
AcDbEntity
  8
姿図
100
AcDbLine
 10
9418.299277954422
 20
-11453.66184226648
 30
0.0
 11
9416.480511723257
 21
-11455.0817814922
 31
0.0
  0
LINE
  5
6A0BA
330
18
100
AcDbEntity
  8
姿図
100
AcDbLine
 10
9416.480511723257
 20
-11451.88473971909
 30
0.0
 11
9418.299277954422
 21
-11453.66184226648
 31
0.0
  0
LINE
  5
6A0BB
330
18
100
AcDbEntity
  8
姿図
100
AcDbLine
 10
9418.299277954422
 20
-11448.7901595646
 30
0.0
 11
9416.480511723257
 21
-11450.21009879032
 31
0.0
  0
LINE
  5
6A0BC
330
18
100
AcDbEntity
  8
姿図
100
AcDbLine
 10
9416.480511723257
 20
-11442.80108134788
 30
0.0
 11
9417.934288069777
 21
-11443.75576663389
 31
0.0
  0
LINE
  5
6A0BD
330
18
100
AcDbEntity
  8
姿図
100
AcDbLine
 10
9416.480511723257
 20
-11447.01305701721
 30
0.0
 11
9418.299277954422
 21
-11448.7901595646
 31
0.0
  0
LINE
  5
6A0BE
330
18
100
AcDbEntity
  8
姿図
100
AcDbLine
 10
9417.934288069777
 20
-11443.75576663389
 30
0.0
 11
9417.934288069777
 21
-11445.08014371033
 31
0.0
  0
LINE
  5
6A0BF
330
18
100
AcDbEntity
  8
姿図
100
AcDbLine
 10
9416.480511723257
 20
-11447.01305701721
 30
0.0
 11
9416.480511723257
 21
-11445.33841608844
 31
0.0
  0
LINE
  5
6A0C0
330
18
100
AcDbEntity
  8
姿図
100
AcDbLine
 10
9416.480511723257
 20
-11442.80108134788
 30
0.0
 11
9416.480511723257
 21
-11440.77121355543
 31
0.0
  0
LINE
  5
6A0C1
330
18
100
AcDbEntity
  8
姿図
100
AcDbLine
 10
9417.93428806978
 20
-11472.32615581263
 30
0.0
 11
9417.93428806978
 21
-11472.8893324669
 31
0.0
  0
LINE
  5
6A0C2
330
18
100
AcDbEntity
  8
姿図
100
AcDbLine
 10
9416.480511723257
 20
-11471.37147052662
 30
0.0
 11
9417.93428806978
 21
-11472.32615581263
 31
0.0
  0
LINE
  5
6A0C3
330
18
100
AcDbEntity
  8
姿図
100
AcDbLine
 10
9416.480511723257
 20
-11474.92373916341
 30
0.0
 11
9417.58247832697
 21
-11475.64739332435
 31
0.0
  0
LINE
  5
6A0C4
330
18
100
AcDbEntity
  8
姿図
100
AcDbLine
 10
9416.480511723257
 20
-11473.14760484501
 30
0.0
 11
9416.480511723257
 21
-11474.92373916341
 31
0.0
  0
LINE
  5
6A0C5
330
18
100
AcDbEntity
  8
姿図
100
AcDbLine
 10
9416.480511723257
 20
-11471.37147052662
 30
0.0
 11
9416.480511723257
 21
-11469.69682959785
 31
0.0
  0
LINE
  5
6A0C6
330
18
100
AcDbEntity
  8
姿図
100
AcDbLine
 10
9416.480511723257
 20
-11466.49978782474
 30
0.0
 11
9416.480511723257
 21
-11464.82514689596
 31
0.0
  0
LINE
  5
6A0C7
330
18
100
AcDbEntity
  8
姿図
100
AcDbLine
 10
9416.480511723257
 20
-11461.62810512286
 30
0.0
 11
9416.480511723257
 21
-11459.95346419408
 31
0.0
  0
LINE
  5
6A0C8
330
18
100
AcDbEntity
  8
姿図
100
AcDbLine
 10
9418.299277954422
 20
-11468.27689037212
 30
0.0
 11
9416.480511723257
 21
-11469.69682959785
 31
0.0
  0
LINE
  5
6A0C9
330
18
100
AcDbEntity
  8
姿図
100
AcDbLine
 10
9416.480511723257
 20
-11466.49978782474
 30
0.0
 11
9418.299277954422
 21
-11468.27689037212
 31
0.0
  0
LINE
  5
6A0CA
330
18
100
AcDbEntity
  8
姿図
100
AcDbLine
 10
9418.299277954422
 20
-11463.40520767024
 30
0.0
 11
9416.480511723257
 21
-11464.82514689596
 31
0.0
  0
LINE
  5
6A0CB
330
18
100
AcDbEntity
  8
姿図
100
AcDbLine
 10
9418.299277954422
 20
-11458.53352496836
 30
0.0
 11
9416.480511723257
 21
-11459.95346419408
 31
0.0
  0
LINE
  5
6A0CC
330
18
100
AcDbEntity
  8
姿図
100
AcDbLine
 10
9416.480511723257
 20
-11456.75642242097
 30
0.0
 11
9418.299277954422
 21
-11458.53352496836
 31
0.0
  0
LINE
  5
6A0CD
330
18
100
AcDbEntity
  8
姿図
100
AcDbLine
 10
9416.480511723257
 20
-11461.62810512286
 30
0.0
 11
9418.299277954422
 21
-11463.40520767024
 31
0.0
  0
LINE
  5
6A0CE
330
18
100
AcDbEntity
  8
姿図
100
AcDbLine
 10
9416.480511723257
 20
-11456.75642242097
 30
0.0
 11
9416.480511723257
 21
-11455.0817814922
 31
0.0
  0
LINE
  5
6A0CF
330
18
100
AcDbEntity
  8
姿図
100
AcDbLine
 10
9416.480511723257
 20
-11483.57047333048
 30
0.0
 11
9416.480511723257
 21
-11480.81035576151
 31
0.0
  0
LINE
  5
6A0D0
330
18
100
AcDbEntity
  8
姿図
100
AcDbLine
 10
9457.692254268768
 20
-11476.24895184697
 30
0.0
 11
9416.480511723257
 21
-11483.57047333048
 31
0.0
  0
LINE
  5
6A0D1
330
18
100
AcDbEntity
  8
姿図
100
AcDbLine
 10
9422.000156593305
 20
-11479.82975664094
 30
0.0
 11
9416.480511723257
 21
-11480.81035576151
 31
0.0
  0
LINE
  5
6A0D2
330
18
100
AcDbEntity
  8
姿図
100
AcDbLine
 10
9422.000156593305
 20
-11433.90399783675
 30
0.0
 11
9416.480511723257
 21
-11434.88459695732
 31
0.0
  0
LINE
  5
6A0D3
330
18
100
AcDbEntity
  8
姿図
100
AcDbLine
 10
9422.000156593303
 20
-11435.11695550087
 30
0.0
 11
9417.93428806978
 21
-11435.83928224334
 31
0.0
  0
LINE
  5
6A0D4
330
18
100
AcDbEntity
  8
姿図
100
AcDbLine
 10
9422.000156593302
 20
-11431.8741300443
 30
0.0
 11
9416.480511723257
 21
-11432.85472916487
 31
0.0
  0
LINE
  5
6A0D5
330
18
100
AcDbEntity
  8
姿図
100
AcDbLine
 10
9422.000156593305
 20
-11450.90414059852
 30
0.0
 11
9416.480511723257
 21
-11451.88473971909
 31
0.0
  0
LINE
  5
6A0D6
330
18
100
AcDbEntity
  8
姿図
100
AcDbLine
 10
9422.000156593305
 20
-11453.00435823914
 30
0.0
 11
9418.299277954422
 21
-11453.66184226648
 31
0.0
  0
LINE
  5
6A0D7
330
18
100
AcDbEntity
  8
姿図
100
AcDbLine
 10
9422.000156593305
 20
-11454.10118237163
 30
0.0
 11
9416.480511723257
 21
-11455.0817814922
 31
0.0
  0
LINE
  5
6A0D8
330
18
100
AcDbEntity
  8
姿図
100
AcDbLine
 10
9422.000156593305
 20
-11439.79061443485
 30
0.0
 11
9416.480511723257
 21
-11440.77121355543
 31
0.0
  0
LINE
  5
6A0D9
330
18
100
AcDbEntity
  8
姿図
100
AcDbLine
 10
9422.000156593305
 20
-11441.82048222731
 30
0.0
 11
9416.480511723257
 21
-11442.80108134788
 31
0.0
  0
LINE
  5
6A0DA
330
18
100
AcDbEntity
  8
姿図
100
AcDbLine
 10
9422.000156593305
 20
-11444.35781696787
 30
0.0
 11
9416.480511723257
 21
-11445.33841608844
 31
0.0
  0
LINE
  5
6A0DB
330
18
100
AcDbEntity
  8
姿図
100
AcDbLine
 10
9422.000156593303
 20
-11443.03343989143
 30
0.0
 11
9417.93428806978
 21
-11443.75576663389
 31
0.0
  0
LINE
  5
6A0DC
330
18
100
AcDbEntity
  8
姿図
100
AcDbLine
 10
9422.000156593305
 20
-11448.13267553726
 30
0.0
 11
9418.299277954422
 21
-11448.7901595646
 31
0.0
  0
LINE
  5
6A0DD
330
18
100
AcDbEntity
  8
姿図
100
AcDbLine
 10
9422.000156593305
 20
-11446.03245789664
 30
0.0
 11
9416.480511723257
 21
-11447.01305701721
 31
0.0
  0
LINE
  5
6A0DE
330
18
100
AcDbEntity
  8
姿図
100
AcDbLine
 10
9422.000156593305
 20
-11449.22949966975
 30
0.0
 11
9416.480511723257
 21
-11450.21009879032
 31
0.0
  0
LINE
  5
6A0DF
330
18
100
AcDbEntity
  8
姿図
100
AcDbLine
 10
9422.000156593305
 20
-11457.87604094102
 30
0.0
 11
9418.299277954422
 21
-11458.53352496836
 31
0.0
  0
LINE
  5
6A0E0
330
18
100
AcDbEntity
  8
姿図
100
AcDbLine
 10
9422.000156593305
 20
-11458.97286507351
 30
0.0
 11
9416.480511723257
 21
-11459.95346419408
 31
0.0
  0
LINE
  5
6A0E1
330
18
100
AcDbEntity
  8
姿図
100
AcDbLine
 10
9422.000156593305
 20
-11460.64750600228
 30
0.0
 11
9416.480511723257
 21
-11461.62810512286
 31
0.0
  0
LINE
  5
6A0E2
330
18
100
AcDbEntity
  8
姿図
100
AcDbLine
 10
9422.000156593305
 20
-11462.7477236429
 30
0.0
 11
9418.299277954422
 21
-11463.40520767024
 31
0.0
  0
LINE
  5
6A0E3
330
18
100
AcDbEntity
  8
姿図
100
AcDbLine
 10
9422.000156593305
 20
-11463.84454777539
 30
0.0
 11
9416.480511723257
 21
-11464.82514689596
 31
0.0
  0
LINE
  5
6A0E4
330
18
100
AcDbEntity
  8
姿図
100
AcDbLine
 10
9422.000156593305
 20
-11465.51918870416
 30
0.0
 11
9416.480511723257
 21
-11466.49978782474
 31
0.0
  0
LINE
  5
6A0E5
330
18
100
AcDbEntity
  8
姿図
100
AcDbLine
 10
9422.000156593305
 20
-11467.61940634478
 30
0.0
 11
9418.299277954422
 21
-11468.27689037212
 31
0.0
  0
LINE
  5
6A0E6
330
18
100
AcDbEntity
  8
姿図
100
AcDbLine
 10
9422.000156593305
 20
-11468.71623047727
 30
0.0
 11
9416.480511723257
 21
-11469.69682959785
 31
0.0
  0
LINE
  5
6A0E7
330
18
100
AcDbEntity
  8
姿図
100
AcDbLine
 10
9422.000156593305
 20
-11470.39087140604
 30
0.0
 11
9416.480511723257
 21
-11471.37147052662
 31
0.0
  0
LINE
  5
6A0E8
330
18
100
AcDbEntity
  8
姿図
100
AcDbLine
 10
9422.000156593305
 20
-11472.16700572444
 30
0.0
 11
9416.480511723257
 21
-11473.14760484501
 31
0.0
  0
LINE
  5
6A0E9
330
18
100
AcDbEntity
  8
姿図
100
AcDbLine
 10
9422.000156593305
 20
-11473.94314004283
 30
0.0
 11
9416.480511723257
 21
-11474.92373916341
 31
0.0
  0
LINE
  5
6A0EA
330
18
100
AcDbEntity
  8
姿図
100
AcDbLine
 10
9422.000156593303
 20
-11474.86256540065
 30
0.0
 11
9417.58247832697
 21
-11475.64739332435
 31
0.0
  0
LINE
  5
6A0EB
330
18
100
AcDbEntity
  8
姿図
100
AcDbLine
 10
9422.000156593305
 20
-11473.94314004283
 30
0.0
 11
9416.480511723257
 21
-11474.92373916341
 31
0.0
  0
LINE
  5
6A0EC
330
18
100
AcDbEntity
  8
姿図
100
AcDbLine
 10
9422.000156593305
 20
-11455.7758233004
 30
0.0
 11
9416.480511723257
 21
-11456.75642242097
 31
0.0
  0
LINE
  5
6A0ED
330
18
100
AcDbEntity
  8
姿図
100
AcDbLine
 10
9587.996619365127
 20
-11594.10755078672
 30
0.0
 11
9603.756200193744
 21
-11591.30776357849
 31
0.0
  0
LINE
  5
6A0EE
330
18
100
AcDbEntity
  8
姿図
100
AcDbLine
 10
9579.437966241298
 20
-11406.83217090756
 30
0.0
 11
9579.437966241298
 21
-11411.82081178982
 31
0.0
  0
LINE
  5
6A0EF
330
18
100
AcDbEntity
  8
姿図
100
AcDbLine
 10
9578.234902097687
 20
-11406.14792699313
 30
0.0
 11
9579.341385634054
 21
-11406.84932905102
 31
0.0
  0
LINE
  5
6A0F0
330
18
100
AcDbEntity
  8
姿図
100
AcDbLine
 10
9581.585461244737
 20
-11405.5526793947
 30
0.0
 11
9578.234902097687
 21
-11406.14792699313
 31
0.0
  0
LINE
  5
6A0F1
330
18
100
AcDbEntity
  8
姿図
100
AcDbLine
 10
9581.58546124474
 20
-11406.45065511055
 30
0.0
 11
9579.341385634054
 21
-11406.84932905102
 31
0.0
  0
LINE
  5
6A0F2
330
18
100
AcDbEntity
  8
姿図
100
AcDbLine
 10
9578.234902097687
 20
-11406.14792699312
 30
0.0
 11
9578.234902097687
 21
-11404.11805920067
 31
0.0
  0
LINE
  5
6A0F3
330
18
100
AcDbEntity
  8
姿図
100
AcDbLine
 10
9581.585461244737
 20
-11403.52281160225
 30
0.0
 11
9578.234902097687
 21
-11404.11805920067
 31
0.0
  0
LINE
  5
6A0F4
330
18
100
AcDbEntity
  8
姿図
100
AcDbLine
 10
9581.585461244737
 20
-11411.43929599281
 30
0.0
 11
9578.234902097687
 21
-11412.03454359123
 31
0.0
  0
LINE
  5
6A0F5
330
18
100
AcDbEntity
  8
姿図
100
AcDbLine
 10
9578.234902097687
 20
-11414.06441138368
 30
0.0
 11
9578.234902097687
 21
-11412.03454359123
 31
0.0
  0
LINE
  5
6A0F6
330
18
100
AcDbEntity
  8
姿図
100
AcDbLine
 10
9581.585461244737
 20
-11446.5112469586
 30
0.0
 11
9579.3368687014
 21
-11446.91072336015
 31
0.0
  0
LINE
  5
6A0F7
330
18
100
AcDbEntity
  8
姿図
100
AcDbLine
 10
9581.585461244737
 20
-11445.59182160079
 30
0.0
 11
9578.234902097684
 21
-11446.18706919921
 31
0.0
  0
LINE
  5
6A0F8
330
18
100
AcDbEntity
  8
姿図
100
AcDbLine
 10
9581.585461244737
 20
-11434.39640520086
 30
0.0
 11
9580.053668328852
 21
-11434.66853770604
 31
0.0
  0
LINE
  5
6A0F9
330
18
100
AcDbEntity
  8
姿図
100
AcDbLine
 10
9581.585461244737
 20
-11439.26808790274
 30
0.0
 11
9580.053668328852
 21
-11439.54022040792
 31
0.0
  0
LINE
  5
6A0FA
330
18
100
AcDbEntity
  8
姿図
100
AcDbLine
 10
9581.585461244737
 20
-11429.52472249898
 30
0.0
 11
9580.053668328848
 21
-11429.79685500416
 31
0.0
  0
LINE
  5
6A0FB
330
18
100
AcDbEntity
  8
姿図
100
AcDbLine
 10
9580.168728290117
 20
-11424.90473118705
 30
0.0
 11
9580.053668328852
 21
-11424.92517230228
 31
0.0
  0
LINE
  5
6A0FC
330
18
100
AcDbEntity
  8
姿図
100
AcDbLine
 10
9581.585461244737
 20
-11419.78135709521
 30
0.0
 11
9580.053668328852
 21
-11420.0534896004
 31
0.0
  0
LINE
  5
6A0FD
330
18
100
AcDbEntity
  8
姿図
100
AcDbLine
 10
9581.585461244737
 20
-11414.68212144938
 30
0.0
 11
9579.341385634052
 21
-11415.08079538986
 31
0.0
  0
LINE
  5
6A0FE
330
18
100
AcDbEntity
  8
姿図
100
AcDbLine
 10
9581.585461244737
 20
-11413.46916378526
 30
0.0
 11
9578.234902097687
 21
-11414.06441138368
 31
0.0
  0
LINE
  5
6A0FF
330
18
100
AcDbEntity
  8
姿図
100
AcDbLine
 10
9581.585461244737
 20
-11416.00649852582
 30
0.0
 11
9578.234902097684
 21
-11416.60174612424
 31
0.0
  0
LINE
  5
6A100
330
18
100
AcDbEntity
  8
姿図
100
AcDbLine
 10
9581.585461244737
 20
-11417.68113945459
 30
0.0
 11
9578.234902097684
 21
-11418.27638705301
 31
0.0
  0
LINE
  5
6A101
330
18
100
AcDbEntity
  8
姿図
100
AcDbLine
 10
9581.585461244737
 20
-11420.8781812277
 30
0.0
 11
9580.465979322515
 21
-11421.07706412946
 31
0.0
  0
LINE
  5
6A102
330
18
100
AcDbEntity
  8
姿図
100
AcDbLine
 10
9581.585461244737
 20
-11425.74986392958
 30
0.0
 11
9578.234902097684
 21
-11426.34511152801
 31
0.0
  0
LINE
  5
6A103
330
18
100
AcDbEntity
  8
姿図
100
AcDbLine
 10
9581.585461244737
 20
-11427.42450485835
 30
0.0
 11
9578.234902097684
 21
-11428.01975245677
 31
0.0
  0
LINE
  5
6A104
330
18
100
AcDbEntity
  8
姿図
100
AcDbLine
 10
9581.585461244737
 20
-11430.62154663146
 30
0.0
 11
9578.234902097684
 21
-11431.21679422989
 31
0.0
  0
LINE
  5
6A105
330
18
100
AcDbEntity
  8
姿図
100
AcDbLine
 10
9581.585461244737
 20
-11432.29618756024
 30
0.0
 11
9578.234902097684
 21
-11432.89143515866
 31
0.0
  0
LINE
  5
6A106
330
18
100
AcDbEntity
  8
姿図
100
AcDbLine
 10
9581.585461244737
 20
-11435.49322933335
 30
0.0
 11
9578.234902097687
 21
-11436.08847693177
 31
0.0
  0
LINE
  5
6A107
330
18
100
AcDbEntity
  8
姿図
100
AcDbLine
 10
9581.585461244737
 20
-11437.16787026212
 30
0.0
 11
9578.234902097687
 21
-11437.76311786054
 31
0.0
  0
LINE
  5
6A108
330
18
100
AcDbEntity
  8
姿図
100
AcDbLine
 10
9581.585461244737
 20
-11440.36491203523
 30
0.0
 11
9580.465979322515
 21
-11440.56379493698
 31
0.0
  0
LINE
  5
6A109
330
18
100
AcDbEntity
  8
姿図
100
AcDbLine
 10
9581.585461244737
 20
-11445.59182160079
 30
0.0
 11
9578.234902097684
 21
-11446.18706919921
 31
0.0
  0
LINE
  5
6A10A
330
18
100
AcDbEntity
  8
姿図
100
AcDbLine
 10
9579.830567972254
 20
-11444.12745494865
 30
0.0
 11
9578.234902097684
 21
-11444.41093488082
 31
0.0
  0
LINE
  5
6A10B
330
18
100
AcDbEntity
  8
姿図
100
AcDbLine
 10
9578.234902097687
 20
-11432.89143515866
 30
0.0
 11
9578.234902097687
 21
-11431.21679422989
 31
0.0
  0
LINE
  5
6A10C
330
18
100
AcDbEntity
  8
姿図
100
AcDbLine
 10
9578.234902097687
 20
-11437.76311786054
 30
0.0
 11
9578.234902097687
 21
-11436.08847693177
 31
0.0
  0
LINE
  5
6A10D
330
18
100
AcDbEntity
  8
姿図
100
AcDbLine
 10
9578.234902097687
 20
-11418.27638705301
 30
0.0
 11
9578.234902097687
 21
-11416.60174612424
 31
0.0
  0
LINE
  5
6A10E
330
18
100
AcDbEntity
  8
姿図
100
AcDbLine
 10
9578.234902097687
 20
-11428.01975245678
 30
0.0
 11
9578.234902097687
 21
-11426.345111528
 31
0.0
  0
LINE
  5
6A10F
330
18
100
AcDbEntity
  8
姿図
100
AcDbLine
 10
9578.234902097687
 20
-11444.41093488081
 30
0.0
 11
9578.234902097687
 21
-11446.18706919921
 31
0.0
  0
LINE
  5
6A110
330
18
100
AcDbEntity
  8
姿図
100
AcDbLine
 10
9578.234902097687
 20
-11446.18706919921
 30
0.0
 11
9579.3368687014
 21
-11446.91072336015
 31
0.0
  0
LINE
  5
6A111
330
18
100
AcDbEntity
  8
姿図
100
AcDbLine
 10
9578.234902097687
 20
-11414.06441138368
 30
0.0
 11
9579.341385634052
 21
-11415.08079538986
 31
0.0
  0
LINE
  5
6A112
330
18
100
AcDbEntity
  8
姿図
100
AcDbLine
 10
9578.234902097687
 20
-11418.27638705301
 30
0.0
 11
9580.053668328852
 21
-11420.0534896004
 31
0.0
  0
LINE
  5
6A113
330
18
100
AcDbEntity
  8
姿図
100
AcDbLine
 10
9580.025855788273
 20
-11424.79318839165
 30
0.0
 11
9580.05366832886
 21
-11424.81873619283
 31
0.0
  0
LINE
  5
6A114
330
18
100
AcDbEntity
  8
姿図
100
AcDbLine
 10
9580.053668328852
 20
-11424.92517230228
 30
0.0
 11
9580.053668328852
 21
-11426.02199643477
 31
0.0
  0
LINE
  5
6A115
330
18
100
AcDbEntity
  8
姿図
100
AcDbLine
 10
9580.053668328852
 20
-11429.79685500416
 30
0.0
 11
9580.053668328852
 21
-11430.89367913665
 31
0.0
  0
LINE
  5
6A116
330
18
100
AcDbEntity
  8
姿図
100
AcDbLine
 10
9580.053668328852
 20
-11420.0534896004
 30
0.0
 11
9580.053668328852
 21
-11420.75516649189
 31
0.0
  0
LINE
  5
6A117
330
18
100
AcDbEntity
  8
姿図
100
AcDbLine
 10
9579.341385634052
 20
-11415.08079538986
 30
0.0
 11
9579.341385634052
 21
-11416.40517246629
 31
0.0
  0
LINE
  5
6A118
330
18
100
AcDbEntity
  8
姿図
100
AcDbLine
 10
9580.053668328852
 20
-11434.56210159659
 30
0.0
 11
9580.053668328852
 21
-11435.76536183853
 31
0.0
  0
LINE
  5
6A119
330
18
100
AcDbEntity
  8
姿図
100
AcDbLine
 10
9580.053668328852
 20
-11439.43378429846
 30
0.0
 11
9580.053668328852
 21
-11440.24189729942
 31
0.0
  0
LINE
  5
6A11A
330
18
100
AcDbEntity
  8
姿図
100
AcDbLine
 10
9578.234902097687
 20
-11428.01975245677
 30
0.0
 11
9580.05366832886
 21
-11429.69041889471
 31
0.0
  0
LINE
  5
6A11B
330
18
100
AcDbEntity
  8
姿図
100
AcDbLine
 10
9578.234902097687
 20
-11432.89143515866
 30
0.0
 11
9580.05366832886
 21
-11434.56210159659
 31
0.0
  0
LINE
  5
6A11C
330
18
100
AcDbEntity
  8
姿図
100
AcDbLine
 10
9578.234902097687
 20
-11437.76311786054
 30
0.0
 11
9580.05366832886
 21
-11439.43378429847
 31
0.0
  0
LINE
  5
6A11D
330
18
100
AcDbEntity
  8
姿図
100
AcDbLine
 10
9581.585461244737
 20
-11454.23855576787
 30
0.0
 11
9581.58546124474
 21
-11406.45065511055
 31
0.0
  0
LINE
  5
6A11E
330
18
100
AcDbEntity
  8
姿図
100
AcDbLine
 10
9576.58546124474
 20
-11452.36671918767
 30
0.0
 11
9576.585461244737
 21
-11441.59394940236
 31
0.0
  0
LINE
  5
6A11F
330
18
100
AcDbEntity
  8
姿図
100
AcDbLine
 10
9576.58546124474
 20
-11437.53421381746
 30
0.0
 11
9576.585461244738
 21
-11422.10721859484
 31
0.0
  0
LINE
  5
6A120
330
18
100
AcDbEntity
  8
姿図
  6
Continuous
370
     0
100
AcDbLine
 10
9581.585461244737
 20
-11445.49752755713
 30
0.0
 11
9574.52669718704
 21
-11439.98664012207
 31
0.0
  0
LINE
  5
6A121
330
18
100
AcDbEntity
  8
姿図
  6
Continuous
370
     0
100
AcDbLine
 10
9581.585461244737
 20
-11445.24379408308
 30
0.0
 11
9574.649773676472
 21
-11439.82899438712
 31
0.0
  0
ARC
  5
6A122
330
18
100
AcDbEntity
  8
姿図
  6
Continuous
370
     0
100
AcDbCircle
 10
9574.826472876237
 20
-11436.89844265494
 30
0.0
 40
0.5871021973724699
100
AcDbArc
 50
43.97061442796876
 51
173.0481439441934
  0
LINE
  5
6A123
330
18
100
AcDbEntity
  8
姿図
  6
Continuous
370
     0
100
AcDbLine
 10
9574.069219308298
 20
-11438.94209893104
 30
0.0
 11
9574.243686934198
 21
-11436.82738256823
 31
0.0
  0
ARC
  5
6A124
330
18
100
AcDbEntity
  8
姿図
  6
Continuous
370
     0
100
AcDbCircle
 10
9575.26515612363
 20
-11439.04076571235
 30
0.0
 40
1.2
100
AcDbArc
 50
175.2836838794859
 51
232.0202851621353
  0
LINE
  5
6A125
330
18
100
AcDbEntity
  8
姿図
  6
Continuous
370
     0
100
AcDbLine
 10
9574.268542110854
 20
-11438.95854339459
 30
0.0
 11
9574.443009736755
 21
-11436.84382703178
 31
0.0
  0
ARC
  5
6A126
330
18
100
AcDbEntity
  8
姿図
  6
Continuous
370
     0
100
AcDbCircle
 10
9574.941316743141
 20
-11436.88493819066
 30
0.0
 40
0.5
100
AcDbArc
 50
52.02028516213533
 51
175.2836838794859
  0
ARC
  5
6A127
330
18
100
AcDbEntity
  8
姿図
  6
Continuous
370
     0
100
AcDbCircle
 10
9575.26515612363
 20
-11439.04076571235
 30
0.0
 40
1.0
100
AcDbArc
 50
175.2836838795905
 51
232.0202851621353
  0
LINE
  5
6A128
330
18
100
AcDbEntity
  8
姿図
  6
Continuous
370
     0
100
AcDbLine
 10
9581.585461244737
 20
-11441.43779197223
 30
0.0
 11
9575.249007966722
 21
-11436.49082385327
 31
0.0
  0
LINE
  5
6A129
330
18
100
AcDbEntity
  8
姿図
  6
Continuous
370
     0
100
AcDbLine
 10
9581.585461244737
 20
-11421.95106116471
 30
0.0
 11
9575.249007966722
 21
-11417.00409304575
 31
0.0
  0
ARC
  5
6A12A
330
18
100
AcDbEntity
  8
姿図
  6
Continuous
370
     0
100
AcDbCircle
 10
9575.26515612363
 20
-11419.55403490482
 30
0.0
 40
1.0
100
AcDbArc
 50
175.2836838795905
 51
232.0202851621353
  0
ARC
  5
6A12B
330
18
100
AcDbEntity
  8
姿図
  6
Continuous
370
     0
100
AcDbCircle
 10
9574.941316743145
 20
-11417.39820738314
 30
0.0
 40
0.5
100
AcDbArc
 50
52.02028516213533
 51
175.2836838794859
  0
LINE
  5
6A12C
330
18
100
AcDbEntity
  8
姿図
  6
Continuous
370
     0
100
AcDbLine
 10
9574.268542110854
 20
-11419.47181258707
 30
0.0
 11
9574.443009736755
 21
-11417.35709622426
 31
0.0
  0
ARC
  5
6A12D
330
18
100
AcDbEntity
  8
姿図
  6
Continuous
370
     0
100
AcDbCircle
 10
9575.26515612363
 20
-11419.55403490482
 30
0.0
 40
1.2
100
AcDbArc
 50
175.2836838794859
 51
232.0202851621353
  0
LINE
  5
6A12E
330
18
100
AcDbEntity
  8
姿図
  6
Continuous
370
     0
100
AcDbLine
 10
9574.069219308298
 20
-11419.45536812352
 30
0.0
 11
9574.243686934198
 21
-11417.34065176071
 31
0.0
  0
ARC
  5
6A12F
330
18
100
AcDbEntity
  8
姿図
  6
Continuous
370
     0
100
AcDbCircle
 10
9574.826472876237
 20
-11417.41171184741
 30
0.0
 40
0.5871021973724699
100
AcDbArc
 50
43.97061442796876
 51
173.0481439441934
  0
LINE
  5
6A130
330
18
100
AcDbEntity
  8
姿図
  6
Continuous
370
     0
100
AcDbLine
 10
9581.585461244737
 20
-11425.75706327556
 30
0.0
 11
9574.649773676472
 21
-11420.34226357959
 31
0.0
  0
LINE
  5
6A131
330
18
100
AcDbEntity
  8
姿図
  6
Continuous
370
     0
100
AcDbLine
 10
9581.585461244737
 20
-11426.01079674961
 30
0.0
 11
9574.52669718704
 21
-11420.49990931455
 31
0.0
  0
LINE
  5
6A132
330
18
100
AcDbEntity
  8
姿図
100
AcDbLine
 10
9603.756200193744
 20
-11588.54764600952
 30
0.0
 11
9603.756200193744
 21
-11591.30776357849
 31
0.0
  0
LINE
  5
6A133
330
18
100
AcDbEntity
  8
姿図
100
AcDbLine
 10
9560.851744012165
 20
-11490.09124162755
 30
0.0
 11
9548.168180698482
 21
-11492.34455525986
 31
0.0
  0
LINE
  5
6A134
330
18
100
AcDbEntity
  8
姿図
100
AcDbLine
 10
9550.755376775182
 20
-11466.02894609836
 30
0.0
 11
9536.575672360847
 21
-11469.45856361835
 31
0.0
  0
LINE
  5
6A135
330
18
100
AcDbEntity
  8
姿図
100
AcDbLine
 10
9548.168180698482
 20
-11492.34455525986
 30
0.0
 11
9548.168180698482
 21
-11541.35066456645
 31
0.0
  0
LINE
  5
6A136
330
18
100
AcDbEntity
  8
姿図
100
AcDbLine
 10
9540.691967068167
 20
-11463.44585533966
 30
0.0
 11
9542.612582955036
 21
-11460.64039463671
 31
0.0
  0
LINE
  5
6A137
330
18
100
AcDbEntity
  8
姿図
100
AcDbLine
 10
9546.092763792069
 20
-11465.68585026826
 30
0.0
 11
9542.980471830813
 21
-11463.21104818118
 31
0.0
  0
LINE
  5
6A138
330
18
100
AcDbEntity
  8
姿図
100
AcDbLine
 10
9542.612582955038
 20
-11460.64039463671
 30
0.0
 11
9543.780292277894
 21
-11461.59003769456
 31
0.0
  0
LINE
  5
6A139
330
18
100
AcDbEntity
  8
姿図
100
AcDbLine
 10
9543.780292277897
 20
-11461.59003769456
 30
0.0
 11
9544.247225195733
 21
-11464.2183328159
 31
0.0
  0
LINE
  5
6A13A
330
18
100
AcDbEntity
  8
姿図
100
AcDbLine
 10
9542.741353365249
 20
-11463.10762500191
 30
0.0
 11
9543.780292277894
 21
-11461.59003769456
 31
0.0
  0
LINE
  5
6A13B
330
18
100
AcDbEntity
  8
姿図
100
AcDbLine
 10
9548.755376775182
 20
-11464.35294195074
 30
0.0
 11
9545.935998811503
 21
-11465.76432706824
 31
0.0
  0
LINE
  5
6A13C
330
18
100
AcDbEntity
  8
姿図
100
AcDbLine
 10
9540.901465448045
 20
-11465.79516564178
 30
0.0
 11
9541.557051655907
 21
-11464.83754503887
 31
0.0
  0
ARC
  5
6A13D
330
18
100
AcDbEntity
  8
姿図
100
AcDbCircle
 10
9541.314044349312
 20
-11466.07761678841
 30
0.0
 40
0.5
100
AcDbArc
 50
145.6044933459087
 51
280.0738452396548
  0
LINE
  5
6A13E
330
18
100
AcDbEntity
  8
姿図
100
AcDbLine
 10
9545.935998811503
 20
-11465.76432706824
 30
0.0
 11
9543.309398205603
 21
-11466.23095894491
 31
0.0
  0
LINE
  5
6A13F
330
18
100
AcDbEntity
  8
姿図
100
AcDbLine
 10
9543.309398205603
 20
-11466.23095894491
 30
0.0
 11
9541.401502996934
 21
-11466.56990835339
 31
0.0
  0
LINE
  5
6A140
330
18
100
AcDbEntity
  8
姿図
100
AcDbLine
 10
9548.755376775185
 20
-11456.40040102931
 30
0.0
 11
9548.755376775182
 21
-11464.35294195074
 31
0.0
  0
LINE
  5
6A141
330
18
100
AcDbEntity
  8
姿図
100
AcDbLine
 10
9540.316105556649
 20
-11463.51262946668
 30
0.0
 11
9540.31610555665
 21
-11463.77555981282
 31
0.0
  0
ARC
  5
6A142
330
18
100
AcDbEntity
  8
姿図
100
AcDbCircle
 10
9540.41304648736
 20
-11463.80010479099
 30
0.0
 40
0.1
100
AcDbArc
 50
100.0738452396548
 51
231.5093228086374
  0
LINE
  5
6A143
330
18
100
AcDbEntity
  8
姿図
100
AcDbLine
 10
9543.309398205602
 20
-11466.23095894491
 30
0.0
 11
9540.350807758628
 21
-11463.8783757348
 31
0.0
  0
LINE
  5
6A144
330
18
100
AcDbEntity
  8
姿図
100
AcDbLine
 10
9542.980471830811
 20
-11463.4141798355
 30
0.0
 11
9542.980471830813
 21
-11463.21104818118
 31
0.0
  0
ARC
  5
6A145
330
18
100
AcDbEntity
  8
姿図
100
AcDbCircle
 10
9542.669278187152
 20
-11463.60240290026
 30
0.0
 40
0.5
100
AcDbArc
 50
51.50932280863741
 51
100.0738452396548
  0
LINE
  5
6A146
330
18
100
AcDbEntity
  8
姿図
100
AcDbLine
 10
9545.935998811503
 20
-11465.76432706824
 30
0.0
 11
9542.980471830811
 21
-11463.4141798355
 31
0.0
  0
ARC
  5
6A147
330
18
100
AcDbEntity
  8
姿図
100
AcDbCircle
 10
9542.66927818715
 20
-11463.80553455458
 30
0.0
 40
0.5
100
AcDbArc
 50
51.50932280863741
 51
100.0738452396548
  0
LINE
  5
6A148
330
18
100
AcDbEntity
  8
姿図
100
AcDbLine
 10
9542.58181953953
 20
-11463.11011133528
 30
0.0
 11
9540.316105556649
 21
-11463.51262946668
 31
0.0
  0
LINE
  5
6A149
330
18
100
AcDbEntity
  8
姿図
100
AcDbLine
 10
9542.581819539528
 20
-11463.31324298959
 30
0.0
 11
9540.395554757837
 21
-11463.70164647799
 31
0.0
  0
LINE
  5
6A14A
330
18
100
AcDbEntity
  8
姿図
100
AcDbLine
 10
9536.575672360847
 20
-11469.45856361835
 30
0.0
 11
9540.379982211925
 21
-11463.90157439316
 31
0.0
  0
LINE
  5
6A14B
330
18
100
AcDbEntity
  8
姿図
100
AcDbLine
 10
9563.685945991614
 20
-11554.52601578832
 30
0.0
 11
9563.685945991612
 21
-11492.50008180956
 31
0.0
  0
LINE
  5
6A14C
330
18
100
AcDbEntity
  8
姿図
100
AcDbLine
 10
9563.168180698483
 20
-11554.0864074131
 30
0.0
 11
9563.168180698483
 21
-11492.060023602
 31
0.0
  0
LINE
  5
6A14D
330
18
100
AcDbEntity
  8
姿図
100
AcDbLine
 10
9550.755376775185
 20
-11458.80520620277
 30
0.0
 11
9550.755376775185
 21
-11466.02894609836
 31
0.0
  0
LINE
  5
6A14E
330
18
100
AcDbEntity
  8
姿図
100
AcDbLine
 10
9576.58546124474
 20
-11452.36671918767
 30
0.0
 11
9548.755376775182
 21
-11456.40040102931
 31
0.0
  0
LINE
  5
6A14F
330
18
100
AcDbEntity
  8
姿図
100
AcDbLine
 10
9548.168180698482
 20
-11595.37982587332
 30
0.0
 11
9582.344080598155
 21
-11589.30826544227
 31
0.0
  0
ELLIPSE
  5
6A150
330
18
100
AcDbEntity
  8
姿図
100
AcDbEllipse
 10
9567.819348163408
 20
-11411.82741017589
 30
0.0
 11
1.557139847723761E-15
 21
3.508473521634053
 31
0.0
210
0.0
220
0.0
230
1.0
 40
0.6840581766403936
 41
0.0834300866107265
 42
3.058162566979068
  0
ELLIPSE
  5
6A151
330
18
100
AcDbEntity
  8
姿図
100
AcDbEllipse
 10
9567.41934816341
 20
-11411.82741017589
 30
0.0
 11
0.0
 21
-3.508473521634005
 31
0.0
210
0.0
220
0.0
230
1.0
 40
0.6840581766403772
 41
0.0
 42
6.283185307179586
  0
LINE
  5
6A152
330
18
100
AcDbEntity
  8
姿図
100
AcDbLine
 10
9576.58546124474
 20
-11450.33540264454
 30
0.0
 11
9559.585461244737
 21
-11453.35555800639
 31
0.0
  0
LINE
  5
6A153
330
18
100
AcDbEntity
  8
姿図
100
AcDbLine
 10
9581.585461244737
 20
-11454.23855576787
 30
0.0
 11
9550.755376775185
 21
-11458.80520620277
 31
0.0
  0
ELLIPSE
  5
6A154
330
18
100
AcDbEntity
  8
姿図
100
AcDbEllipse
 10
9567.019348163409
 20
-11443.03915260898
 30
0.0
 11
0.0
 21
-3.508473521634005
 31
0.0
210
0.0
220
0.0
230
1.0
 40
0.6840581766403772
 41
0.0
 42
6.283185307179586
  0
ELLIPSE
  5
6A155
330
18
100
AcDbEntity
  8
姿図
100
AcDbEllipse
 10
9567.41934816341
 20
-11443.03915260898
 30
0.0
 11
1.557139847723761E-15
 21
3.508473521634053
 31
0.0
210
0.0
220
0.0
230
1.0
 40
0.6840581766403936
 41
0.0834300866107265
 42
3.058162566979068
  0
LINE
  5
6A156
330
18
100
AcDbEntity
  8
姿図
100
AcDbLine
 10
9581.585461244737
 20
-11349.91659017272
 30
0.0
 11
9597.083664014492
 21
-11363.08879661793
 31
0.0
  0
LINE
  5
6A197
330
18
100
AcDbEntity
  8
姿図
100
AcDbLine
 10
9681.944532575679
 20
-11571.6136278492
 30
0.0
 11
9713.161790652382
 21
-11566.06768847493
 31
0.0
  0
LINE
  5
6A198
330
18
100
AcDbEntity
  8
姿図
100
AcDbLine
 10
9699.925245880124
 20
-11452.38345210269
 30
0.0
 11
9710.832042265709
 21
-11461.65333815213
 31
0.0
  0
LINE
  5
6A199
330
18
100
AcDbEntity
  8
姿図
100
AcDbLine
 10
9681.944532575675
 20
-11570.19338184308
 30
0.0
 11
9681.944532575679
 21
-11577.41712173867
 31
0.0
  0
LINE
  5
6A19A
330
18
100
AcDbEntity
  8
姿図
100
AcDbLine
 10
9699.925245880124
 20
-11452.38345210269
 30
0.0
 11
9697.092789729279
 21
-11452.71315977907
 31
0.0
  0
LINE
  5
6A19B
330
18
100
AcDbEntity
  8
姿図
100
AcDbLine
 10
9699.925245880124
 20
-11504.10196242744
 30
0.0
 11
9699.925245880124
 21
-11452.38345210269
 31
0.0
  0
LINE
  5
6A19C
330
18
100
AcDbEntity
  8
姿図
100
AcDbLine
 10
9681.944532575679
 20
-11577.41712173867
 30
0.0
 11
9666.769867448325
 21
-11580.11299504741
 31
0.0
  0
LINE
  5
6A19D
330
18
100
AcDbEntity
  8
姿図
100
AcDbLine
 10
9713.161790652379
 20
-11557.42095430785
 30
0.0
 11
9713.161790652379
 21
-11555.64481998946
 31
0.0
  0
LINE
  5
6A19E
330
18
100
AcDbEntity
  8
姿図
100
AcDbLine
 10
9710.832042265709
 20
-11556.521508684
 30
0.0
 11
9710.832042265709
 21
-11561.4886999243
 31
0.0
  0
LINE
  5
6A19F
330
18
100
AcDbEntity
  8
姿図
100
AcDbLine
 10
9713.161790652379
 20
-11557.42095430785
 30
0.0
 11
9711.984120677087
 21
-11557.42095430785
 31
0.0
  0
LINE
  5
6A1A0
330
18
100
AcDbEntity
  8
姿図
100
AcDbLine
 10
9713.161790652379
 20
-11566.06768847493
 30
0.0
 11
9713.161790652379
 21
-11563.30757090596
 31
0.0
  0
LINE
  5
6A1A1
330
18
100
AcDbEntity
  8
姿図
100
AcDbLine
 10
9713.161790652379
 20
-11517.38181210177
 30
0.0
 11
9712.105247104839
 21
-11517.38181210177
 31
0.0
  0
LINE
  5
6A1A2
330
18
100
AcDbEntity
  8
姿図
100
AcDbLine
 10
9713.161790652379
 20
-11517.38181210177
 30
0.0
 11
9713.161790652379
 21
-11515.35194430932
 31
0.0
  0
LINE
  5
6A1A3
330
18
100
AcDbEntity
  8
姿図
100
AcDbLine
 10
9713.161790652379
 20
-11529.51027216166
 30
0.0
 11
9711.343024421214
 21
-11531.28737470905
 31
0.0
  0
LINE
  5
6A1A4
330
18
100
AcDbEntity
  8
姿図
100
AcDbLine
 10
9713.161790652379
 20
-11525.29829649232
 30
0.0
 11
9711.863862885199
 21
-11525.4393947393
 31
0.0
  0
LINE
  5
6A1A5
330
18
100
AcDbEntity
  8
姿図
100
AcDbLine
 10
9713.161790652379
 20
-11534.38195486354
 30
0.0
 11
9711.343024421214
 21
-11536.15905741093
 31
0.0
  0
LINE
  5
6A1A6
330
18
100
AcDbEntity
  8
姿図
100
AcDbLine
 10
9711.863862885199
 20
-11525.4393947393
 30
0.0
 11
9711.863862885199
 21
-11526.8223187372
 31
0.0
  0
LINE
  5
6A1A7
330
18
100
AcDbEntity
  8
姿図
100
AcDbLine
 10
9713.161790652379
 20
-11534.38195486354
 30
0.0
 11
9713.161790652379
 21
-11532.70731393477
 31
0.0
  0
LINE
  5
6A1A8
330
18
100
AcDbEntity
  8
姿図
100
AcDbLine
 10
9713.161790652379
 20
-11529.51027216166
 30
0.0
 11
9713.161790652379
 21
-11527.83563123289
 31
0.0
  0
LINE
  5
6A1A9
330
18
100
AcDbEntity
  8
姿図
100
AcDbLine
 10
9713.161790652379
 20
-11525.29829649232
 30
0.0
 11
9713.161790652379
 21
-11523.26842869987
 31
0.0
  0
LINE
  5
6A1AA
330
18
100
AcDbEntity
  8
姿図
100
AcDbLine
 10
9713.161790652379
 20
-11539.25363756542
 30
0.0
 11
9711.343024421214
 21
-11541.03074011281
 31
0.0
  0
LINE
  5
6A1AB
330
18
100
AcDbEntity
  8
姿図
100
AcDbLine
 10
9713.161790652379
 20
-11544.1253202673
 30
0.0
 11
9711.343024421214
 21
-11545.90242281469
 31
0.0
  0
LINE
  5
6A1AC
330
18
100
AcDbEntity
  8
姿図
100
AcDbLine
 10
9713.161790652379
 20
-11548.99700296918
 30
0.0
 11
9711.343024421214
 21
-11550.77410551657
 31
0.0
  0
LINE
  5
6A1AD
330
18
100
AcDbEntity
  8
姿図
100
AcDbLine
 10
9713.161790652379
 20
-11548.99700296918
 30
0.0
 11
9713.161790652379
 21
-11547.32236204041
 31
0.0
  0
LINE
  5
6A1AE
330
18
100
AcDbEntity
  8
姿図
100
AcDbLine
 10
9713.161790652379
 20
-11544.1253202673
 30
0.0
 11
9713.161790652379
 21
-11542.45067933853
 31
0.0
  0
LINE
  5
6A1AF
330
18
100
AcDbEntity
  8
姿図
100
AcDbLine
 10
9713.161790652379
 20
-11539.25363756542
 30
0.0
 11
9713.161790652379
 21
-11537.57899663665
 31
0.0
  0
LINE
  5
6A1B0
330
18
100
AcDbEntity
  8
姿図
100
AcDbLine
 10
9710.832042265709
 20
-11516.38780118245
 30
0.0
 11
9710.832042265709
 21
-11521.44955771821
 31
0.0
  0
LINE
  5
6A1B1
330
18
100
AcDbEntity
  8
姿図
100
AcDbLine
 10
9713.161790652379
 20
-11553.86868567106
 30
0.0
 11
9710.886782636691
 21
-11553.86868567106
 31
0.0
  0
LINE
  5
6A1B2
330
18
100
AcDbEntity
  8
姿図
100
AcDbLine
 10
9713.161790652379
 20
-11553.86868567106
 30
0.0
 11
9713.161790652379
 21
-11552.19404474229
 31
0.0
  0
LINE
  5
6A1B3
330
18
100
AcDbEntity
  8
姿図
100
AcDbLine
 10
9710.832042265709
 20
-11461.65333815213
 30
0.0
 11
9710.832042265709
 21
-11513.37184847689
 31
0.0
  0
ENDSEC
  0
SECTION
  2
OBJECTS
  0
DICTIONARY
  5
C
330
0
100
AcDbDictionary
281
     1
  3
ACAD_GROUP
350
D
  3
ACAD_IMAGE_VARS
350
6A396
  3
ACAD_LAYOUT
350
40CB
  3
ACAD_MLINESTYLE
350
E
  3
ACAD_PLOTSETTINGS
350
40CC
  3
ACAD_PLOTSTYLENAME
350
40C9
  3
ACAD_SCALELIST
350
66A5E
  3
AcadDim
350
FCCB
  3
AcDbVariableDictionary
350
6377
  3
APPDATA
350
6A395
  3
DWGPROPS
350
6A3B9
  0
DICTIONARY
  5
651A5
330
2
100
AcDbDictionary
280
     1
281
     1
  3
ACAD_LAYERSTATES
360
651A6
  0
DICTIONARY
  5
678AC
330
F
100
AcDbDictionary
280
     1
281
     1
  3
ADSK_XREC_LAYER_RECONCILED
360
678AD
  0
DICTIONARY
  5
678B4
330
4C
100
AcDbDictionary
280
     1
281
     1
  3
ADSK_XREC_LAYER_RECONCILED
360
678B5
  0
DICTIONARY
  5
678B6
330
4D
100
AcDbDictionary
280
     1
281
     1
  3
ADSK_XREC_LAYER_RECONCILED
360
678B7
  0
DICTIONARY
  5
678BA
330
40D4
100
AcDbDictionary
280
     1
281
     1
  3
ADSK_XREC_LAYER_RECONCILED
360
678BB
  0
DICTIONARY
  5
678C0
330
66A20
100
AcDbDictionary
280
     1
281
     1
  3
ADSK_XREC_LAYER_RECONCILED
360
678C1
  0
DICTIONARY
  5
D
102
{ACAD_REACTORS
330
C
102
}
330
C
100
AcDbDictionary
281
     1
  0
RASTERVARIABLES
  5
6A396
102
{ACAD_REACTORS
330
C
102
}
330
C
100
AcDbRasterVariables
 90
        0
 70
     1
 71
     1
 72
     0
  0
DICTIONARY
  5
40CB
102
{ACAD_REACTORS
330
C
102
}
330
C
100
AcDbDictionary
281
     1
  3
Model
350
40CD
  3
ﾚｲｱｳﾄ1
350
40CE
  0
DICTIONARY
  5
E
102
{ACAD_REACTORS
330
C
102
}
330
C
100
AcDbDictionary
281
     1
  3
STANDARD
350
1B
  0
DICTIONARY
  5
40CC
102
{ACAD_REACTORS
330
C
102
}
330
C
100
AcDbDictionary
281
     1
  0
ACDBDICTIONARYWDFLT
  5
40C9
102
{ACAD_REACTORS
330
C
102
}
330
C
100
AcDbDictionary
281
     1
  3
Normal
350
40CA
100
AcDbDictionaryWithDefault
340
40CA
  0
DICTIONARY
  5
66A5E
102
{ACAD_REACTORS
330
C
102
}
330
C
100
AcDbDictionary
281
     1
  3
A0
350
66A5F
  3
A1
350
66A60
  3
A2
350
66A61
  3
A3
350
66A62
  3
A4
350
66A63
  3
A5
350
66A64
  3
A6
350
66A65
  3
A7
350
66A66
  3
A8
350
66A67
  3
A9
350
66A68
  3
B0
350
66A69
  3
B1
350
66A6A
  3
B2
350
66A6B
  3
B3
350
66A6C
  3
B4
350
66A6D
  3
B5
350
66A6E
  3
B6
350
66A6F
  3
B7
350
66A70
  3
B8
350
66A71
  3
B9
350
66A72
  3
C0
350
66A73
  3
C1
350
66A74
  3
C2
350
66A75
  3
C3
350
66A76
  3
C4
350
66A77
  3
C5
350
66A78
  3
C6
350
66A79
  3
C7
350
66A7A
  3
C8
350
66A7B
  3
C9
350
66A7C
  3
D0
350
66A7D
  3
D1
350
66A7E
  3
D2
350
66A7F
  0
XRECORD
  5
FCCB
102
{ACAD_REACTORS
330
C
102
}
330
C
100
AcDbXrecord
280
     1
 90
   990106
  3

 60
     0
 61
     0
 62
     1
 63
     3
 64
     0
 65
     0
 66
     0
 67
     3
 68
     1
 69
     0
 70
     0
 71
     0
 72
     0
 40
2.0
170
     0
  0
DICTIONARY
  5
6377
102
{ACAD_REACTORS
330
C
102
}
330
C
100
AcDbDictionary
281
     1
  3
DIMASSOC
350
73F2
  3
INDEXCTL
350
678D5
  3
PROJECTNAME
350
61970
  3
SORTENTS
350
6378
  0
DICTIONARY
  5
6A395
102
{ACAD_REACTORS
330
C
102
}
330
C
100
AcDbDictionary
281
     1
  0
XRECORD
  5
6A3B9
102
{ACAD_REACTORS
330
C
102
}
330
C
100
AcDbXrecord
280
     1
  1
DWGPROPS COOKIE
  2

  3

  4

  6

  7

  8
SPAX
  9

300
=
301
=
302
=
303
=
304
=
305
=
306
=
307
=
308
=
309
=
 40
0.0
 41
2449505.547222222
 42
2456822.116302026
  1

 90
        0
  0
DICTIONARY
  5
651A6
102
{ACAD_REACTORS
330
651A5
102
}
330
651A5
100
AcDbDictionary
281
     1
  0
XRECORD
  5
678AD
102
{ACAD_REACTORS
330
678AC
102
}
330
678AC
100
AcDbXrecord
280
     1
290
     1
  0
XRECORD
  5
678B5
102
{ACAD_REACTORS
330
678B4
102
}
330
678B4
100
AcDbXrecord
280
     1
290
     1
  0
XRECORD
  5
678B7
102
{ACAD_REACTORS
330
678B6
102
}
330
678B6
100
AcDbXrecord
280
     1
290
     1
  0
XRECORD
  5
678BB
102
{ACAD_REACTORS
330
678BA
102
}
330
678BA
100
AcDbXrecord
280
     1
290
     1
  0
XRECORD
  5
678C1
102
{ACAD_REACTORS
330
678C0
102
}
330
678C0
100
AcDbXrecord
280
     1
290
     1
  0
LAYOUT
  5
40CD
102
{ACAD_REACTORS
330
40CB
102
}
330
40CB
100
AcDbPlotSettings
  1

  2
JUST PDF 2.pc3
  4
A4
  6
CUT1
 40
3.174999952316284
 41
3.174999952316284
 42
3.175003051757812
 43
3.17498779296875
 44
209.8886566162109
 45
297.0530090332031
 46
14.27
 47
9.86
 48
9335.370268763643
 49
-10849.72352129548
140
11085.32245371271
141
-8139.796769908819
142
1.0
143
10.0
 70
 11940
 72
     1
 73
     0
 74
     4
  7
spax form.ctb
 75
     0
147
0.1
148
-9335.370268763643
149
10849.72352129548
100
AcDbLayout
  1
Model
 70
     1
 71
     0
 10
0.0
 20
0.0
 11
12.0
 21
9.0
 12
0.0
 22
0.0
 32
0.0
 14
9391.802452468744
 24
-11697.21776843986
 34
0.0
 15
9771.764452468744
 25
-11349.91659017272
 35
0.0
146
0.0
 13
0.0
 23
0.0
 33
0.0
 16
1.0
 26
0.0
 36
0.0
 17
0.0
 27
1.0
 37
0.0
 76
     0
330
18
331
698DF
1001
ACAD_PSEXT
1000
DWG To PDF.pc3
1000
PDF
1000
ファイル
1000

1070
     0
  0
LAYOUT
  5
40CE
102
{ACAD_REACTORS
330
40CB
102
}
330
40CB
100
AcDbPlotSettings
  1

  2
なし
  4

  6

 40
0.0
 41
0.0
 42
0.0
 43
0.0
 44
0.0
 45
0.0
 46
0.0
 47
0.0
 48
0.0
 49
0.0
140
0.0
141
0.0
142
1.0
143
1.0
 70
   688
 72
     0
 73
     0
 74
     5
  7
spax form.ctb
 75
    16
147
1.0
148
0.0
149
0.0
100
AcDbLayout
  1
ﾚｲｱｳﾄ1
 70
     0
 71
     1
 10
0.0
 20
0.0
 11
12.0
 21
9.0
 12
0.0
 22
0.0
 32
0.0
 14
1.000000000000000E+20
 24
1.000000000000000E+20
 34
1.000000000000000E+20
 15
-1.000000000000000E+20
 25
-1.000000000000000E+20
 35
-1.000000000000000E+20
146
0.0
 13
0.0
 23
0.0
 33
0.0
 16
1.0
 26
0.0
 36
0.0
 17
0.0
 27
1.0
 37
0.0
 76
     0
330
15
  0
MLINESTYLE
  5
1B
102
{ACAD_REACTORS
330
E
102
}
330
E
100
AcDbMlineStyle
  2
STANDARD
 70
     0
  3

 62
     0
 51
90.0
 52
90.0
 71
     2
 49
0.5
 62
   256
  6
BYLAYER
 49
-0.5
 62
   256
  6
BYLAYER
  0
ACDBPLACEHOLDER
  5
40CA
102
{ACAD_REACTORS
330
40C9
102
}
330
40C9
  0
SCALE
  5
66A5F
102
{ACAD_REACTORS
330
66A5E
102
}
330
66A5E
100
AcDbScale
 70
     0
300
1:1
140
1.0
141
1.0
290
     1
1001
ACAD
1000
AcRTDxfName
1000
SCALE
1000
AcRTDxfName
1000
SCALE
1000
AcRTDxfName
1000
SCALE
  0
SCALE
  5
66A60
102
{ACAD_REACTORS
330
66A5E
102
}
330
66A5E
100
AcDbScale
 70
     0
300
1:2
140
1.0
141
2.0
290
     0
1001
ACAD
1000
AcRTDxfName
1000
SCALE
1000
AcRTDxfName
1000
SCALE
1000
AcRTDxfName
1000
SCALE
  0
SCALE
  5
66A61
102
{ACAD_REACTORS
330
66A5E
102
}
330
66A5E
100
AcDbScale
 70
     0
300
1:4
140
1.0
141
4.0
290
     0
1001
ACAD
1000
AcRTDxfName
1000
SCALE
1000
AcRTDxfName
1000
SCALE
1000
AcRTDxfName
1000
SCALE
  0
SCALE
  5
66A62
102
{ACAD_REACTORS
330
66A5E
102
}
330
66A5E
100
AcDbScale
 70
     0
300
1:5
140
1.0
141
5.0
290
     0
1001
ACAD
1000
AcRTDxfName
1000
SCALE
1000
AcRTDxfName
1000
SCALE
1000
AcRTDxfName
1000
SCALE
  0
SCALE
  5
66A63
102
{ACAD_REACTORS
330
66A5E
102
}
330
66A5E
100
AcDbScale
 70
     0
300
1:8
140
1.0
141
8.0
290
     0
1001
ACAD
1000
AcRTDxfName
1000
SCALE
1000
AcRTDxfName
1000
SCALE
1000
AcRTDxfName
1000
SCALE
  0
SCALE
  5
66A64
102
{ACAD_REACTORS
330
66A5E
102
}
330
66A5E
100
AcDbScale
 70
     0
300
1:10
140
1.0
141
10.0
290
     0
1001
ACAD
1000
AcRTDxfName
1000
SCALE
1000
AcRTDxfName
1000
SCALE
1000
AcRTDxfName
1000
SCALE
  0
SCALE
  5
66A65
102
{ACAD_REACTORS
330
66A5E
102
}
330
66A5E
100
AcDbScale
 70
     0
300
1:16
140
1.0
141
16.0
290
     0
1001
ACAD
1000
AcRTDxfName
1000
SCALE
1000
AcRTDxfName
1000
SCALE
1000
AcRTDxfName
1000
SCALE
  0
SCALE
  5
66A66
102
{ACAD_REACTORS
330
66A5E
102
}
330
66A5E
100
AcDbScale
 70
     0
300
1:20
140
1.0
141
20.0
290
     0
1001
ACAD
1000
AcRTDxfName
1000
SCALE
1000
AcRTDxfName
1000
SCALE
1000
AcRTDxfName
1000
SCALE
  0
SCALE
  5
66A67
102
{ACAD_REACTORS
330
66A5E
102
}
330
66A5E
100
AcDbScale
 70
     0
300
1:30
140
1.0
141
30.0
290
     0
1001
ACAD
1000
AcRTDxfName
1000
SCALE
1000
AcRTDxfName
1000
SCALE
1000
AcRTDxfName
1000
SCALE
  0
SCALE
  5
66A68
102
{ACAD_REACTORS
330
66A5E
102
}
330
66A5E
100
AcDbScale
 70
     0
300
1:40
140
1.0
141
40.0
290
     0
1001
ACAD
1000
AcRTDxfName
1000
SCALE
1000
AcRTDxfName
1000
SCALE
1000
AcRTDxfName
1000
SCALE
  0
SCALE
  5
66A69
102
{ACAD_REACTORS
330
66A5E
102
}
330
66A5E
100
AcDbScale
 70
     0
300
1:50
140
1.0
141
50.0
290
     0
1001
ACAD
1000
AcRTDxfName
1000
SCALE
1000
AcRTDxfName
1000
SCALE
1000
AcRTDxfName
1000
SCALE
  0
SCALE
  5
66A6A
102
{ACAD_REACTORS
330
66A5E
102
}
330
66A5E
100
AcDbScale
 70
     0
300
1:100
140
1.0
141
100.0
290
     0
1001
ACAD
1000
AcRTDxfName
1000
SCALE
1000
AcRTDxfName
1000
SCALE
1000
AcRTDxfName
1000
SCALE
  0
SCALE
  5
66A6B
102
{ACAD_REACTORS
330
66A5E
102
}
330
66A5E
100
AcDbScale
 70
     0
300
2:1
140
2.0
141
1.0
290
     0
1001
ACAD
1000
AcRTDxfName
1000
SCALE
1000
AcRTDxfName
1000
SCALE
1000
AcRTDxfName
1000
SCALE
  0
SCALE
  5
66A6C
102
{ACAD_REACTORS
330
66A5E
102
}
330
66A5E
100
AcDbScale
 70
     0
300
4:1
140
4.0
141
1.0
290
     0
1001
ACAD
1000
AcRTDxfName
1000
SCALE
1000
AcRTDxfName
1000
SCALE
1000
AcRTDxfName
1000
SCALE
  0
SCALE
  5
66A6D
102
{ACAD_REACTORS
330
66A5E
102
}
330
66A5E
100
AcDbScale
 70
     0
300
8:1
140
8.0
141
1.0
290
     0
1001
ACAD
1000
AcRTDxfName
1000
SCALE
1000
AcRTDxfName
1000
SCALE
1000
AcRTDxfName
1000
SCALE
  0
SCALE
  5
66A6E
102
{ACAD_REACTORS
330
66A5E
102
}
330
66A5E
100
AcDbScale
 70
     0
300
10:1
140
10.0
141
1.0
290
     0
1001
ACAD
1000
AcRTDxfName
1000
SCALE
1000
AcRTDxfName
1000
SCALE
1000
AcRTDxfName
1000
SCALE
  0
SCALE
  5
66A6F
102
{ACAD_REACTORS
330
66A5E
102
}
330
66A5E
100
AcDbScale
 70
     0
300
100:1
140
100.0
141
1.0
290
     0
1001
ACAD
1000
AcRTDxfName
1000
SCALE
1000
AcRTDxfName
1000
SCALE
1000
AcRTDxfName
1000
SCALE
  0
SCALE
  5
66A70
102
{ACAD_REACTORS
330
66A5E
102
}
330
66A5E
100
AcDbScale
 70
     0
300
1/128" = 1'-0"
140
0.0078125
141
12.0
290
     0
1001
ACAD
1000
AcRTDxfName
1000
SCALE
1000
AcRTDxfName
1000
SCALE
1000
AcRTDxfName
1000
SCALE
  0
SCALE
  5
66A71
102
{ACAD_REACTORS
330
66A5E
102
}
330
66A5E
100
AcDbScale
 70
     0
300
1/64" = 1'-0"
140
0.015625
141
12.0
290
     0
1001
ACAD
1000
AcRTDxfName
1000
SCALE
1000
AcRTDxfName
1000
SCALE
1000
AcRTDxfName
1000
SCALE
  0
SCALE
  5
66A72
102
{ACAD_REACTORS
330
66A5E
102
}
330
66A5E
100
AcDbScale
 70
     0
300
1/32" = 1'-0"
140
0.03125
141
12.0
290
     0
1001
ACAD
1000
AcRTDxfName
1000
SCALE
1000
AcRTDxfName
1000
SCALE
1000
AcRTDxfName
1000
SCALE
  0
SCALE
  5
66A73
102
{ACAD_REACTORS
330
66A5E
102
}
330
66A5E
100
AcDbScale
 70
     0
300
1/16" = 1'-0"
140
0.0625
141
12.0
290
     0
1001
ACAD
1000
AcRTDxfName
1000
SCALE
1000
AcRTDxfName
1000
SCALE
1000
AcRTDxfName
1000
SCALE
  0
SCALE
  5
66A74
102
{ACAD_REACTORS
330
66A5E
102
}
330
66A5E
100
AcDbScale
 70
     0
300
3/32" = 1'-0"
140
0.09375
141
12.0
290
     0
1001
ACAD
1000
AcRTDxfName
1000
SCALE
1000
AcRTDxfName
1000
SCALE
1000
AcRTDxfName
1000
SCALE
  0
SCALE
  5
66A75
102
{ACAD_REACTORS
330
66A5E
102
}
330
66A5E
100
AcDbScale
 70
     0
300
1/8" = 1'-0"
140
0.125
141
12.0
290
     0
1001
ACAD
1000
AcRTDxfName
1000
SCALE
1000
AcRTDxfName
1000
SCALE
1000
AcRTDxfName
1000
SCALE
  0
SCALE
  5
66A76
102
{ACAD_REACTORS
330
66A5E
102
}
330
66A5E
100
AcDbScale
 70
     0
300
3/16" = 1'-0"
140
0.1875
141
12.0
290
     0
1001
ACAD
1000
AcRTDxfName
1000
SCALE
1000
AcRTDxfName
1000
SCALE
1000
AcRTDxfName
1000
SCALE
  0
SCALE
  5
66A77
102
{ACAD_REACTORS
330
66A5E
102
}
330
66A5E
100
AcDbScale
 70
     0
300
1/4" = 1'-0"
140
0.25
141
12.0
290
     0
1001
ACAD
1000
AcRTDxfName
1000
SCALE
1000
AcRTDxfName
1000
SCALE
1000
AcRTDxfName
1000
SCALE
  0
SCALE
  5
66A78
102
{ACAD_REACTORS
330
66A5E
102
}
330
66A5E
100
AcDbScale
 70
     0
300
3/8" = 1'-0"
140
0.375
141
12.0
290
     0
1001
ACAD
1000
AcRTDxfName
1000
SCALE
1000
AcRTDxfName
1000
SCALE
1000
AcRTDxfName
1000
SCALE
  0
SCALE
  5
66A79
102
{ACAD_REACTORS
330
66A5E
102
}
330
66A5E
100
AcDbScale
 70
     0
300
1/2" = 1'-0"
140
0.5
141
12.0
290
     0
1001
ACAD
1000
AcRTDxfName
1000
SCALE
1000
AcRTDxfName
1000
SCALE
1000
AcRTDxfName
1000
SCALE
  0
SCALE
  5
66A7A
102
{ACAD_REACTORS
330
66A5E
102
}
330
66A5E
100
AcDbScale
 70
     0
300
3/4" = 1'-0"
140
0.75
141
12.0
290
     0
1001
ACAD
1000
AcRTDxfName
1000
SCALE
1000
AcRTDxfName
1000
SCALE
1000
AcRTDxfName
1000
SCALE
  0
SCALE
  5
66A7B
102
{ACAD_REACTORS
330
66A5E
102
}
330
66A5E
100
AcDbScale
 70
     0
300
1" = 1'-0"
140
1.0
141
12.0
290
     0
1001
ACAD
1000
AcRTDxfName
1000
SCALE
1000
AcRTDxfName
1000
SCALE
1000
AcRTDxfName
1000
SCALE
  0
SCALE
  5
66A7C
102
{ACAD_REACTORS
330
66A5E
102
}
330
66A5E
100
AcDbScale
 70
     0
300
1-1/2" = 1'-0"
140
1.5
141
12.0
290
     0
1001
ACAD
1000
AcRTDxfName
1000
SCALE
1000
AcRTDxfName
1000
SCALE
1000
AcRTDxfName
1000
SCALE
  0
SCALE
  5
66A7D
102
{ACAD_REACTORS
330
66A5E
102
}
330
66A5E
100
AcDbScale
 70
     0
300
3" = 1'-0"
140
3.0
141
12.0
290
     0
1001
ACAD
1000
AcRTDxfName
1000
SCALE
1000
AcRTDxfName
1000
SCALE
1000
AcRTDxfName
1000
SCALE
  0
SCALE
  5
66A7E
102
{ACAD_REACTORS
330
66A5E
102
}
330
66A5E
100
AcDbScale
 70
     0
300
6" = 1'-0"
140
6.0
141
12.0
290
     0
1001
ACAD
1000
AcRTDxfName
1000
SCALE
1000
AcRTDxfName
1000
SCALE
1000
AcRTDxfName
1000
SCALE
  0
SCALE
  5
66A7F
102
{ACAD_REACTORS
330
66A5E
102
}
330
66A5E
100
AcDbScale
 70
     0
300
1'-0" = 1'-0"
140
12.0
141
12.0
290
     0
1001
ACAD
1000
AcRTDxfName
1000
SCALE
1000
AcRTDxfName
1000
SCALE
1000
AcRTDxfName
1000
SCALE
  0
DICTIONARYVAR
  5
73F2
102
{ACAD_REACTORS
330
6377
102
}
330
6377
100
DictionaryVariables
280
     0
  1
1
  0
DICTIONARYVAR
  5
678D5
102
{ACAD_REACTORS
330
6377
102
}
330
6377
100
DictionaryVariables
280
     0
  1
0
  0
DICTIONARYVAR
  5
61970
102
{ACAD_REACTORS
330
6377
102
}
330
6377
100
DictionaryVariables
280
     0
  1

  0
DICTIONARYVAR
  5
6378
102
{ACAD_REACTORS
330
6377
102
}
330
6377
100
DictionaryVariables
280
     0
  1
96
  0
ENDSEC
  0
EOF
