  0
SECTION
  2
HEADER
  9
$ACADVER
  1
AC1015
  9
$ACADMAINTVER
 70
    20
  9
$DWGCODEPAGE
  3
ANSI_932
  9
$INSBASE
 10
0.0
 20
0.0
 30
0.0
  9
$EXTMIN
 10
9480.643785316781
 20
-4481.785571043547
 30
-0.0000000000000251
  9
$EXTMAX
 10
9576.292799402265
 20
-4393.921488089755
 30
0.0000000000000359
  9
$LIMMIN
 10
0.0
 20
0.0
  9
$LIMMAX
 10
420.0
 20
297.0
  9
$ORTHOMODE
 70
     1
  9
$REGENMODE
 70
     1
  9
$FILLMODE
 70
     1
  9
$QTEXTMODE
 70
     0
  9
$MIRRTEXT
 70
     1
  9
$LTSCALE
 40
5.0
  9
$ATTMODE
 70
     0
  9
$TEXTSIZE
 40
53.44730959687513
  9
$TRACEWID
 40
1.0
  9
$TEXTSTYLE
  7
STANDARD
  9
$CLAYER
  8
寸法線
  9
$CELTYPE
  6
BYLAYER
  9
$CECOLOR
 62
   256
  9
$CELTSCALE
 40
1.0
  9
$DISPSILH
 70
     0
  9
$DIMSCALE
 40
1.0
  9
$DIMASZ
 40
2.5
  9
$DIMEXO
 40
1.5
  9
$DIMDLI
 40
0.38
  9
$DIMRND
 40
0.0
  9
$DIMDLE
 40
0.0
  9
$DIMEXE
 40
1.0
  9
$DIMTP
 40
0.0
  9
$DIMTM
 40
0.0
  9
$DIMTXT
 40
2.500000000000003
  9
$DIMCEN
 40
0.0
  9
$DIMTSZ
 40
0.0
  9
$DIMTOL
 70
     0
  9
$DIMLIM
 70
     0
  9
$DIMTIH
 70
     0
  9
$DIMTOH
 70
     0
  9
$DIMSE1
 70
     0
  9
$DIMSE2
 70
     0
  9
$DIMTAD
 70
     3
  9
$DIMZIN
 70
     8
  9
$DIMBLK
  1

  9
$DIMASO
 70
     1
  9
$DIMSHO
 70
     0
  9
$DIMPOST
  1

  9
$DIMAPOST
  1

  9
$DIMALT
 70
     0
  9
$DIMALTD
 70
     0
  9
$DIMALTF
 40
25.4
  9
$DIMLFAC
 40
1.0
  9
$DIMTOFL
 70
     1
  9
$DIMTVP
 40
0.0
  9
$DIMTIX
 70
     0
  9
$DIMSOXD
 70
     0
  9
$DIMSAH
 70
     1
  9
$DIMBLK1
  1
OPEN
  9
$DIMBLK2
  1
OPEN
  9
$DIMSTYLE
  2
STANDARD
  9
$DIMCLRD
 70
     8
  9
$DIMCLRE
 70
     8
  9
$DIMCLRT
 70
   256
  9
$DIMTFAC
 40
1.0
  9
$DIMGAP
 40
1.0
  9
$DIMJUST
 70
     0
  9
$DIMSD1
 70
     0
  9
$DIMSD2
 70
     0
  9
$DIMTOLJ
 70
     1
  9
$DIMTZIN
 70
     0
  9
$DIMALTZ
 70
     0
  9
$DIMALTTZ
 70
     0
  9
$DIMUPT
 70
     0
  9
$DIMDEC
 70
     2
  9
$DIMTDEC
 70
     2
  9
$DIMALTU
 70
     2
  9
$DIMALTTD
 70
     0
  9
$DIMTXSTY
  7
STANDARD
  9
$DIMAUNIT
 70
     0
  9
$DIMADEC
 70
     2
  9
$DIMALTRND
 40
0.0
  9
$DIMAZIN
 70
     2
  9
$DIMDSEP
 70
    46
  9
$DIMATFIT
 70
     1
  9
$DIMFRAC
 70
     0
  9
$DIMLDRBLK
  1
OPEN
  9
$DIMLUNIT
 70
     2
  9
$DIMLWD
 70
    -2
  9
$DIMLWE
 70
    -2
  9
$DIMTMOVE
 70
     0
  9
$LUNITS
 70
     2
  9
$LUPREC
 70
     2
  9
$SKETCHINC
 40
0.1
  9
$FILLETRAD
 40
15.5
  9
$AUNITS
 70
     0
  9
$AUPREC
 70
     1
  9
$MENU
  1
FM
  9
$ELEVATION
 40
0.0
  9
$PELEVATION
 40
0.0
  9
$THICKNESS
 40
0.0
  9
$LIMCHECK
 70
     0
  9
$CHAMFERA
 40
0.0
  9
$CHAMFERB
 40
0.0
  9
$CHAMFERC
 40
0.0
  9
$CHAMFERD
 40
0.0
  9
$SKPOLY
 70
     0
  9
$TDCREATE
 40
2448636.619629630
  9
$TDUCREATE
 40
2448636.244629629
  9
$TDUPDATE
 40
2457337.804451493
  9
$TDUUPDATE
 40
2457337.429451493
  9
$TDINDWG
 40
48.7774139931
  9
$TDUSRTIMER
 40
2456821.212327859
  9
$USRTIMER
 70
     1
  9
$ANGBASE
 50
0.0
  9
$ANGDIR
 70
     0
  9
$PDMODE
 70
     3
  9
$PDSIZE
 40
0.0
  9
$PLINEWID
 40
0.0
  9
$SPLFRAME
 70
     0
  9
$SPLINETYPE
 70
     6
  9
$SPLINESEGS
 70
     8
  9
$HANDSEED
  5
12DA3B
  9
$SURFTAB1
 70
     6
  9
$SURFTAB2
 70
     6
  9
$SURFTYPE
 70
     6
  9
$SURFU
 70
     6
  9
$SURFV
 70
     6
  9
$UCSBASE
  2

  9
$UCSNAME
  2

  9
$UCSORG
 10
0.0
 20
0.0
 30
0.0
  9
$UCSXDIR
 10
1.0
 20
0.0
 30
0.0
  9
$UCSYDIR
 10
0.0
 20
1.0
 30
0.0
  9
$UCSORTHOREF
  2

  9
$UCSORTHOVIEW
 70
     0
  9
$UCSORGTOP
 10
0.0
 20
0.0
 30
0.0
  9
$UCSORGBOTTOM
 10
0.0
 20
0.0
 30
0.0
  9
$UCSORGLEFT
 10
0.0
 20
0.0
 30
0.0
  9
$UCSORGRIGHT
 10
0.0
 20
0.0
 30
0.0
  9
$UCSORGFRONT
 10
0.0
 20
0.0
 30
0.0
  9
$UCSORGBACK
 10
0.0
 20
0.0
 30
0.0
  9
$PUCSBASE
  2

  9
$PUCSNAME
  2

  9
$PUCSORG
 10
0.0
 20
0.0
 30
0.0
  9
$PUCSXDIR
 10
1.0
 20
0.0
 30
0.0
  9
$PUCSYDIR
 10
0.0
 20
1.0
 30
0.0
  9
$PUCSORTHOREF
  2

  9
$PUCSORTHOVIEW
 70
     0
  9
$PUCSORGTOP
 10
0.0
 20
0.0
 30
0.0
  9
$PUCSORGBOTTOM
 10
0.0
 20
0.0
 30
0.0
  9
$PUCSORGLEFT
 10
0.0
 20
0.0
 30
0.0
  9
$PUCSORGRIGHT
 10
0.0
 20
0.0
 30
0.0
  9
$PUCSORGFRONT
 10
0.0
 20
0.0
 30
0.0
  9
$PUCSORGBACK
 10
0.0
 20
0.0
 30
0.0
  9
$USERI1
 70
     0
  9
$USERI2
 70
     0
  9
$USERI3
 70
     0
  9
$USERI4
 70
     0
  9
$USERI5
 70
     0
  9
$USERR1
 40
0.0
  9
$USERR2
 40
0.0
  9
$USERR3
 40
0.0
  9
$USERR4
 40
0.0
  9
$USERR5
 40
0.0
  9
$WORLDVIEW
 70
     0
  9
$SHADEDGE
 70
     3
  9
$SHADEDIF
 70
    70
  9
$TILEMODE
 70
     1
  9
$MAXACTVP
 70
    16
  9
$PINSBASE
 10
0.0
 20
0.0
 30
0.0
  9
$PLIMCHECK
 70
     0
  9
$PEXTMIN
 10
1.000000000000000E+20
 20
1.000000000000000E+20
 30
1.000000000000000E+20
  9
$PEXTMAX
 10
-1.000000000000000E+20
 20
-1.000000000000000E+20
 30
-1.000000000000000E+20
  9
$PLIMMIN
 10
0.0
 20
0.0
  9
$PLIMMAX
 10
0.0
 20
0.0
  9
$UNITMODE
 70
     0
  9
$VISRETAIN
 70
     0
  9
$PLINEGEN
 70
     0
  9
$PSLTSCALE
 70
     0
  9
$TREEDEPTH
 70
  3020
  9
$CMLSTYLE
  2
STANDARD
  9
$CMLJUST
 70
     0
  9
$CMLSCALE
 40
1.0
  9
$PROXYGRAPHICS
 70
     1
  9
$MEASUREMENT
 70
     0
  9
$CELWEIGHT
370
    -1
  9
$ENDCAPS
280
     0
  9
$JOINSTYLE
280
     0
  9
$LWDISPLAY
290
     0
  9
$INSUNITS
 70
     0
  9
$HYPERLINKBASE
  1

  9
$STYLESHEET
  1
SPAX FORM.CTB
  9
$XEDIT
290
     1
  9
$CEPSNTYPE
380
     0
  9
$PSTYLEMODE
290
     1
  9
$FINGERPRINTGUID
  2
{BBAEEBA6-8B94-11D3-9160-00E0294F7E09}
  9
$VERSIONGUID
  2
{572D4868-F264-4391-AF85-F9D4B9961ADD}
  9
$EXTNAMES
290
     1
  9
$PSVPSCALE
 40
0.0
  9
$OLESTARTUP
290
     0
  0
ENDSEC
  0
SECTION
  2
CLASSES
  0
CLASS
  1
ACDBDICTIONARYWDFLT
  2
AcDbDictionaryWithDefault
  3
ObjectDBX Classes
 90
        0
280
     0
281
     0
  0
CLASS
  1
ACDBPLACEHOLDER
  2
AcDbPlaceHolder
  3
ObjectDBX Classes
 90
        0
280
     0
281
     0
  0
CLASS
  1
LAYOUT
  2
AcDbLayout
  3
ObjectDBX Classes
 90
        0
280
     0
281
     0
  0
CLASS
  1
DICTIONARYVAR
  2
AcDbDictionaryVar
  3
ObjectDBX Classes
 90
        0
280
     0
281
     0
  0
CLASS
  1
MATERIAL
  2
AcDbMaterial
  3
ObjectDBX Classes
 90
     1153
280
     0
281
     0
  0
CLASS
  1
VISUALSTYLE
  2
AcDbVisualStyle
  3
ObjectDBX Classes
 90
     4095
280
     0
281
     0
  0
CLASS
  1
TABLESTYLE
  2
AcDbTableStyle
  3
ObjectDBX Classes
 90
     4095
280
     0
281
     0
  0
CLASS
  1
SCALE
  2
AcDbScale
  3
ObjectDBX Classes
 90
     1153
280
     0
281
     0
  0
CLASS
  1
MLEADERSTYLE
  2
AcDbMLeaderStyle
  3
ACDB_MLEADERSTYLE_CLASS
 90
     4095
280
     0
281
     0
  0
CLASS
  1
CELLSTYLEMAP
  2
AcDbCellStyleMap
  3
ObjectDBX Classes
 90
     1152
280
     0
281
     0
  0
CLASS
  1
SORTENTSTABLE
  2
AcDbSortentsTable
  3
ObjectDBX Classes
 90
        0
280
     0
281
     0
  0
CLASS
  1
MULTILEADER
  2
AcDbMLeader
  3
ACDB_MLEADER_CLASS
 90
    33793
280
     0
281
     1
  0
CLASS
  1
DIMASSOC
  2
AcDbDimAssoc
  3
"AcDbDimAssoc|Product Desc:     AcDim ARX App For Dimension|Company:          Autodesk, Inc.|WEB Address:      www.autodesk.com"
 90
    32768
280
     0
281
     0
  0
CLASS
  1
RASTERVARIABLES
  2
AcDbRasterVariables
  3
ISM
 90
        0
280
     0
281
     0
  0
CLASS
  1
SUN
  2
AcDbSun
  3
SCENEOE
 90
    33921
280
     0
281
     0
  0
ENDSEC
  0
SECTION
  2
TABLES
  0
TABLE
  2
VPORT
  5
8
330
0
100
AcDbSymbolTable
 70
     1
  0
VPORT
  5
129BB1
330
8
100
AcDbSymbolTableRecord
100
AcDbViewportTableRecord
  2
*Active
 70
     0
 10
0.0
 20
0.0
 11
1.0
 21
1.0
 12
9528.468292359523
 22
-4437.853529566651
 13
0.0
 23
0.0
 14
1.0
 24
1.0
 15
20.0
 25
20.0
 16
0.0
 26
0.0
 36
1.0
 17
0.0
 27
0.0
 37
0.0
 40
94.68815663704388
 41
1.020066889632107
 42
50.0
 43
0.0
 44
0.0
 50
0.0
 51
0.0
 71
    16
 72
   100
 73
     1
 74
     0
 75
     0
 76
     0
 77
     0
 78
     0
281
     0
 65
     1
110
0.0
120
0.0
130
0.0
111
1.0
121
0.0
131
0.0
112
0.0
122
1.0
132
0.0
 79
     0
146
0.0
  0
ENDTAB
  0
TABLE
  2
LTYPE
  5
5
330
0
100
AcDbSymbolTable
 70
     4
  0
LTYPE
  5
12
330
5
100
AcDbSymbolTableRecord
100
AcDbLinetypeTableRecord
  2
BYBLOCK
 70
     0
  3

 72
    65
 73
     0
 40
0.0
  0
LTYPE
  5
13
330
5
100
AcDbSymbolTableRecord
100
AcDbLinetypeTableRecord
  2
BYLAYER
 70
     0
  3

 72
    65
 73
     0
 40
0.0
  0
LTYPE
  5
14
330
5
100
AcDbSymbolTableRecord
100
AcDbLinetypeTableRecord
  2
CONTINUOUS
 70
     0
  3
Solid line
 72
    65
 73
     0
 40
0.0
  0
LTYPE
  5
26
330
5
100
AcDbSymbolTableRecord
100
AcDbLinetypeTableRecord
  2
PHANTOM
 70
     0
  3
_____ _ _ _____ _ _ _____ _ _ _____ _ _ ____
 72
    65
 73
     6
 40
2.5
 49
1.25
 74
     0
 49
-0.25
 74
     0
 49
0.25
 74
     0
 49
-0.25
 74
     0
 49
0.25
 74
     0
 49
-0.25
 74
     0
  0
LTYPE
  5
27
330
5
100
AcDbSymbolTableRecord
100
AcDbLinetypeTableRecord
  2
HIDDEN
 70
     0
  3
_ _ _ _ _ _ _ _ _ _ _ _ _ _ _ _ _ _ _ _ _ _ _
 72
    65
 73
     2
 40
0.375
 49
0.25
 74
     0
 49
-0.125
 74
     0
  0
LTYPE
  5
514
330
5
100
AcDbSymbolTableRecord
100
AcDbLinetypeTableRecord
  2
CENTER
 70
     0
  3
Center ____ _ ____ _ ____ _ ____ _ ____ _ ____
 72
    65
 73
     4
 40
2.0
 49
1.25
 74
     0
 49
-0.25
 74
     0
 49
0.25
 74
     0
 49
-0.25
 74
     0
  0
ENDTAB
  0
TABLE
  2
LAYER
  5
2
102
{ACAD_XDICTIONARY
360
8BF
102
}
330
0
100
AcDbSymbolTable
 70
     5
  0
LAYER
  5
F
102
{ACAD_XDICTIONARY
360
A60
102
}
330
2
100
AcDbSymbolTableRecord
100
AcDbLayerTableRecord
  2
0
 70
     0
 62
     7
  6
CONTINUOUS
370
    -3
390
616
  0
LAYER
  5
34
102
{ACAD_XDICTIONARY
360
A66
102
}
330
2
100
AcDbSymbolTableRecord
100
AcDbLayerTableRecord
  2
寸法線
 70
     0
 62
     7
  6
CONTINUOUS
370
    -3
390
616
  0
LAYER
  5
2A3
102
{ACAD_XDICTIONARY
360
A6A
102
}
330
2
100
AcDbSymbolTableRecord
100
AcDbLayerTableRecord
  2
ﾊｯﾁﾝｸﾞ
 70
     0
 62
     8
  6
CONTINUOUS
370
    -3
390
616
  0
LAYER
  5
2F4
102
{ACAD_XDICTIONARY
360
A6E
102
}
330
2
100
AcDbSymbolTableRecord
100
AcDbLayerTableRecord
  2
文字
 70
     0
 62
     7
  6
CONTINUOUS
370
    -3
390
616
  0
LAYER
  5
305
102
{ACAD_XDICTIONARY
360
A72
102
}
330
2
100
AcDbSymbolTableRecord
100
AcDbLayerTableRecord
  2
姿図
 70
     0
 62
     8
  6
CONTINUOUS
370
    -3
390
616
  0
ENDTAB
  0
TABLE
  2
STYLE
  5
3
330
0
100
AcDbSymbolTable
 70
     2
  0
STYLE
  5
10
330
3
100
AcDbSymbolTableRecord
100
AcDbTextStyleTableRecord
  2
STANDARD
 70
     0
 40
0.0
 41
1.0
 50
0.0
 71
     0
 42
53.44730959687513
  3
MONOTXT
  4
BIGFONT
  0
STYLE
  5
5B6F
330
3
100
AcDbSymbolTableRecord
100
AcDbTextStyleTableRecord
  2
EXTFONT
 70
     0
 40
2.5
 41
1.0
 50
0.0
 71
     0
 42
2.5
  3
txt.shx
  4
extfont
  0
ENDTAB
  0
TABLE
  2
VIEW
  5
6
330
0
100
AcDbSymbolTable
 70
     0
  0
ENDTAB
  0
TABLE
  2
UCS
  5
7
330
0
100
AcDbSymbolTable
 70
     0
  0
ENDTAB
  0
TABLE
  2
APPID
  5
9
330
0
100
AcDbSymbolTable
 70
    15
  0
APPID
  5
11
330
9
100
AcDbSymbolTableRecord
100
AcDbRegAppTableRecord
  2
ACAD
 70
     0
  0
APPID
  5
8BB
330
9
100
AcDbSymbolTableRecord
100
AcDbRegAppTableRecord
  2
ACAD_PSEXT
 70
     0
  0
APPID
  5
A5A
330
9
100
AcDbSymbolTableRecord
100
AcDbRegAppTableRecord
  2
ACAD_MLEADERVER
 70
     0
  0
APPID
  5
A5E
330
9
100
AcDbSymbolTableRecord
100
AcDbRegAppTableRecord
  2
ACAD_DSTYLE_DIMJAG
 70
     0
  0
APPID
  5
A5F
330
9
100
AcDbSymbolTableRecord
100
AcDbRegAppTableRecord
  2
ACAD_DSTYLE_DIMTALN
 70
     0
  0
APPID
  5
12C0
330
9
100
AcDbSymbolTableRecord
100
AcDbRegAppTableRecord
  2
ACAD_EXEMPT_FROM_CAD_STANDARDS
 70
     0
  0
APPID
  5
1C50
330
9
100
AcDbSymbolTableRecord
100
AcDbRegAppTableRecord
  2
AcAecLayerStandard
 70
     0
  0
APPID
  5
5088
330
9
100
AcDbSymbolTableRecord
100
AcDbRegAppTableRecord
  2
ACAD_DSTYLE_DIMRADIAL_EXTENSION
 70
     0
  0
APPID
  5
14AF3
330
9
100
AcDbSymbolTableRecord
100
AcDbRegAppTableRecord
  2
WACOM_STRING
 70
     0
  0
APPID
  5
14AF4
330
9
100
AcDbSymbolTableRecord
100
AcDbRegAppTableRecord
  2
WACOM_DRSYM_ARROW
 70
     0
  0
APPID
  5
1E1A8
330
9
100
AcDbSymbolTableRecord
100
AcDbRegAppTableRecord
  2
GENIUS_GENODEF_13
 70
     0
  0
APPID
  5
1E1A9
330
9
100
AcDbSymbolTableRecord
100
AcDbRegAppTableRecord
  2
GENIUS_GENREC_14
 70
     0
  0
APPID
  5
1E1AA
330
9
100
AcDbSymbolTableRecord
100
AcDbRegAppTableRecord
  2
GENIUS_GENOBJ-N-REC_13
 70
     0
  0
APPID
  5
27C72
330
9
100
AcDbSymbolTableRecord
100
AcDbRegAppTableRecord
  2
ASK_MEN_XD
 70
     0
  0
APPID
  5
29316
330
9
100
AcDbSymbolTableRecord
100
AcDbRegAppTableRecord
  2
ACAD_DSTYLE_DIMBREAK
 70
     0
  0
ENDTAB
  0
TABLE
  2
DIMSTYLE
  5
A
330
0
100
AcDbSymbolTable
 70
     1
100
AcDbDimStyleTable
 71
     0
  0
DIMSTYLE
105
1CC
330
A
100
AcDbSymbolTableRecord
100
AcDbDimStyleTableRecord
  2
STANDARD
 70
     0
 41
2.5
 42
1.5
 44
1.0
 73
     0
 74
     0
 77
     3
 78
     8
 79
     2
140
2.500000000000003
141
0.0
147
1.0
171
     0
172
     1
173
     1
176
     8
177
     8
178
   256
179
     2
271
     2
272
     2
274
     0
289
     1
340
10
341
608
343
608
344
608
1001
ACAD_DSTYLE_DIMJAG
1070
   388
1040
1.5
1001
ACAD_DSTYLE_DIMTALN
1070
   392
1070
     0
  0
ENDTAB
  0
TABLE
  2
BLOCK_RECORD
  5
1
330
0
100
AcDbSymbolTable
 70
     3
  0
BLOCK_RECORD
  5
18
102
{ACAD_XDICTIONARY
360
143F
102
}
330
1
100
AcDbSymbolTableRecord
100
AcDbBlockTableRecord
  2
*MODEL_SPACE
340
619
  0
BLOCK_RECORD
  5
15
330
1
100
AcDbSymbolTableRecord
100
AcDbBlockTableRecord
  2
*PAPER_SPACE
340
61A
  0
BLOCK_RECORD
  5
608
330
1
100
AcDbSymbolTableRecord
100
AcDbBlockTableRecord
  2
_OPEN
340
0
  0
BLOCK_RECORD
  5
89D
330
1
100
AcDbSymbolTableRecord
100
AcDbBlockTableRecord
  2
SUN
340
0
  0
BLOCK_RECORD
  5
1F1F
330
1
100
AcDbSymbolTableRecord
100
AcDbBlockTableRecord
  2
_OPEN30
340
0
  0
ENDTAB
  0
ENDSEC
  0
SECTION
  2
BLOCKS
  0
BLOCK
  5
39
330
18
100
AcDbEntity
  8
0
100
AcDbBlockBegin
  2
*MODEL_SPACE
 70
     0
 10
0.0
 20
0.0
 30
0.0
  3
*MODEL_SPACE
  1
*MODEL_SPACE
  0
ENDBLK
  5
3A
330
18
100
AcDbEntity
  8
0
100
AcDbBlockEnd
  0
BLOCK
  5
37
330
15
100
AcDbEntity
 67
     1
  8
0
100
AcDbBlockBegin
  2
*PAPER_SPACE
 70
     0
 10
0.0
 20
0.0
 30
0.0
  3
*PAPER_SPACE
  1
*PAPER_SPACE
  0
ENDBLK
  5
38
330
15
100
AcDbEntity
 67
     1
  8
0
100
AcDbBlockEnd
  0
BLOCK
  5
609
330
608
100
AcDbEntity
  8
0
100
AcDbBlockBegin
  2
_OPEN
 70
     0
 10
0.0
 20
0.0
 30
0.0
  3
_OPEN
  1
_OPEN
  0
LINE
  5
60A
330
608
100
AcDbEntity
  8
0
  6
ByBlock
 62
     0
100
AcDbLine
 10
-1.0
 20
0.1666666666666667
 30
0.0
 11
0.0
 21
0.0
 31
0.0
  0
LINE
  5
60B
330
608
100
AcDbEntity
  8
0
  6
ByBlock
 62
     0
100
AcDbLine
 10
0.0
 20
0.0
 30
0.0
 11
-1.0
 21
-0.1666666666666667
 31
0.0
  0
LINE
  5
60C
330
608
100
AcDbEntity
  8
0
  6
ByBlock
 62
     0
100
AcDbLine
 10
0.0
 20
0.0
 30
0.0
 11
-1.0
 21
0.0
 31
0.0
  0
ENDBLK
  5
60D
330
608
100
AcDbEntity
  8
0
100
AcDbBlockEnd
  0
BLOCK
  5
89E
330
89D
100
AcDbEntity
  8
0
100
AcDbBlockBegin
  2
SUN
 70
     0
 10
0.0
 20
0.0
 30
0.0
  3
SUN
  1
SUN
  0
LINE
  5
89F
330
89D
100
AcDbEntity
  8
0
100
AcDbLine
 10
-0.0000000000000568
 20
0.0
 30
0.0
 11
-1.500000000000056
 21
0.0
 31
0.0
  0
LINE
  5
8A0
330
89D
100
AcDbEntity
  8
0
100
AcDbLine
 10
-0.0000000000000568
 20
0.0000000000000284
 30
0.0
 11
-1.500000000000056
 21
0.401923788646684
 31
0.0
  0
LINE
  5
8A1
330
89D
100
AcDbEntity
  8
0
100
AcDbLine
 10
-0.0000000000000568
 20
0.0000000000000284
 30
0.0
 11
-1.500000000000056
 21
-0.4019237886466557
 31
0.0
  0
ENDBLK
  5
8A2
330
89D
100
AcDbEntity
  8
0
100
AcDbBlockEnd
  0
BLOCK
  5
1F20
330
1F1F
100
AcDbEntity
  8
0
100
AcDbBlockBegin
  2
_OPEN30
 70
     0
 10
0.0
 20
0.0
 30
0.0
  3
_OPEN30
  1
_OPEN30
  0
LINE
  5
1F21
330
1F1F
100
AcDbEntity
  8
0
  6
ByBlock
 62
     0
100
AcDbLine
 10
-1.0
 20
0.26794919
 30
0.0
 11
0.0
 21
0.0
 31
0.0
  0
LINE
  5
1F22
330
1F1F
100
AcDbEntity
  8
0
  6
ByBlock
 62
     0
100
AcDbLine
 10
0.0
 20
0.0
 30
0.0
 11
-1.0
 21
-0.26794919
 31
0.0
  0
LINE
  5
1F23
330
1F1F
100
AcDbEntity
  8
0
  6
ByBlock
 62
     0
100
AcDbLine
 10
0.0
 20
0.0
 30
0.0
 11
-1.0
 21
0.0
 31
0.0
  0
ENDBLK
  5
1F24
330
1F1F
100
AcDbEntity
  8
0
100
AcDbBlockEnd
  0
ENDSEC
  0
SECTION
  2
ENTITIES
  0
MTEXT
  5
D0CC6
330
18
100
AcDbEntity
  8
寸法線
100
AcDbMText
 10
2610.774875364868
 20
-2740.315466585338
 30
0.0
 40
2.500000000000003
 41
0.0
 71
     9
 72
     1
  1
\A1;
 73
     1
 44
1.0
1001
ACAD
1000
MTEXTBEGIN
1070
    73
1070
     1
1070
    44
1040
1.0
1070
    74
1070
     0
1000
MTEXTEND
  0
MTEXT
  5
F6D77
330
18
100
AcDbEntity
  8
文字
100
AcDbMText
 10
5821.057140836062
 20
-2842.341718131324
 30
0.0
 40
2.5
 41
64.39156592258223
 71
     1
 72
     5
  1
   
 73
     1
 44
1.0
1001
ACAD
1000
MTEXTBEGIN
1070
    73
1070
     1
1070
    44
1040
1.0
1070
    74
1070
     0
1000
MTEXTEND
  0
MTEXT
  5
F6D78
330
18
100
AcDbEntity
  8
寸法線
100
AcDbMText
 10
6222.662262480188
 20
-2968.738290481128
 30
0.0
 40
3.000000000000001
 41
0.0
 71
     7
 72
     1
  1
\A1;
 73
     1
 44
1.0
1001
ACAD
1000
MTEXTBEGIN
1070
    73
1070
     1
1070
    44
1040
1.0
1070
    74
1070
     0
1000
MTEXTEND
  0
HATCH
  5
128C0B
330
18
100
AcDbEntity
  8
ﾊｯﾁﾝｸﾞ
100
AcDbHatch
 10
0.0
 20
0.0
 30
0.0
210
0.0
220
0.0
230
1.0
  2
SOLID
 70
     1
 71
     0
 91
        0
 75
     0
 76
     1
 98
        1
 10
9746.590494856478
 20
-4213.345809678272
1001
ACAD
1010
0.0
1020
0.0
1030
0.0
  0
TEXT
  5
12C716
330
18
100
AcDbEntity
  8
文字
100
AcDbText
 10
9480.721908200866
 20
-4481.639749657622
 30
0.0
 40
6.5
  1
SX-B1652D/CE/BF
100
AcDbText
  0
SPLINE
  5
12D537
330
18
100
AcDbEntity
  8
姿図
100
AcDbSpline
210
0.0
220
0.0
230
1.0
 70
     8
 71
     3
 72
     8
 73
     4
 74
     0
 42
0.0000000001
 43
0.0000000001
 40
36.0
 40
36.0
 40
36.0
 40
36.0
 40
37.0
 40
37.0
 40
37.0
 40
37.0
 10
9555.776684407794
 20
-4429.258040509839
 30
0.0
 10
9553.523591959878
 20
-4432.210659596212
 30
0.0
 10
9551.814307834444
 20
-4434.204853118347
 30
0.0
 10
9551.140963921685
 20
-4434.74866144083
 30
0.0
  0
SPLINE
  5
12D538
330
18
100
AcDbEntity
  8
姿図
100
AcDbSpline
210
0.0
220
0.0
230
1.0
 70
     8
 71
     3
 72
    12
 73
     8
 74
     6
 42
0.0000000001
 43
0.0000000001
 44
0.0000000001
 40
0.0
 40
0.0
 40
0.0
 40
0.0
 40
2.34447205621838
 40
3.485069501827953
 40
4.152524498741134
 40
4.565337826234452
 40
5.186795096790201
 40
5.186795096790201
 40
5.186795096790201
 40
5.186795096790201
 10
9550.689050945097
 20
-4430.794064471109
 30
0.0
 10
9550.850247638042
 20
-4431.566362256226
 30
0.0
 10
9551.089867332757
 20
-4432.714386797657
 30
0.0
 10
9550.910823946969
 20
-4434.101688980184
 30
0.0
 10
9550.673368022676
 20
-4434.809812318611
 30
0.0
 10
9550.345778346704
 20
-4435.282291627241
 30
0.0
 10
9550.066886997568
 20
-4435.48924012378
 30
0.0
 10
9549.899310874899
 20
-4435.61358828571
 30
0.0
 11
9550.689050945097
 21
-4430.794064471109
 31
0.0
 11
9550.996198484188
 21
-4433.118329862931
 31
0.0
 11
9550.844514407764
 21
-4434.248796348011
 31
0.0
 11
9550.610847307691
 21
-4434.874012997861
 31
0.0
 11
9550.373232044213
 21
-4435.211583479268
 31
0.0
 11
9549.899310874899
 21
-4435.61358828571
 31
0.0
  0
LINE
  5
12D539
330
18
100
AcDbEntity
  8
姿図
100
AcDbLine
 10
9552.380432333441
 20
-4431.513389179803
 30
0.0
 11
9550.997147098327
 21
-4432.990826569723
 31
0.0
  0
LINE
  5
12D53A
330
18
100
AcDbEntity
  8
姿図
100
AcDbLine
 10
9552.337878889851
 20
-4430.953807745066
 30
0.0
 11
9550.966484154871
 21
-4432.412628107996
 31
0.0
  0
LINE
  5
12D53B
330
18
100
AcDbEntity
  8
姿図
100
AcDbLine
 10
9552.278774937517
 20
-4430.507959754003
 30
0.0
 11
9550.892667801262
 21
-4431.850209679018
 31
0.0
  0
SPLINE
  5
12D53C
330
18
100
AcDbEntity
  8
姿図
100
AcDbSpline
210
0.0
220
0.0
230
1.0
 70
     8
 71
     3
 72
     8
 73
     4
 74
     0
 42
0.0000000001
 43
0.0000000001
 40
0.0
 40
0.0
 40
0.0
 40
0.0
 40
0.9786274959647334
 40
0.9786274959647334
 40
0.9786274959647334
 40
0.9786274959647334
 10
9546.732964247205
 20
-4437.511628020691
 30
0.0
 10
9545.697250147309
 20
-4431.556271946289
 30
0.0
 10
9545.210557624477
 20
-4428.641650760237
 30
0.0
 10
9544.115651823831
 20
-4427.238561261449
 30
0.0
  0
SPLINE
  5
12D53D
330
18
100
AcDbEntity
  8
姿図
100
AcDbSpline
210
0.0
220
0.0
230
1.0
 70
     8
 71
     3
 72
     8
 73
     4
 74
     0
 42
0.0000000001
 43
0.0000000001
 40
0.0
 40
0.0
 40
0.0
 40
0.0
 40
1.0
 40
1.0
 40
1.0
 40
1.0
 10
9552.183476632515
 20
-4433.692704259913
 30
0.0
 10
9553.355632477336
 20
-4428.653595457029
 30
0.0
 10
9549.194312717256
 20
-4423.844848099901
 30
0.0
 10
9547.548073839218
 20
-4422.080959211012
 30
0.0
  0
SPLINE
  5
12D53E
330
18
100
AcDbEntity
  8
姿図
100
AcDbSpline
210
0.0
220
0.0
230
1.0
 70
     8
 71
     3
 72
     8
 73
     4
 74
     0
 42
0.0000000001
 43
0.0000000001
 40
0.0
 40
0.0
 40
0.0
 40
0.0
 40
1.0
 40
1.0
 40
1.0
 40
1.0
 10
9545.740776747205
 20
-4424.767530798468
 30
0.0
 10
9547.681054524984
 20
-4426.384314110101
 30
0.0
 10
9549.584642035831
 20
-4430.419382198208
 30
0.0
 10
9549.504333135232
 20
-4431.989176425222
 30
0.0
  0
SPLINE
  5
12D53F
330
18
100
AcDbEntity
  8
姿図
100
AcDbSpline
210
0.0
220
0.0
230
1.0
 70
     8
 71
     3
 72
     8
 73
     4
 74
     0
 42
0.0000000001
 43
0.0000000001
 40
4.0
 40
4.0
 40
4.0
 40
4.0
 40
5.0
 40
5.0
 40
5.0
 40
5.0
 10
9517.785118788221
 20
-4435.722245425204
 30
0.0
 10
9517.338806667996
 20
-4434.476154387879
 30
0.0
 10
9516.355059651933
 20
-4431.823603118346
 30
0.0
 10
9517.532076524764
 20
-4429.648714337965
 30
0.0
  0
LINE
  5
12D540
330
18
100
AcDbEntity
  8
姿図
100
AcDbLine
 10
9538.250794650847
 20
-4433.195612395691
 30
0.0
 11
9536.173660454887
 21
-4431.74608846991
 31
0.0
  0
LINE
  5
12D541
330
18
100
AcDbEntity
  8
姿図
100
AcDbLine
 10
9540.823936469427
 20
-4444.478989131801
 30
0.0
 11
9540.647547580539
 21
-4428.736280798468
 31
0.0
  0
LINE
  5
12D542
330
18
100
AcDbEntity
  8
姿図
100
AcDbLine
 10
9542.543728136093
 20
-4428.956766909579
 30
0.0
 11
9542.896505913871
 21
-4442.009544687357
 31
0.0
  0
LINE
  5
12D543
330
18
100
AcDbEntity
  8
姿図
100
AcDbLine
 10
9533.077467014129
 20
-4428.052773854024
 30
0.0
 11
9532.976870225937
 21
-4436.599194481193
 31
0.0
  0
LINE
  5
12D544
330
18
100
AcDbEntity
  8
姿図
100
AcDbLine
 10
9536.164358697076
 20
-4427.641257198208
 30
0.0
 11
9536.330326172118
 21
-4436.95955146904
 31
0.0
  0
SPLINE
  5
12D545
330
18
100
AcDbEntity
  8
姿図
100
AcDbSpline
210
0.0
220
0.0
230
1.0
 70
     8
 71
     3
 72
     8
 73
     4
 74
     0
 42
0.0000000001
 43
0.0000000001
 40
0.0
 40
0.0
 40
0.0
 40
0.0
 40
1.0
 40
1.0
 40
1.0
 40
1.0
 10
9517.785118788221
 20
-4435.722245425204
 30
0.0
 10
9518.393608778451
 20
-4434.254290238572
 30
0.0
 10
9519.58380314152
 20
-4431.874590531541
 30
0.0
 10
9522.435394802759
 20
-4427.435412742912
 30
0.0
  0
SPLINE
  5
12D546
330
18
100
AcDbEntity
  8
姿図
100
AcDbSpline
210
0.0
220
0.0
230
1.0
 70
     8
 71
     3
 72
     8
 73
     4
 74
     0
 42
0.0000000001
 43
0.0000000001
 40
0.0
 40
0.0
 40
0.0
 40
0.0
 40
1.0
 40
1.0
 40
1.0
 40
1.0
 10
9522.391297580536
 20
-4427.325169687358
 30
0.0
 10
9519.97826657468
 20
-4427.325169687358
 30
0.0
 10
9516.217686469429
 20
-4429.309544687358
 30
0.0
 10
9518.025672580538
 20
-4434.909891909579
 30
0.0
  0
LINE
  5
12D547
330
18
100
AcDbEntity
  8
姿図
100
AcDbLine
 10
9534.194625352892
 20
-4427.641257198208
 30
0.0
 11
9534.400469808185
 21
-4440.517646087097
 31
0.0
  0
LINE
  5
12D548
330
18
100
AcDbEntity
  8
姿図
100
AcDbLine
 10
9534.547403130668
 20
-4427.259023854024
 30
0.0
 11
9534.753247585966
 21
-4440.576384965136
 31
0.0
  0
LINE
  5
12D549
330
18
100
AcDbEntity
  8
姿図
100
AcDbLine
 10
9541.279550347464
 20
-4444.339462764614
 30
0.0
 11
9541.044422580537
 21
-4428.603989131801
 31
0.0
  0
LINE
  5
12D54A
330
18
100
AcDbEntity
  8
姿図
100
AcDbLine
 10
9543.139040636093
 20
-4429.92690579847
 30
0.0
 11
9543.308194824462
 21
-4438.890871998555
 31
0.0
  0
SPLINE
  5
12D54B
330
18
100
AcDbEntity
  8
姿図
100
AcDbSpline
210
0.0
220
0.0
230
1.0
 70
     8
 71
     3
 72
     8
 73
     4
 74
     0
 42
0.0000000001
 43
0.0000000001
 40
0.0
 40
0.0
 40
0.0
 40
0.0
 40
1.0
 40
1.0
 40
1.0
 40
1.0
 10
9526.580533691651
 20
-4438.518457176506
 30
0.0
 10
9520.495117024978
 20
-4438.930146087098
 30
0.0
 10
9515.409208686222
 20
-4440.958618309319
 30
0.0
 10
9515.497403130666
 20
-4441.34067939873
 30
0.0
  0
SPLINE
  5
12D54C
330
18
100
AcDbEntity
  8
姿図
100
AcDbSpline
210
0.0
220
0.0
230
1.0
 70
     8
 71
     3
 72
     8
 73
     4
 74
     0
 42
0.0000000001
 43
0.0000000001
 40
0.0
 40
0.0
 40
0.0
 40
0.0
 40
1.0
 40
1.0
 40
1.0
 40
1.0
 10
9516.394678250025
 20
-4439.311345902634
 30
0.0
 10
9518.698499728976
 20
-4437.790336245517
 30
0.0
 10
9522.90453068058
 20
-4436.773516312791
 30
0.0
 10
9527.887947428625
 20
-4436.5542359851
 30
0.0
  0
SPLINE
  5
12D54D
330
18
100
AcDbEntity
  8
姿図
100
AcDbSpline
210
0.0
220
0.0
230
1.0
 70
     8
 71
     3
 72
     8
 73
     4
 74
     0
 42
0.0000000001
 43
0.0000000001
 40
0.0
 40
0.0
 40
0.0
 40
0.0
 40
1.0
 40
1.0
 40
1.0
 40
1.0
 10
9514.892444363306
 20
-4442.029698495951
 30
0.0
 10
9515.415151475936
 20
-4439.559392777634
 30
0.0
 10
9520.78304088023
 20
-4437.567610822339
 30
0.0
 10
9527.734812934269
 20
-4437.166429452982
 30
0.0
  0
SPLINE
  5
12D54E
330
18
100
AcDbEntity
  8
姿図
100
AcDbSpline
210
0.0
220
0.0
230
1.0
 70
     8
 71
     3
 72
    11
 73
     7
 74
     0
 42
0.0000000001
 43
0.0000000001
 40
0.0
 40
0.0
 40
0.0
 40
0.0
 40
1.0
 40
1.0
 40
1.0
 40
2.0
 40
2.0
 40
2.0
 40
2.0
 10
9512.583455241129
 20
-4447.868963090134
 30
0.0
 10
9516.213552354843
 20
-4445.798116193434
 30
0.0
 10
9522.950092068384
 20
-4444.606974429111
 30
0.0
 10
9530.655306505233
 20
-4444.606974429111
 30
0.0
 10
9538.516583767602
 20
-4444.606974429111
 30
0.0
 10
9544.947026747205
 20
-4445.812930104025
 30
0.0
 10
9548.52596419295
 20
-4447.795065791958
 30
0.0
  0
ELLIPSE
  5
12D54F
330
18
100
AcDbEntity
  8
姿図
100
AcDbEllipse
 10
9530.659526747205
 20
-4452.218051631802
 30
0.0
 11
17.21996527777777
 21
0.0
 31
0.0
210
0.0
220
0.0
230
1.0
 40
0.3329065300896287
 41
0.0
 42
6.283185307179585
  0
SPLINE
  5
12D550
330
18
100
AcDbEntity
  8
姿図
100
AcDbSpline
210
0.0
220
0.0
230
1.0
 70
    11
 71
     3
 72
    20
 73
    16
 74
     0
 42
0.0000000001
 43
0.0000000001
 40
0.0
 40
0.0
 40
0.0
 40
0.0
 40
1.0
 40
1.0
 40
1.0
 40
2.0
 40
2.0
 40
2.0
 40
3.0
 40
3.0
 40
3.0
 40
4.0
 40
4.0
 40
4.0
 40
5.0
 40
5.0
 40
5.0
 40
5.0
 10
9515.366058865259
 20
-4450.746134585361
 30
0.0
 10
9517.314001980494
 20
-4448.589332556281
 30
0.0
 10
9523.433611219861
 20
-4447.01457940958
 30
0.0
 10
9530.681575358313
 20
-4447.01457940958
 30
0.0
 10
9539.497746962048
 20
-4447.01457940958
 30
0.0
 10
9546.64476980276
 20
-4449.344497486836
 30
0.0
 10
9546.64476980276
 20
-4452.218051631802
 30
0.0
 10
9546.64476980276
 20
-4455.091605776767
 30
0.0
 10
9539.497746962048
 20
-4457.421523854024
 30
0.0
 10
9530.681575358313
 20
-4457.421523854024
 30
0.0
 10
9521.865317627197
 20
-4457.421523854024
 30
0.0
 10
9514.718380913871
 20
-4455.091605776767
 30
0.0
 10
9514.718380913871
 20
-4452.218051631802
 30
0.0
 10
9514.718380913871
 20
-4451.706799461663
 30
0.0
 10
9514.944551432535
 20
-4451.212772768955
 30
0.0
 10
9515.366058865259
 20
-4450.746134585361
 30
0.0
  0
ELLIPSE
  5
12D551
330
18
100
AcDbEntity
  8
姿図
100
AcDbEllipse
 10
9530.549412882729
 20
-4451.697842213401
 30
0.0
 11
20.7433074951172
 21
0.0
 31
0.0
210
0.0
220
0.0
230
1.0
 40
0.3248236933025159
 41
0.0
 42
6.283185307179585
  0
SPLINE
  5
12D552
330
18
100
AcDbEntity
  8
姿図
100
AcDbSpline
210
0.0
220
0.0
230
1.0
 70
     8
 71
     3
 72
     8
 73
     4
 74
     0
 42
0.0000000001
 43
0.0000000001
 40
3.0
 40
3.0
 40
3.0
 40
3.0
 40
4.0
 40
4.0
 40
4.0
 40
4.0
 10
9516.408889268904
 20
-4439.293086896558
 30
0.0
 10
9516.408889268904
 20
-4439.293086896558
 30
0.0
 10
9517.468945149982
 20
-4436.150126284579
 30
0.0
 10
9517.785118788221
 20
-4435.722245425204
 30
0.0
  0
SPLINE
  5
12D553
330
18
100
AcDbEntity
  8
姿図
100
AcDbSpline
210
0.0
220
0.0
230
1.0
 70
     8
 71
     3
 72
     8
 73
     4
 74
     0
 42
0.0000000001
 43
0.0000000001
 40
48.0
 40
48.0
 40
48.0
 40
48.0
 40
49.0
 40
49.0
 40
49.0
 40
49.0
 10
9512.614977864826
 20
-4447.829861256369
 30
0.0
 10
9512.652271023462
 20
-4446.788236636143
 30
0.0
 10
9512.689391927324
 20
-4444.66812487399
 30
0.0
 10
9512.70799544295
 20
-4444.389072139614
 30
0.0
  0
LINE
  5
12D554
330
18
100
AcDbEntity
  8
姿図
100
AcDbLine
 10
9513.434135444034
 20
-4442.908714609233
 30
0.0
 11
9513.267651204671
 21
-4447.459341236837
 31
0.0
  0
LINE
  5
12D555
330
18
100
AcDbEntity
  8
姿図
100
AcDbLine
 10
9513.898275933405
 20
-4442.845497107061
 30
0.0
 11
9513.711637885441
 21
-4447.209744068869
 31
0.0
  0
LINE
  5
12D556
330
18
100
AcDbEntity
  8
姿図
100
AcDbLine
 10
9515.487498481142
 20
-4441.382537308885
 30
0.0
 11
9515.265548204451
 21
-4446.627006167392
 31
0.0
  0
SPLINE
  5
12D557
330
18
100
AcDbEntity
  8
姿図
100
AcDbSpline
210
0.0
220
0.0
230
1.0
 70
    24
 71
     3
 72
     8
 73
     4
 74
     0
 42
0.0000000001
 43
0.0000000001
 40
51.0
 40
51.0
 40
51.0
 40
51.0
 40
52.0
 40
52.0
 40
52.0
 40
52.0
 10
9513.898275933405
 20
-4442.845497107061
 30
0.0
 10
9513.898275933405
 20
-4442.845497107061
 30
0.0
 10
9514.400054090957
 20
-4442.450000145256
 30
0.0
 10
9514.400054090957
 20
-4442.450000145256
 30
0.0
  0
SPLINE
  5
12D558
330
18
100
AcDbEntity
  8
姿図
100
AcDbSpline
210
0.0
220
0.0
230
1.0
 70
     8
 71
     3
 72
     8
 73
     4
 74
     0
 42
0.0000000001
 43
0.0000000001
 40
50.0
 40
50.0
 40
50.0
 40
50.0
 40
51.0
 40
51.0
 40
51.0
 40
51.0
 10
9513.433274170164
 20
-4442.845497107061
 30
0.0
 10
9513.749447808399
 20
-4442.826893591438
 30
0.0
 10
9513.898275933405
 20
-4442.845497107061
 30
0.0
 10
9513.898275933405
 20
-4442.845497107061
 30
0.0
  0
SPLINE
  5
12D559
330
18
100
AcDbEntity
  8
姿図
100
AcDbSpline
210
0.0
220
0.0
230
1.0
 70
     8
 71
     3
 72
     8
 73
     4
 74
     0
 42
0.0000000001
 43
0.0000000001
 40
49.0
 40
49.0
 40
49.0
 40
49.0
 40
50.0
 40
50.0
 40
50.0
 40
50.0
 10
9512.70799544295
 20
-4444.389072139614
 30
0.0
 10
9512.726598958577
 20
-4444.110191660014
 30
0.0
 10
9513.117186659313
 20
-4442.864100622688
 30
0.0
 10
9513.433274170164
 20
-4442.845497107061
 30
0.0
  0
SPLINE
  5
12D55A
330
18
100
AcDbEntity
  8
姿図
100
AcDbSpline
210
0.0
220
0.0
230
1.0
 70
     8
 71
     3
 72
     8
 73
     4
 74
     0
 42
0.0000000001
 43
0.0000000001
 40
2.0
 40
2.0
 40
2.0
 40
2.0
 40
3.0
 40
3.0
 40
3.0
 40
3.0
 10
9514.958331814478
 20
-4440.74381660576
 30
0.0
 10
9515.534868544079
 20
-4439.888399396559
 30
0.0
 10
9516.408889268904
 20
-4439.293086896558
 30
0.0
 10
9516.408889268904
 20
-4439.293086896558
 30
0.0
  0
SPLINE
  5
12D55B
330
18
100
AcDbEntity
  8
姿図
100
AcDbSpline
210
0.0
220
0.0
230
1.0
 70
     8
 71
     3
 72
     8
 73
     4
 74
     0
 42
0.0000000001
 43
0.0000000001
 40
1.0
 40
1.0
 40
1.0
 40
1.0
 40
2.0
 40
2.0
 40
2.0
 40
2.0
 10
9514.512019694251
 20
-4442.361805700813
 30
0.0
 10
9514.512019694251
 20
-4442.361805700813
 30
0.0
 10
9514.381795084876
 20
-4441.599406069736
 30
0.0
 10
9514.958331814478
 20
-4440.74381660576
 30
0.0
  0
SPLINE
  5
12D55C
330
18
100
AcDbEntity
  8
姿図
100
AcDbSpline
210
0.0
220
0.0
230
1.0
 70
    24
 71
     3
 72
     8
 73
     4
 74
     0
 42
0.0000000001
 43
0.0000000001
 40
0.0
 40
0.0
 40
0.0
 40
0.0
 40
1.0
 40
1.0
 40
1.0
 40
1.0
 10
9514.43674435788
 20
-4442.421061343173
 30
0.0
 10
9514.43674435788
 20
-4442.421061343173
 30
0.0
 10
9514.512019694251
 20
-4442.361805700813
 30
0.0
 10
9514.512019694251
 20
-4442.361805700813
 30
0.0
  0
LINE
  5
12D55D
330
18
100
AcDbEntity
  8
姿図
100
AcDbLine
 10
9514.400054090957
 20
-4442.450000145257
 30
0.0
 11
9514.43674435788
 21
-4442.421061343173
 31
0.0
  0
LINE
  5
12D55E
330
18
100
AcDbEntity
  8
姿図
100
AcDbLine
 10
9514.512019694251
 20
-4442.361805700813
 30
0.0
 11
9515.432032443822
 21
-4441.687772768955
 31
0.0
  0
SPLINE
  5
12D55F
330
18
100
AcDbEntity
  8
姿図
100
AcDbSpline
210
0.0
220
0.0
230
1.0
 70
     8
 71
     3
 72
     8
 73
     4
 74
     0
 42
0.0000000001
 43
0.0000000001
 40
47.57323863493615
 40
47.57323863493615
 40
47.57323863493615
 40
47.57323863493615
 40
48.0
 40
48.0
 40
48.0
 40
48.0
 10
9509.806105387612
 20
-4451.697842213401
 30
0.0
 10
9509.759526029567
 20
-4450.470149849611
 30
0.0
 10
9510.462151483416
 20
-4449.141456697697
 30
0.0
 10
9512.614977864826
 20
-4447.829861256369
 30
0.0
  0
LINE
  5
12D560
330
18
100
AcDbEntity
  8
姿図
100
AcDbLine
 10
9552.301270817901
 20
-4433.074418501281
 30
0.0
 11
9550.363063747065
 21
-4435.357846198112
 31
0.0
  0
SPLINE
  5
12D561
330
18
100
AcDbEntity
  8
姿図
100
AcDbSpline
210
0.0
220
0.0
230
1.0
 70
     8
 71
     3
 72
     8
 73
     4
 74
     0
 42
0.0000000001
 43
0.0000000001
 40
0.0
 40
0.0
 40
0.0
 40
0.0
 40
1.0
 40
1.0
 40
1.0
 40
1.0
 10
9546.298533739362
 20
-4435.023246058316
 30
0.0
 10
9547.664728318769
 20
-4435.276424285858
 30
0.0
 10
9549.996090486413
 20
-4434.962799441986
 30
0.0
 10
9549.504333135232
 20
-4431.989176425222
 30
0.0
  0
SPLINE
  5
12D562
330
18
100
AcDbEntity
  8
姿図
100
AcDbSpline
210
0.0
220
0.0
230
1.0
 70
     8
 71
     3
 72
     8
 73
     4
 74
     0
 42
0.0000000001
 43
0.0000000001
 40
0.0
 40
0.0
 40
0.0
 40
0.0
 40
1.0
 40
1.0
 40
1.0
 40
1.0
 10
9546.76603716387
 20
-4437.602923051072
 30
0.0
 10
9546.058759060572
 20
-4436.637607295864
 30
0.0
 10
9545.040216580103
 20
-4436.033854311923
 30
0.0
 10
9543.425672580536
 20
-4435.72569052069
 30
0.0
  0
SPLINE
  5
12D563
330
18
100
AcDbEntity
  8
姿図
100
AcDbSpline
210
0.0
220
0.0
230
1.0
 70
     8
 71
     3
 72
     8
 73
     4
 74
     0
 42
0.0000000001
 43
0.0000000001
 40
0.0
 40
0.0
 40
0.0
 40
0.0
 40
1.0
 40
1.0
 40
1.0
 40
1.0
 10
9547.020974229843
 20
-4436.230052499857
 30
0.0
 10
9546.77154931665
 20
-4435.95444486097
 30
0.0
 10
9546.589648274981
 20
-4435.789080277634
 30
0.0
 10
9546.432724175591
 20
-4435.700541323642
 30
0.0
  0
SPLINE
  5
12D564
330
18
100
AcDbEntity
  8
姿図
100
AcDbSpline
210
0.0
220
0.0
230
1.0
 70
     8
 71
     3
 72
     8
 73
     4
 74
     0
 42
0.0000000001
 43
0.0000000001
 40
37.0
 40
37.0
 40
37.0
 40
37.0
 40
38.0
 40
38.0
 40
38.0
 40
38.0
 10
9551.140963921685
 20
-4434.74866144083
 30
0.0
 10
9549.59704286484
 20
-4436.204646728316
 30
0.0
 10
9548.028436677078
 20
-4436.122584967419
 30
0.0
 10
9546.637362847466
 20
-4435.865389142652
 30
0.0
  0
SPLINE
  5
12D565
330
18
100
AcDbEntity
  8
姿図
100
AcDbSpline
210
0.0
220
0.0
230
1.0
 70
     8
 71
     3
 72
     8
 73
     4
 74
     0
 42
0.0000000001
 43
0.0000000001
 40
38.0
 40
38.0
 40
38.0
 40
38.0
 40
39.0
 40
39.0
 40
39.0
 40
39.0
 10
9547.013222765
 20
-4436.208003888746
 30
0.0
 10
9547.531192871336
 20
-4436.803660898295
 30
0.0
 10
9547.660556206841
 20
-4437.269782317565
 30
0.0
 10
9547.712404893905
 20
-4437.813762894823
 30
0.0
  0
LINE
  5
12D566
330
18
100
AcDbEntity
  8
姿図
100
AcDbLine
 10
9552.362757688486
 20
-4432.536601956425
 30
0.0
 11
9550.814001863969
 21
-4434.361211926403
 31
0.0
  0
LINE
  5
12D567
330
18
100
AcDbEntity
  8
姿図
100
AcDbLine
 10
9552.367432318572
 20
-4431.994082710843
 30
0.0
 11
9550.957340053352
 21
-4433.655331285336
 31
0.0
  0
SPLINE
  5
12D568
330
18
100
AcDbEntity
  8
姿図
100
AcDbSpline
210
0.0
220
0.0
230
1.0
 70
     8
 71
     3
 72
    11
 73
     7
 74
     0
 42
0.0000000001
 43
0.0000000001
 40
41.0
 40
41.0
 40
41.0
 40
41.0
 40
42.0
 40
42.0
 40
42.0
 40
43.0
 40
43.0
 40
43.0
 40
43.0
 10
9547.531192871336
 20
-4442.630867658278
 30
0.0
 10
9548.204536784096
 20
-4443.252535138746
 30
0.0
 10
9548.359910590519
 20
-4443.640969654805
 30
0.0
 10
9548.359910590519
 20
-4444.340151783712
 30
0.0
 10
9548.359910590519
 20
-4445.039506167391
 30
0.0
 10
9548.52596419295
 20
-4447.795065791958
 30
0.0
 10
9548.52596419295
 20
-4447.795065791958
 30
0.0
  0
SPLINE
  5
12D569
330
18
100
AcDbEntity
  8
姿図
100
AcDbSpline
210
0.0
220
0.0
230
1.0
 70
    27
 71
     3
 72
     8
 73
     4
 74
     0
 42
0.0000000001
 43
0.0000000001
 40
43.0
 40
43.0
 40
43.0
 40
43.0
 40
44.0
 40
44.0
 40
44.0
 40
44.0
 10
9548.52596419295
 20
-4447.795065791958
 30
0.0
 10
9548.52596419295
 20
-4447.795065791958
 30
0.0
 10
9548.52596419295
 20
-4447.795065791958
 30
0.0
 10
9548.52596419295
 20
-4447.795065791958
 30
0.0
  0
SPLINE
  5
12D56A
330
18
100
AcDbEntity
  8
姿図
100
AcDbSpline
210
0.0
220
0.0
230
1.0
 70
     8
 71
     3
 72
     8
 73
     4
 74
     0
 42
0.0000000001
 43
0.0000000001
 40
1.0
 40
1.0
 40
1.0
 40
1.0
 40
2.0
 40
2.0
 40
2.0
 40
2.0
 10
9544.572200358315
 20
-4440.760180809319
 30
0.0
 10
9545.468786458576
 20
-4441.215794687358
 30
0.0
 10
9546.703508680796
 20
-4441.715505787618
 30
0.0
 10
9547.531192871336
 20
-4442.630867658278
 30
0.0
  0
LINE
  5
12D56B
330
18
100
AcDbEntity
  8
姿図
100
AcDbLine
 10
9543.308194824462
 20
-4438.890871998555
 30
0.0
 11
9543.315429524978
 21
-4439.27551690958
 31
0.0
  0
SPLINE
  5
12D56C
330
18
100
AcDbEntity
  8
姿図
100
AcDbSpline
210
0.0
220
0.0
230
1.0
 70
     8
 71
     3
 72
     8
 73
     4
 74
     0
 42
0.0000000001
 43
0.0000000001
 40
0.0
 40
0.0
 40
0.0
 40
0.0
 40
1.0
 40
1.0
 40
1.0
 40
1.0
 10
9544.572200358315
 20
-4440.760180809319
 30
0.0
 10
9543.86543901934
 20
-4440.45098348944
 30
0.0
 10
9543.315429524978
 20
-4440.104234628763
 30
0.0
 10
9543.315429524978
 20
-4439.27551690958
 30
0.0
  0
SPLINE
  5
12D56D
330
18
100
AcDbEntity
  8
姿図
100
AcDbSpline
210
0.0
220
0.0
230
1.0
 70
     8
 71
     3
 72
     8
 73
     4
 74
     0
 42
0.0000000001
 43
0.0000000001
 40
0.0
 40
0.0
 40
0.0
 40
0.0
 40
0.9455772662780576
 40
0.9455772662780576
 40
0.9455772662780576
 40
0.9455772662780576
 10
9543.317152072724
 20
-4438.90103503024
 30
0.0
 10
9545.178384102026
 20
-4439.769023608532
 30
0.0
 10
9546.407843266752
 20
-4440.81644060887
 30
0.0
 10
9546.748340185436
 20
-4441.945711350856
 30
0.0
  0
SPLINE
  5
12D56E
330
18
100
AcDbEntity
  8
姿図
100
AcDbSpline
210
0.0
220
0.0
230
1.0
 70
     8
 71
     3
 72
     8
 73
     4
 74
     0
 42
0.0000000001
 43
0.0000000001
 40
0.0
 40
0.0
 40
0.0
 40
0.0
 40
1.0
 40
1.0
 40
1.0
 40
1.0
 10
9543.327315104409
 20
-4439.463102358799
 30
0.0
 10
9544.403390679496
 20
-4440.004843623989
 30
0.0
 10
9545.201963813177
 20
-4440.616692582323
 30
0.0
 10
9545.652237793209
 20
-4441.273844546298
 30
0.0
  0
SPLINE
  5
12D56F
330
18
100
AcDbEntity
  8
姿図
100
AcDbSpline
210
0.0
220
0.0
230
1.0
 70
     8
 71
     3
 72
    11
 73
     7
 74
     0
 42
0.0000000001
 43
0.0000000001
 40
39.0
 40
39.0
 40
39.0
 40
39.0
 40
40.0
 40
40.0
 40
40.0
 40
41.0
 40
41.0
 40
41.0
 40
41.0
 10
9547.712404893905
 20
-4437.813762894823
 30
0.0
 10
9547.764253580972
 20
-4438.357571217305
 30
0.0
 10
9547.816102268036
 20
-4441.62076566175
 30
0.0
 10
9547.816102268036
 20
-4441.802149939093
 30
0.0
 10
9547.816102268036
 20
-4441.983361961663
 30
0.0
 10
9547.686566677759
 20
-4442.423817419563
 30
0.0
 10
9547.531192871336
 20
-4442.630867658278
 30
0.0
  0
SPLINE
  5
12D570
330
18
100
AcDbEntity
  8
姿図
100
AcDbSpline
210
0.0
220
0.0
230
1.0
 70
     8
 71
     3
 72
     8
 73
     4
 74
     0
 42
0.0000000001
 43
0.0000000001
 40
0.0
 40
0.0
 40
0.0
 40
0.0
 40
1.0
 40
1.0
 40
1.0
 40
1.0
 10
9547.085742024981
 20
-4442.199369448643
 30
0.0
 10
9547.085742024981
 20
-4439.786424570169
 30
0.0
 10
9547.08729231795
 20
-4437.558309064527
 30
0.0
 10
9546.666990668644
 20
-4437.566232784146
 30
0.0
  0
SPLINE
  5
12D571
330
18
100
AcDbEntity
  8
姿図
100
AcDbSpline
210
0.0
220
0.0
230
1.0
 70
     8
 71
     3
 72
     8
 73
     4
 74
     0
 42
0.0000000001
 43
0.0000000001
 40
44.0
 40
44.0
 40
44.0
 40
44.0
 40
44.97482086101027
 40
44.97482086101027
 40
44.97482086101027
 40
44.97482086101027
 10
9548.52596419295
 20
-4447.795065791958
 30
0.0
 10
9548.52596419295
 20
-4447.795065791958
 30
0.0
 10
9551.313393290344
 20
-4449.045748128683
 30
0.0
 10
9551.292720377842
 20
-4451.697842213401
 30
0.0
  0
LINE
  5
12D572
330
18
100
AcDbEntity
  8
姿図
100
AcDbLine
 10
9534.694508707927
 20
-4434.344034975985
 30
0.0
 11
9536.193814263482
 21
-4434.667529442132
 31
0.0
  0
LINE
  5
12D573
330
18
100
AcDbEntity
  8
姿図
100
AcDbLine
 10
9534.723878146943
 20
-4434.990851653502
 30
0.0
 11
9536.223183702499
 21
-4435.314346119649
 31
0.0
  0
LINE
  5
12D574
330
18
100
AcDbEntity
  8
姿図
100
AcDbLine
 10
9534.723878146943
 20
-4435.608212764615
 30
0.0
 11
9536.223183702499
 21
-4435.93170723076
 31
0.0
  0
LINE
  5
12D575
330
18
100
AcDbEntity
  8
姿図
100
AcDbLine
 10
9534.694508707927
 20
-4436.255029442132
 30
0.0
 11
9536.193814263482
 21
-4436.578523908278
 31
0.0
  0
LINE
  5
12D576
330
18
100
AcDbEntity
  8
姿図
100
AcDbLine
 10
9534.723878146943
 20
-4436.842934986837
 30
0.0
 11
9536.223183702499
 21
-4437.166429452982
 31
0.0
  0
LINE
  5
12D577
330
18
100
AcDbEntity
  8
姿図
100
AcDbLine
 10
9534.75333371335
 20
-4438.136396087097
 30
0.0
 11
9536.252639268903
 21
-4438.459890553242
 31
0.0
  0
LINE
  5
12D578
330
18
100
AcDbEntity
  8
姿図
100
AcDbLine
 10
9534.723878146943
 20
-4437.460296097948
 30
0.0
 11
9536.223183702499
 21
-4437.783790564094
 31
0.0
  0
LINE
  5
12D579
330
18
100
AcDbEntity
  8
姿図
100
AcDbLine
 10
9534.6356837025
 20
-4431.962784975985
 30
0.0
 11
9536.134989258055
 21
-4432.286279442132
 31
0.0
  0
LINE
  5
12D57A
330
18
100
AcDbEntity
  8
姿図
100
AcDbLine
 10
9534.665053141518
 20
-4432.550862775465
 30
0.0
 11
9536.164358697076
 21
-4432.874357241611
 31
0.0
  0
LINE
  5
12D57B
330
18
100
AcDbEntity
  8
姿図
100
AcDbLine
 10
9534.694508707927
 20
-4433.19750719821
 30
0.0
 11
9536.193814263482
 21
-4433.521001664354
 31
0.0
  0
LINE
  5
12D57C
330
18
100
AcDbEntity
  8
姿図
100
AcDbLine
 10
9534.694508707927
 20
-4433.756129431282
 30
0.0
 11
9536.193814263482
 21
-4434.079623897427
 31
0.0
  0
LINE
  5
12D57D
330
18
100
AcDbEntity
  8
姿図
100
AcDbLine
 10
9534.488664252629
 20
-4440.576384965136
 30
0.0
 11
9536.223097575112
 21
-4440.811684986837
 31
0.0
  0
LINE
  5
12D57E
330
18
100
AcDbEntity
  8
姿図
100
AcDbLine
 10
9534.75333371335
 20
-4439.341834997686
 30
0.0
 11
9536.252639268903
 21
-4439.665329463832
 31
0.0
  0
LINE
  5
12D57F
330
18
100
AcDbEntity
  8
姿図
100
AcDbLine
 10
9534.75333371335
 20
-4440.017934986836
 30
0.0
 11
9536.252639268903
 21
-4440.341429452983
 31
0.0
  0
LINE
  5
12D580
330
18
100
AcDbEntity
  8
姿図
100
AcDbLine
 10
9534.75333371335
 20
-4438.69501832017
 30
0.0
 11
9536.252639268903
 21
-4439.018512786316
 31
0.0
  0
SPLINE
  5
12D581
330
18
100
AcDbEntity
  8
姿図
100
AcDbSpline
210
0.0
220
0.0
230
1.0
 70
     8
 71
     3
 72
     8
 73
     4
 74
     0
 42
0.0000000001
 43
0.0000000001
 40
0.0
 40
0.0
 40
0.0
 40
0.0
 40
1.0
 40
1.0
 40
1.0
 40
1.0
 10
9531.343033691648
 20
-4436.754568287618
 30
0.0
 10
9531.343033691648
 20
-4436.575940086664
 30
0.0
 10
9531.172156955538
 20
-4436.431246076247
 30
0.0
 10
9530.960886474851
 20
-4436.431246076247
 30
0.0
  0
SPLINE
  5
12D582
330
18
100
AcDbEntity
  8
姿図
100
AcDbSpline
210
0.0
220
0.0
230
1.0
 70
     8
 71
     3
 72
     8
 73
     4
 74
     0
 42
0.0000000001
 43
0.0000000001
 40
0.0
 40
0.0
 40
0.0
 40
0.0
 40
1.0
 40
1.0
 40
1.0
 40
1.0
 10
9531.240197591387
 20
-4436.527881004631
 30
0.0
 10
9531.8515297854
 20
-4436.544761972514
 30
0.0
 10
9532.454163113309
 20
-4436.573700774597
 30
0.0
 10
9533.046288899985
 20
-4436.614180646558
 30
0.0
  0
SPLINE
  5
12D583
330
18
100
AcDbEntity
  8
姿図
100
AcDbSpline
210
0.0
220
0.0
230
1.0
 70
     8
 71
     3
 72
     8
 73
     4
 74
     0
 42
0.0000000001
 43
0.0000000001
 40
0.0
 40
0.0
 40
0.0
 40
0.0
 40
1.0
 40
1.0
 40
1.0
 40
1.0
 10
9531.313233615692
 20
-4437.103039696038
 30
0.0
 10
9531.863587619602
 20
-4437.114925275465
 30
0.0
 10
9532.406276286049
 20
-4437.136457122252
 30
0.0
 10
9532.939835449459
 20
-4437.167635236402
 30
0.0
  0
LINE
  5
12D584
330
18
100
AcDbEntity
  8
姿図
100
AcDbLine
 10
9532.371911458573
 20
-4438.400979420429
 30
0.0
 11
9532.695319797333
 21
-4438.342240542391
 31
0.0
  0
SPLINE
  5
12D585
330
18
100
AcDbEntity
  8
姿図
100
AcDbSpline
210
0.0
220
0.0
230
1.0
 70
     8
 71
     3
 72
     8
 73
     4
 74
     0
 42
0.0000000001
 43
0.0000000001
 40
0.0
 40
0.0
 40
0.0
 40
0.0
 40
1.0
 40
1.0
 40
1.0
 40
1.0
 10
9532.959903130668
 20
-4438.048201642652
 30
0.0
 10
9532.959903130668
 20
-4438.194445946037
 30
0.0
 10
9532.825286024548
 20
-4438.342240542391
 30
0.0
 10
9532.695319797333
 20
-4438.342240542391
 30
0.0
  0
LINE
  5
12D586
330
18
100
AcDbEntity
  8
姿図
100
AcDbLine
 10
9532.976870225937
 20
-4436.599194481193
 30
0.0
 11
9532.959903130668
 21
-4438.048201642652
 31
0.0
  0
LINE
  5
12D587
330
18
100
AcDbEntity
  8
姿図
100
AcDbLine
 10
9527.785886474852
 20
-4436.784023854026
 30
0.0
 11
9527.801733914087
 21
-4437.150237504198
 31
0.0
  0
SPLINE
  5
12D588
330
18
100
AcDbEntity
  8
姿図
100
AcDbSpline
210
0.0
220
0.0
230
1.0
 70
     8
 71
     3
 72
     8
 73
     4
 74
     0
 42
0.0000000001
 43
0.0000000001
 40
0.0
 40
0.0
 40
0.0
 40
0.0
 40
1.0
 40
1.0
 40
1.0
 40
1.0
 10
9527.785886474852
 20
-4436.784023854026
 30
0.0
 10
9527.785886474852
 20
-4436.605395653068
 30
0.0
 10
9527.943671848117
 20
-4436.460701642653
 30
0.0
 10
9528.138664252628
 20
-4436.460701642653
 30
0.0
  0
SPLINE
  5
12D589
330
18
100
AcDbEntity
  8
姿図
100
AcDbSpline
210
0.0
220
0.0
230
1.0
 70
     8
 71
     3
 72
     8
 73
     4
 74
     0
 42
0.0000000001
 43
0.0000000001
 40
0.0
 40
0.0
 40
0.0
 40
0.0
 40
1.0
 40
1.0
 40
1.0
 40
1.0
 10
9526.756922580537
 20
-4438.694846065396
 30
0.0
 10
9526.756922580537
 20
-4438.597349863139
 30
0.0
 10
9526.678029893902
 20
-4438.518457176506
 30
0.0
 10
9526.580533691651
 20
-4438.518457176506
 30
0.0
  0
LINE
  5
12D58A
330
18
100
AcDbEntity
  8
姿図
100
AcDbLine
 10
9528.138664252628
 20
-4436.460701642653
 30
0.0
 11
9530.960886474851
 21
-4436.431246076247
 31
0.0
  0
LINE
  5
12D58B
330
18
100
AcDbEntity
  8
姿図
100
AcDbLine
 10
9531.225469808182
 20
-4441.781651620951
 30
0.0
 11
9531.225469808182
 21
-4444.574590531542
 31
0.0
  0
LINE
  5
12D58C
330
18
100
AcDbEntity
  8
姿図
100
AcDbLine
 10
9531.460597575113
 20
-4439.165273854024
 30
0.0
 11
9531.166644802759
 21
-4441.781651620951
 31
0.0
  0
LINE
  5
12D58D
330
18
100
AcDbEntity
  8
姿図
100
AcDbLine
 10
9531.989764241778
 20
-4438.783212764614
 30
0.0
 11
9531.78400591387
 21
-4441.311396087097
 31
0.0
  0
SPLINE
  5
12D58E
330
18
100
AcDbEntity
  8
姿図
100
AcDbSpline
210
0.0
220
0.0
230
1.0
 70
     8
 71
     3
 72
     8
 73
     4
 74
     0
 42
0.0000000001
 43
0.0000000001
 40
0.0
 40
0.0
 40
0.0
 40
0.0
 40
1.0
 40
1.0
 40
1.0
 40
1.0
 10
9531.78400591387
 20
-4441.311396087097
 30
0.0
 10
9531.78400591387
 20
-4441.538772389179
 30
0.0
 10
9531.613129177758
 20
-4441.722912742913
 30
0.0
 10
9531.401858697075
 20
-4441.722912742913
 30
0.0
  0
LINE
  5
12D58F
330
18
100
AcDbEntity
  8
姿図
100
AcDbLine
 10
9531.401858697075
 20
-4441.722912742913
 30
0.0
 11
9531.284208686221
 21
-4444.515851653503
 31
0.0
  0
LINE
  5
12D590
330
18
100
AcDbEntity
  8
姿図
100
AcDbLine
 10
9527.34491425263
 20
-4441.811107187358
 30
0.0
 11
9527.433108697074
 21
-4444.633329409579
 31
0.0
  0
LINE
  5
12D591
330
18
100
AcDbEntity
  8
姿図
100
AcDbLine
 10
9527.638867024981
 20
-4441.75236830932
 30
0.0
 11
9527.491847575113
 21
-4444.603873843173
 31
0.0
  0
LINE
  5
12D592
330
18
100
AcDbEntity
  8
姿図
100
AcDbLine
 10
9527.874080919294
 20
-4438.753757198209
 30
0.0
 11
9527.580042019556
 21
-4441.722912742913
 31
0.0
  0
CIRCLE
  5
12D593
330
18
100
AcDbEntity
  8
姿図
100
AcDbCircle
 10
9529.420498155623
 20
-4443.619093298468
 30
0.0
 40
0.7760938856336806
  0
LINE
  5
12D594
330
18
100
AcDbEntity
  8
姿図
100
AcDbLine
 10
9527.962275363739
 20
-4438.812496076247
 30
0.0
 11
9531.343033691648
 21
-4438.783212764614
 31
0.0
  0
LINE
  5
12D595
330
18
100
AcDbEntity
  8
姿図
100
AcDbLine
 10
9527.638867024981
 20
-4441.75236830932
 30
0.0
 11
9531.166644802759
 21
-4441.781651620951
 31
0.0
  0
SPLINE
  5
12D596
330
18
100
AcDbEntity
  8
姿図
100
AcDbSpline
210
0.0
220
0.0
230
1.0
 70
     8
 71
     3
 72
     8
 73
     4
 74
     0
 42
0.0000000001
 43
0.0000000001
 40
0.0
 40
0.0
 40
0.0
 40
0.0
 40
1.0
 40
1.0
 40
1.0
 40
1.0
 10
9531.989764241778
 20
-4438.783212764614
 30
0.0
 10
9531.989764241778
 20
-4438.571856156541
 30
0.0
 10
9532.16064097789
 20
-4438.400979420429
 30
0.0
 10
9532.371911458573
 20
-4438.400979420429
 30
0.0
  0
LINE
  5
12D597
330
18
100
AcDbEntity
  8
姿図
100
AcDbLine
 10
9531.343033691648
 20
-4436.754568287618
 30
0.0
 11
9531.460597575113
 21
-4439.165273854024
 31
0.0
  0
SPLINE
  5
12D598
330
18
100
AcDbEntity
  8
姿図
100
AcDbSpline
210
0.0
220
0.0
230
1.0
 70
     8
 71
     3
 72
     8
 73
     4
 74
     0
 42
0.0000000001
 43
0.0000000001
 40
0.0
 40
0.0
 40
0.0
 40
0.0
 40
1.0
 40
1.0
 40
1.0
 40
1.0
 10
9527.34491425263
 20
-4441.811107187358
 30
0.0
 10
9527.409165283442
 20
-4441.811107187358
 30
0.0
 10
9526.815661458575
 20
-4441.781479366176
 30
0.0
 10
9526.786292019556
 20
-4438.606651620951
 30
0.0
  0
LINE
  5
12D599
330
18
100
AcDbEntity
  8
姿図
100
AcDbLine
 10
9527.801733914087
 20
-4437.150237504198
 30
0.0
 11
9527.874080919294
 21
-4438.812496076247
 31
0.0
  0
LINE
  5
12D59A
330
18
100
AcDbEntity
  8
姿図
100
AcDbLine
 10
9542.609873969427
 20
-4434.73350302069
 30
0.0
 11
9541.154665636094
 21
-4434.424822465135
 31
0.0
  0
LINE
  5
12D59B
330
18
100
AcDbEntity
  8
姿図
100
AcDbLine
 10
9536.330326172118
 20
-4436.95955146904
 30
0.0
 11
9536.339886312093
 21
-4437.495780581454
 31
0.0
  0
LINE
  5
12D59C
330
18
100
AcDbEntity
  8
姿図
100
AcDbLine
 10
9542.653971191649
 20
-4437.158850242913
 30
0.0
 11
9541.198762858316
 21
-4436.850169687357
 31
0.0
  0
LINE
  5
12D59D
330
18
100
AcDbEntity
  8
姿図
100
AcDbLine
 10
9542.653971191649
 20
-4436.497391909579
 30
0.0
 11
9541.198762858316
 21
-4436.188711354024
 31
0.0
  0
LINE
  5
12D59E
330
18
100
AcDbEntity
  8
姿図
100
AcDbLine
 10
9542.698068413871
 20
-4435.880030798469
 30
0.0
 11
9541.242860080535
 21
-4435.571350242913
 31
0.0
  0
LINE
  5
12D59F
330
18
100
AcDbEntity
  8
姿図
100
AcDbLine
 10
9542.698068413871
 20
-4435.350864131802
 30
0.0
 11
9541.242860080535
 21
-4435.042183576245
 31
0.0
  0
LINE
  5
12D5A0
330
18
100
AcDbEntity
  8
姿図
100
AcDbLine
 10
9542.653971191649
 20
-4438.393572465134
 30
0.0
 11
9541.198762858316
 21
-4438.084891909579
 31
0.0
  0
LINE
  5
12D5A1
330
18
100
AcDbEntity
  8
姿図
100
AcDbLine
 10
9542.653971191649
 20
-4437.776211354026
 30
0.0
 11
9541.198762858316
 21
-4437.467530798469
 31
0.0
  0
SPLINE
  5
12D5A2
330
18
100
AcDbEntity
  8
姿図
100
AcDbSpline
210
0.0
220
0.0
230
1.0
 70
     8
 71
     3
 72
     8
 73
     4
 74
     0
 42
0.0000000001
 43
0.0000000001
 40
0.0
 40
0.0
 40
0.0
 40
0.0
 40
1.0
 40
1.0
 40
1.0
 40
1.0
 10
9536.239547906058
 20
-4436.95472833536
 30
0.0
 10
9537.880791395641
 20
-4437.196229528938
 30
0.0
 10
9539.396805664305
 20
-4437.529025752896
 30
0.0
 10
9540.73884261092
 20
-4437.934341236836
 30
0.0
  0
SPLINE
  5
12D5A3
330
18
100
AcDbEntity
  8
姿図
100
AcDbSpline
210
0.0
220
0.0
230
1.0
 70
     8
 71
     3
 72
     8
 73
     4
 74
     0
 42
0.0000000001
 43
0.0000000001
 40
0.0
 40
0.0
 40
0.0
 40
0.0
 40
1.0
 40
1.0
 40
1.0
 40
1.0
 10
9536.33876665606
 20
-4437.504565574943
 30
0.0
 10
9537.956928005884
 20
-4437.736075991611
 30
0.0
 10
9539.439697103105
 20
-4438.058192419562
 30
0.0
 10
9540.733847222464
 20
-4438.4521390884
 30
0.0
  0
LINE
  5
12D5A4
330
18
100
AcDbEntity
  8
姿図
100
AcDbLine
 10
9542.609873969427
 20
-4434.160239131801
 30
0.0
 11
9541.154665636094
 21
-4433.851558576247
 31
0.0
  0
LINE
  5
12D5A5
330
18
100
AcDbEntity
  8
姿図
100
AcDbLine
 10
9542.609873969427
 20
-4433.586975242913
 30
0.0
 11
9541.154665636094
 21
-4433.278294687357
 31
0.0
  0
LINE
  5
12D5A6
330
18
100
AcDbEntity
  8
姿図
100
AcDbLine
 10
9542.609873969427
 20
-4432.92551690958
 30
0.0
 11
9541.154665636094
 21
-4432.616836354024
 31
0.0
  0
LINE
  5
12D5A7
330
18
100
AcDbEntity
  8
姿図
100
AcDbLine
 10
9542.653971191649
 20
-4432.396350242913
 30
0.0
 11
9541.198762858316
 21
-4432.087669687358
 31
0.0
  0
SPLINE
  5
12D5A8
330
18
100
AcDbEntity
  8
姿図
100
AcDbSpline
210
0.0
220
0.0
230
1.0
 70
     8
 71
     3
 72
     8
 73
     4
 74
     0
 42
0.0000000001
 43
0.0000000001
 40
0.0
 40
0.0
 40
0.0
 40
0.0
 40
1.0
 40
1.0
 40
1.0
 40
1.0
 10
9540.660294433836
 20
-4432.650942799337
 30
0.0
 10
9540.660294433836
 20
-4433.073483760709
 30
0.0
 10
9539.40662418644
 20
-4434.005554344476
 30
0.0
 10
9538.250794650847
 20
-4433.195612395691
 30
0.0
  0
LINE
  5
12D5A9
330
18
100
AcDbEntity
  8
姿図
100
AcDbLine
 10
9538.286451389129
 20
-4433.761813838834
 30
0.0
 11
9536.209317193167
 21
-4432.312289913052
 31
0.0
  0
SPLINE
  5
12D5AA
330
18
100
AcDbEntity
  8
姿図
100
AcDbSpline
210
0.0
220
0.0
230
1.0
 70
     8
 71
     3
 72
     8
 73
     4
 74
     0
 42
0.0000000001
 43
0.0000000001
 40
0.0
 40
0.0
 40
0.0
 40
0.0
 40
1.0
 40
1.0
 40
1.0
 40
1.0
 10
9538.185423964002
 20
-4433.698251827114
 30
0.0
 10
9539.341339626981
 20
-4434.508193775899
 30
0.0
 10
9540.677003146942
 20
-4433.583185637878
 30
0.0
 10
9540.677003146942
 20
-4433.160644676507
 30
0.0
  0
LINE
  5
12D5AB
330
18
100
AcDbEntity
  8
姿図
100
AcDbLine
 10
9536.252553141521
 20
-4440.78222942043
 30
0.0
 11
9536.311292019556
 21
-4443.428062753763
 31
0.0
  0
SPLINE
  5
12D5AC
330
18
100
AcDbEntity
  8
姿図
100
AcDbSpline
210
0.0
220
0.0
230
1.0
 70
     8
 71
     3
 72
     8
 73
     4
 74
     0
 42
0.0000000001
 43
0.0000000001
 40
0.0
 40
0.0
 40
0.0
 40
0.0
 40
1.0
 40
1.0
 40
1.0
 40
1.0
 10
9536.340747585962
 20
-4443.398607187357
 30
0.0
 10
9536.340747585962
 20
-4443.642347692999
 30
0.0
 10
9536.459086615909
 20
-4443.839579409579
 30
0.0
 10
9536.605330919297
 20
-4443.839579409579
 30
0.0
  0
SPLINE
  5
12D5AD
330
18
100
AcDbEntity
  8
姿図
100
AcDbSpline
210
0.0
220
0.0
230
1.0
 70
     8
 71
     3
 72
     8
 73
     4
 74
     0
 42
0.0000000001
 43
0.0000000001
 40
0.0
 40
0.0
 40
0.0
 40
0.0
 40
1.0
 40
1.0
 40
1.0
 40
1.0
 10
9536.605330919297
 20
-4443.839579409579
 30
0.0
 10
9537.105042019556
 20
-4443.95722942043
 30
0.0
 10
9539.662767035833
 20
-4444.133618309319
 30
0.0
 10
9540.868033691648
 20
-4444.574590531542
 30
0.0
  0
SPLINE
  5
12D5AE
330
18
100
AcDbEntity
  8
姿図
100
AcDbSpline
210
0.0
220
0.0
230
1.0
 70
     8
 71
     3
 72
     8
 73
     4
 74
     0
 42
0.0000000001
 43
0.0000000001
 40
0.0
 40
0.0
 40
0.0
 40
0.0
 40
1.0
 40
1.0
 40
1.0
 40
1.0
 10
9541.279550347464
 20
-4444.339462764614
 30
0.0
 10
9541.279550347464
 20
-4444.453150915656
 30
0.0
 10
9541.128655165172
 20
-4444.6465930272
 30
0.0
 10
9540.779839247205
 20
-4444.545134965135
 30
0.0
  0
LINE
  5
12D5AF
330
18
100
AcDbEntity
  8
姿図
100
AcDbLine
 10
9542.786262858315
 20
-4441.965447465135
 30
0.0
 11
9541.331054524979
 21
-4441.656766909579
 31
0.0
  0
LINE
  5
12D5B0
330
18
100
AcDbEntity
  8
姿図
100
AcDbLine
 10
9542.786262858315
 20
-4441.392183576247
 30
0.0
 11
9541.331054524979
 21
-4441.083503020691
 31
0.0
  0
LINE
  5
12D5B1
330
18
100
AcDbEntity
  8
姿図
100
AcDbLine
 10
9542.742165636093
 20
-4440.774822465135
 30
0.0
 11
9541.286957302757
 21
-4440.466141909579
 31
0.0
  0
LINE
  5
12D5B2
330
18
100
AcDbEntity
  8
姿図
100
AcDbLine
 10
9542.742165636093
 20
-4440.157461354024
 30
0.0
 11
9541.286957302757
 21
-4439.848780798469
 31
0.0
  0
LINE
  5
12D5B3
330
18
100
AcDbEntity
  8
姿図
100
AcDbLine
 10
9542.698068413871
 20
-4439.584197465136
 30
0.0
 11
9541.242860080535
 21
-4439.27551690958
 31
0.0
  0
LINE
  5
12D5B4
330
18
100
AcDbEntity
  8
姿図
100
AcDbLine
 10
9542.653971191649
 20
-4439.010933576245
 30
0.0
 11
9541.198762858316
 21
-4438.702253020689
 31
0.0
  0
LINE
  5
12D5B5
330
18
100
AcDbEntity
  8
姿図
100
AcDbLine
 10
9536.339886312093
 20
-4437.495780581454
 30
0.0
 11
9536.399486464
 21
-4440.840968298469
 31
0.0
  0
SPLINE
  5
12D5B6
330
18
100
AcDbEntity
  8
姿図
100
AcDbSpline
210
0.0
220
0.0
230
1.0
 70
     8
 71
     3
 72
     8
 73
     4
 74
     0
 42
0.0000000001
 43
0.0000000001
 40
0.0
 40
0.0
 40
0.0
 40
0.0
 40
1.0
 40
1.0
 40
1.0
 40
1.0
 10
9522.391297580536
 20
-4427.325169687358
 30
0.0
 10
9526.315950358315
 20
-4426.884197465135
 30
0.0
 10
9530.725672580539
 20
-4428.868572465135
 30
0.0
 10
9532.930533691647
 20
-4430.235586354024
 30
0.0
  0
SPLINE
  5
12D5B7
330
18
100
AcDbEntity
  8
姿図
100
AcDbSpline
210
0.0
220
0.0
230
1.0
 70
     8
 71
     3
 72
     8
 73
     4
 74
     0
 42
0.0000000001
 43
0.0000000001
 40
0.0
 40
0.0
 40
0.0
 40
0.0
 40
1.0
 40
1.0
 40
1.0
 40
1.0
 10
9533.018728136092
 20
-4429.596176631801
 30
0.0
 10
9532.913566596379
 20
-4429.596176631801
 30
0.0
 10
9523.329397081402
 20
-4423.768883744432
 30
0.0
 10
9518.260886474848
 20
-4428.596754431281
 30
0.0
  0
SPLINE
  5
12D5B8
330
18
100
AcDbEntity
  8
姿図
100
AcDbSpline
210
0.0
220
0.0
230
1.0
 70
     8
 71
     3
 72
     8
 73
     4
 74
     0
 42
0.0000000001
 43
0.0000000001
 40
6.0
 40
6.0
 40
6.0
 40
6.0
 40
7.0
 40
7.0
 40
7.0
 40
7.0
 10
9520.088595757618
 20
-4426.282339283711
 30
0.0
 10
9521.592379937308
 20
-4424.339477684319
 30
0.0
 10
9523.845214003065
 20
-4421.792776973599
 30
0.0
 10
9526.111397813826
 20
-4418.926113019606
 30
0.0
  0
SPLINE
  5
12D5B9
330
18
100
AcDbEntity
  8
姿図
100
AcDbSpline
210
0.0
220
0.0
230
1.0
 70
     8
 71
     3
 72
     8
 73
     4
 74
     0
 42
0.0000000001
 43
0.0000000001
 40
5.0
 40
5.0
 40
5.0
 40
5.0
 40
6.0
 40
6.0
 40
6.0
 40
6.0
 10
9517.532076524764
 20
-4429.648714337965
 30
0.0
 10
9518.406355631752
 20
-4428.098593623989
 30
0.0
 10
9519.674753662352
 20
-4426.748116193434
 30
0.0
 10
9520.088595757618
 20
-4426.282339283711
 30
0.0
  0
LINE
  5
12D5BA
330
18
100
AcDbEntity
  8
姿図
100
AcDbLine
 10
9557.866823839217
 20
-4401.281798105326
 30
0.0
 11
9556.794670250342
 21
-4402.843256687783
 31
0.0
  0
LINE
  5
12D5BB
330
18
100
AcDbEntity
  8
姿図
100
AcDbLine
 10
9557.389850369167
 20
-4403.28477662095
 30
0.0
 11
9556.478450358314
 21
-4402.608676631802
 31
0.0
  0
SPLINE
  5
12D5BC
330
18
100
AcDbEntity
  8
姿図
100
AcDbSpline
210
0.0
220
0.0
230
1.0
 70
     8
 71
     3
 72
     8
 73
     4
 74
     0
 42
0.0000000001
 43
0.0000000001
 40
0.0
 40
0.0
 40
0.0
 40
0.0
 40
1.0
 40
1.0
 40
1.0
 40
1.0
 10
9561.152066894775
 20
-4404.037874494215
 30
0.0
 10
9562.210400228105
 20
-4402.626763383103
 30
0.0
 10
9559.542518283665
 20
-4399.363568938659
 30
0.0
 10
9557.866823839217
 20
-4401.281798105326
 30
0.0
  0
LINE
  5
12D5BD
330
18
100
AcDbEntity
  8
姿図
100
AcDbLine
 10
9555.684700358311
 20
-4402.785065520691
 30
0.0
 11
9551.980533691649
 21
-4408.635268293043
 31
0.0
  0
LINE
  5
12D5BE
330
18
100
AcDbEntity
  8
姿図
100
AcDbLine
 10
9555.473343750241
 20
-4402.575517587748
 30
0.0
 11
9551.322520453799
 21
-4409.047215585795
 31
0.0
  0
ELLIPSE
  5
12D5BF
330
18
100
AcDbEntity
  8
姿図
100
AcDbEllipse
 10
9554.493386339219
 20
-4410.274875362271
 30
0.0
 11
-1.128268771701389
 21
0.9467983669704858
 31
0.0
210
0.0
220
0.0
230
0.9999999999999998
 40
0.7417511887598579
 41
0.0
 42
6.283185307179585
  0
SPLINE
  5
12D5C0
330
18
100
AcDbEntity
  8
姿図
100
AcDbSpline
210
0.0
220
0.0
230
1.0
 70
     8
 71
     3
 72
     8
 73
     4
 74
     0
 42
0.0000000001
 43
0.0000000001
 40
0.0
 40
0.0
 40
0.0
 40
0.0
 40
1.0
 40
1.0
 40
1.0
 40
1.0
 10
9554.141297580535
 20
-4412.943963090135
 30
0.0
 10
9553.439359375245
 20
-4412.706940520691
 30
0.0
 10
9553.027842719426
 20
-4413.252643645691
 30
0.0
 10
9552.862478136091
 20
-4413.53005995971
 30
0.0
  0
SPLINE
  5
12D5C1
330
18
100
AcDbEntity
  8
姿図
100
AcDbSpline
210
0.0
220
0.0
230
1.0
 70
     8
 71
     3
 72
     8
 73
     4
 74
     0
 42
0.0000000001
 43
0.0000000001
 40
0.0
 40
0.0
 40
0.0
 40
0.0
 40
1.0
 40
1.0
 40
1.0
 40
1.0
 10
9553.948645926622
 20
-4413.35004101036
 30
0.0
 10
9553.240921875241
 20
-4413.147912742913
 30
0.0
 10
9552.829405219425
 20
-4413.693615867913
 30
0.0
 10
9552.614172546425
 20
-4413.919217967158
 30
0.0
  0
LINE
  5
12D5C2
330
18
100
AcDbEntity
  8
姿図
100
AcDbLine
 10
9552.682600893337
 20
-4417.002666623524
 30
0.0
 11
9554.333942976876
 21
-4413.468055406492
 31
0.0
  0
LINE
  5
12D5C3
330
18
100
AcDbEntity
  8
姿図
100
AcDbLine
 10
9546.512478136094
 20
-4414.999996076247
 30
0.0
 11
9550.040255913874
 21
-4409.620134965134
 31
0.0
  0
SPLINE
  5
12D5C4
330
18
100
AcDbEntity
  8
姿図
100
AcDbSpline
210
0.0
220
0.0
230
1.0
 70
     8
 71
     3
 72
     8
 73
     4
 74
     0
 42
0.0000000001
 43
0.0000000001
 40
0.0
 40
0.0
 40
0.0
 40
0.0
 40
1.0
 40
1.0
 40
1.0
 40
1.0
 10
9551.980533691649
 20
-4408.635268293043
 30
0.0
 10
9551.892339247203
 20
-4408.929221065395
 30
0.0
 10
9551.333889268907
 20
-4409.16443495971
 30
0.0
 10
9551.01039480276
 20
-4409.076240515264
 30
0.0
  0
SPLINE
  5
12D5C5
330
18
100
AcDbEntity
  8
姿図
100
AcDbSpline
210
0.0
220
0.0
230
1.0
 70
     8
 71
     3
 72
     8
 73
     4
 74
     0
 42
0.0000000001
 43
0.0000000001
 40
0.0
 40
0.0
 40
0.0
 40
0.0
 40
1.0
 40
1.0
 40
1.0
 40
1.0
 10
9550.040255913874
 20
-4409.576037742912
 30
0.0
 10
9550.304839247205
 20
-4409.223259965135
 30
0.0
 10
9550.474165690346
 20
-4409.076240515264
 30
0.0
 10
9551.01039480276
 20
-4409.076240515264
 30
0.0
  0
SPLINE
  5
12D5C6
330
18
100
AcDbEntity
  8
姿図
100
AcDbSpline
210
0.0
220
0.0
230
1.0
 70
     8
 71
     3
 72
     8
 73
     4
 74
     0
 42
0.0000000001
 43
0.0000000001
 40
0.134000468148693
 40
0.134000468148693
 40
0.134000468148693
 40
0.134000468148693
 40
1.0
 40
1.0
 40
1.0
 40
1.0
 10
9552.682600893337
 20
-4417.002666623524
 30
0.0
 10
9552.58522088563
 20
-4417.155096722334
 30
0.0
 10
9552.536224946749
 20
-4417.325590560603
 30
0.0
 10
9552.619254394771
 20
-4417.388308521993
 30
0.0
  0
LINE
  5
12D5C7
330
18
100
AcDbEntity
  8
姿図
100
AcDbLine
 10
9557.213461480278
 20
-4403.578815520691
 30
0.0
 11
9557.36039480276
 21
-4403.343601626377
 31
0.0
  0
LINE
  5
12D5C8
330
18
100
AcDbEntity
  8
姿図
100
AcDbLine
 10
9556.890139268904
 20
-4412.574648854024
 30
0.0
 11
9560.476655924722
 21
-4406.812554398729
 31
0.0
  0
SPLINE
  5
12D5C9
330
18
100
AcDbEntity
  8
姿図
100
AcDbSpline
210
0.0
220
0.0
230
1.0
 70
     8
 71
     3
 72
     8
 73
     4
 74
     0
 42
0.0000000001
 43
0.0000000001
 40
0.0
 40
0.0
 40
0.0
 40
0.0
 40
1.0
 40
1.0
 40
1.0
 40
1.0
 10
9556.890139268904
 20
-4412.574648854024
 30
0.0
 10
9556.360972602236
 20
-4413.750546070822
 30
0.0
 10
9554.67821571205
 20
-4413.316808549121
 30
0.0
 10
9554.141297580535
 20
-4412.943963090135
 30
0.0
  0
SPLINE
  5
12D5CA
330
18
100
AcDbEntity
  8
姿図
100
AcDbSpline
210
0.0
220
0.0
230
1.0
 70
     8
 71
     3
 72
     8
 73
     4
 74
     0
 42
0.0000000001
 43
0.0000000001
 40
0.0
 40
0.0
 40
0.0
 40
0.0
 40
0.8940086046754551
 40
0.8940086046754551
 40
0.8940086046754551
 40
0.8940086046754551
 10
9556.62735920942
 20
-4412.958252448831
 30
0.0
 10
9556.097228503622
 20
-4413.837583710917
 30
0.0
 10
9554.807197052564
 20
-4413.651855977843
 30
0.0
 10
9553.948645926622
 20
-4413.35004101036
 30
0.0
  0
SPLINE
  5
12D5CB
330
18
100
AcDbEntity
  8
姿図
100
AcDbSpline
210
0.0
220
0.0
230
1.0
 70
     8
 71
     3
 72
     8
 73
     4
 74
     0
 42
0.0000000001
 43
0.0000000001
 40
1.0
 40
1.0
 40
1.0
 40
1.0
 40
2.0
 40
2.0
 40
2.0
 40
2.0
 10
9557.091802343411
 20
-4406.346996210086
 30
0.0
 10
9557.699344932384
 20
-4406.856784214644
 30
0.0
 10
9557.895887629866
 20
-4407.628830113081
 30
0.0
 10
9557.545865928478
 20
-4408.095468296674
 30
0.0
  0
SPLINE
  5
12D5CC
330
18
100
AcDbEntity
  8
姿図
100
AcDbSpline
210
0.0
220
0.0
230
1.0
 70
     8
 71
     3
 72
     8
 73
     4
 74
     0
 42
0.0000000001
 43
0.0000000001
 40
0.0
 40
0.0
 40
0.0
 40
0.0
 40
1.0
 40
1.0
 40
1.0
 40
1.0
 10
9555.310860231864
 20
-4406.183095792335
 30
0.0
 10
9555.715486696708
 20
-4405.779847365685
 30
0.0
 10
9556.494078276569
 20
-4405.845476434696
 30
0.0
 10
9557.091802343411
 20
-4406.346996210086
 30
0.0
  0
SPLINE
  5
12D5CD
330
18
100
AcDbEntity
  8
姿図
100
AcDbSpline
210
0.0
220
0.0
230
1.0
 70
     8
 71
     3
 72
     8
 73
     4
 74
     0
 42
0.0000000001
 43
0.0000000001
 40
0.0
 40
0.0
 40
0.0
 40
0.0
 40
1.0
 40
1.0
 40
1.0
 40
1.0
 10
9560.447200358314
 20
-4405.871871076246
 30
0.0
 10
9560.479756510655
 20
-4405.871871076246
 30
0.0
 10
9560.77069482446
 20
-4406.371582176507
 30
0.0
 10
9560.476655924722
 20
-4406.842009965135
 30
0.0
  0
LINE
  5
12D5CE
330
18
100
AcDbEntity
  8
姿図
100
AcDbLine
 10
9560.447200358314
 20
-4405.84241550984
 30
0.0
 11
9559.418322591389
 21
-4404.960471065396
 31
0.0
  0
LINE
  5
12D5CF
330
18
100
AcDbEntity
  8
姿図
100
AcDbLine
 10
9559.124283691646
 20
-4405.254509965135
 30
0.0
 11
9559.418322591389
 21
-4404.960471065396
 31
0.0
  0
ELLIPSE
  5
12D5D0
330
18
100
AcDbEntity
  8
姿図
100
AcDbEllipse
 10
9556.66767222789
 20
-4406.879173932693
 30
0.0
 11
-1.159877522786457
 21
0.9731964111328125
 31
0.0
210
0.0
220
0.0
230
1.0
 40
0.7351229721554963
 41
0.0
 42
6.283185307179585
  0
ELLIPSE
  5
12D5D1
330
18
100
AcDbEntity
  8
姿図
100
AcDbEllipse
 10
9554.445374523396
 20
-4410.250713227562
 30
0.0
 11
-0.6214952256944444
 21
0.5215874565972224
 31
0.0
210
0.0
220
0.0
230
1.0
 40
0.7351581471724162
 41
0.0
 42
6.283185307179585
  0
LINE
  5
12D5D2
330
18
100
AcDbEntity
  8
姿図
100
AcDbLine
 10
9561.152066894775
 20
-4404.037874494215
 30
0.0
 11
9560.137615448025
 21
-4405.577042206526
 31
0.0
  0
LINE
  5
12D5D3
330
18
100
AcDbEntity
  8
姿図
100
AcDbLine
 10
9559.124283691646
 20
-4405.254509965135
 30
0.0
 11
9557.213461480278
 21
-4403.578815520691
 31
0.0
  0
SPLINE
  5
12D5D4
330
18
100
AcDbEntity
  8
姿図
100
AcDbSpline
210
0.0
220
0.0
230
1.0
 70
     8
 71
     3
 72
     8
 73
     4
 74
     0
 42
0.0000000001
 43
0.0000000001
 40
0.0
 40
0.0
 40
0.0
 40
0.0
 40
1.0
 40
1.0
 40
1.0
 40
1.0
 10
9555.684700358311
 20
-4402.785065520691
 30
0.0
 10
9556.066933702499
 20
-4402.138248843174
 30
0.0
 10
9556.478450358314
 20
-4402.706172834058
 30
0.0
 10
9556.478450358314
 20
-4402.608676631802
 30
0.0
  0
SPLINE
  5
12D5D5
330
18
100
AcDbEntity
  8
姿図
100
AcDbSpline
210
0.0
220
0.0
230
1.0
 70
     8
 71
     3
 72
     8
 73
     4
 74
     0
 42
0.0000000001
 43
0.0000000001
 40
0.0
 40
0.0
 40
0.0
 40
0.0
 40
1.0
 40
1.0
 40
1.0
 40
1.0
 10
9555.473343750241
 20
-4402.575517587748
 30
0.0
 10
9555.855404839649
 20
-4401.95832873141
 30
0.0
 10
9556.266921495465
 20
-4402.526252722297
 30
0.0
 10
9556.266921495465
 20
-4402.428756520039
 30
0.0
  0
SPLINE
  5
12D5D6
330
18
100
AcDbEntity
  8
姿図
100
AcDbSpline
210
0.0
220
0.0
230
1.0
 70
     8
 71
     3
 72
     8
 73
     4
 74
     0
 42
0.0000000001
 43
0.0000000001
 40
0.0
 40
0.0
 40
0.0
 40
0.0
 40
1.0
 40
1.0
 40
1.0
 40
1.0
 10
9532.973941894773
 20
-4412.173811994215
 30
0.0
 10
9533.613351616997
 20
-4411.490305049771
 30
0.0
 10
9534.914219672554
 20
-4410.343777271994
 30
0.0
 10
9537.07498356144
 20
-4410.07919393866
 30
0.0
  0
SPLINE
  5
12D5D7
330
18
100
AcDbEntity
  8
姿図
100
AcDbSpline
210
0.0
220
0.0
230
1.0
 70
     8
 71
     3
 72
     8
 73
     4
 74
     0
 42
0.0000000001
 43
0.0000000001
 40
0.0
 40
0.0
 40
0.0
 40
0.0
 40
1.0
 40
1.0
 40
1.0
 40
1.0
 10
9534.010226616997
 20
-4410.894992549771
 30
0.0
 10
9534.737830783665
 20
-4410.32172866088
 30
0.0
 10
9535.619775228106
 20
-4409.792561994215
 30
0.0
 10
9537.405712728109
 20
-4409.351589771994
 30
0.0
  0
SPLINE
  5
12D5D8
330
18
100
AcDbEntity
  8
姿図
100
AcDbSpline
210
0.0
220
0.0
230
1.0
 70
     8
 71
     3
 72
     8
 73
     4
 74
     0
 42
0.0000000001
 43
0.0000000001
 40
8.718707976915393
 40
8.718707976915393
 40
8.718707976915393
 40
8.718707976915393
 40
9.0
 40
9.0
 40
9.0
 40
9.0
 10
9532.811323286457
 20
-4412.388773164574
 30
0.0
 10
9533.112633981721
 20
-4411.964190276362
 30
0.0
 10
9533.352219883502
 20
-4411.645586224454
 30
0.0
 10
9534.010226616997
 20
-4410.894992549771
 30
0.0
  0
SPLINE
  5
12D5D9
330
18
100
AcDbEntity
  8
姿図
100
AcDbSpline
210
0.0
220
0.0
230
1.0
 70
     8
 71
     3
 72
     8
 73
     4
 74
     0
 42
0.0000000001
 43
0.0000000001
 40
7.0
 40
7.0
 40
7.0
 40
7.0
 40
8.0
 40
8.0
 40
8.0
 40
8.0
 10
9526.111397813826
 20
-4418.926113019606
 30
0.0
 10
9528.582392551241
 20
-4415.80029175767
 30
0.0
 10
9530.970532742212
 20
-4412.535977657193
 30
0.0
 10
9532.721158013481
 20
-4412.41445191392
 30
0.0
  0
SPLINE
  5
12D5DA
330
18
100
AcDbEntity
  8
姿図
100
AcDbSpline
210
0.0
220
0.0
230
1.0
 70
     8
 71
     3
 72
     8
 73
     4
 74
     0
 42
0.0000000001
 43
0.0000000001
 40
0.0
 40
0.0
 40
0.0
 40
0.0
 40
1.0
 40
1.0
 40
1.0
 40
1.0
 10
9546.512478136094
 20
-4414.999996076247
 30
0.0
 10
9541.666434570554
 20
-4412.202061777201
 30
0.0
 10
9535.532355930147
 20
-4411.588662525899
 30
0.0
 10
9532.721158013481
 20
-4412.41445191392
 30
0.0
  0
SPLINE
  5
12D5DB
330
18
100
AcDbEntity
  8
姿図
100
AcDbSpline
210
0.0
220
0.0
230
1.0
 70
     8
 71
     3
 72
     8
 73
     4
 74
     0
 42
0.0000000001
 43
0.0000000001
 40
0.0106763948050698
 40
0.0106763948050698
 40
0.0106763948050698
 40
0.0106763948050698
 40
1.0
 40
1.0
 40
1.0
 40
1.0
 10
9547.713763053595
 20
-4413.168036577056
 30
0.0
 10
9545.986572920279
 20
-4411.85685349721
 30
0.0
 10
9541.06680125386
 20
-4409.446610807074
 30
0.0
 10
9537.07498356144
 20
-4410.07919393866
 30
0.0
  0
SPLINE
  5
12D5DC
330
18
100
AcDbEntity
  8
姿図
100
AcDbSpline
210
0.0
220
0.0
230
1.0
 70
     8
 71
     3
 72
     8
 73
     4
 74
     0
 42
0.0000000001
 43
0.0000000001
 40
0.0
 40
0.0
 40
0.0
 40
0.0
 40
0.9548759970193254
 40
0.9548759970193254
 40
0.9548759970193254
 40
0.9548759970193254
 10
9537.405712728109
 20
-4409.351589771994
 30
0.0
 10
9543.321799482555
 20
-4409.098945497781
 30
0.0
 10
9546.724928390871
 20
-4411.520088371855
 30
0.0
 10
9548.210191108996
 20
-4412.410983792568
 30
0.0
  0
LINE
  5
12D5DD
330
18
100
AcDbEntity
  8
姿図
100
AcDbLine
 10
9552.176712686572
 20
-4429.96079775875
 30
0.0
 11
9550.795322712547
 21
-4431.312779984661
 31
0.0
  0
LINE
  5
12D5DE
330
18
100
AcDbEntity
  8
姿図
100
AcDbLine
 10
9552.063615938438
 20
-4429.489983368358
 30
0.0
 11
9550.689699380795
 21
-4430.7783622076
 31
0.0
  0
LINE
  5
12D5DF
330
18
100
AcDbEntity
  8
姿図
100
AcDbLine
 10
9551.896157898948
 20
-4428.919395382767
 30
0.0
 11
9550.499426558879
 21
-4430.115918137843
 31
0.0
  0
LINE
  5
12D5E0
330
18
100
AcDbEntity
  8
姿図
100
AcDbLine
 10
9551.70177536039
 20
-4428.363220441594
 30
0.0
 11
9550.310930701652
 21
-4429.592564922034
 31
0.0
  0
LINE
  5
12D5E1
330
18
100
AcDbEntity
  8
姿図
100
AcDbLine
 10
9551.480658165127
 20
-4427.814461566915
 30
0.0
 11
9550.063504514396
 21
-4429.013332294686
 31
0.0
  0
SPLINE
  5
12D5E2
330
18
100
AcDbEntity
  8
姿図
100
AcDbSpline
210
0.0
220
0.0
230
1.0
 70
     8
 71
     3
 72
     8
 73
     4
 74
     0
 42
0.0000000001
 43
0.0000000001
 40
35.0
 40
35.0
 40
35.0
 40
35.0
 40
36.0
 40
36.0
 40
36.0
 40
36.0
 10
9557.11717106144
 20
-4423.08046753892
 30
0.0
 10
9557.356432942951
 20
-4424.18186456583
 30
0.0
 10
9558.081625542778
 20
-4426.745876881369
 30
0.0
 10
9555.776684407794
 20
-4429.258040509839
 30
0.0
  0
SPLINE
  5
12D5E3
330
18
100
AcDbEntity
  8
姿図
100
AcDbSpline
210
0.0
220
0.0
230
1.0
 70
     8
 71
     3
 72
     8
 73
     4
 74
     0
 42
0.0000000001
 43
0.0000000001
 40
0.3748330610719267
 40
0.3748330610719267
 40
0.3748330610719267
 40
0.3748330610719267
 40
0.9335741083362055
 40
0.9335741083362055
 40
0.9335741083362055
 40
0.9335741083362055
 10
9550.689050945097
 20
-4430.794064471109
 30
0.0
 10
9550.035342638681
 20
-4427.962177577329
 30
0.0
 10
9547.564266398207
 20
-4425.073325469859
 30
0.0
 10
9546.356468499579
 20
-4423.726631651799
 30
0.0
  0
LINE
  5
12D5E4
330
18
100
AcDbEntity
  8
姿図
100
AcDbLine
 10
9547.938675941741
 20
-4422.506960953144
 30
0.0
 11
9546.675012399838
 21
-4424.085457432484
 31
0.0
  0
LINE
  5
12D5E5
330
18
100
AcDbEntity
  8
姿図
100
AcDbLine
 10
9549.606337018216
 20
-4424.565138590309
 30
0.0
 11
9548.250371366448
 21
-4426.028277063519
 31
0.0
  0
LINE
  5
12D5E6
330
18
100
AcDbEntity
  8
姿図
100
AcDbLine
 10
9549.297304868472
 20
-4424.121132727081
 30
0.0
 11
9547.902143600062
 21
-4425.56796413523
 31
0.0
  0
LINE
  5
12D5E7
330
18
100
AcDbEntity
  8
姿図
100
AcDbLine
 10
9548.890574294714
 20
-4423.625269564091
 30
0.0
 11
9547.529484797598
 21
-4425.097337190988
 31
0.0
  0
LINE
  5
12D5E8
330
18
100
AcDbEntity
  8
姿図
100
AcDbLine
 10
9548.437195160248
 20
-4423.076657253156
 30
0.0
 11
9547.115377770422
 21
-4424.596636815159
 31
0.0
  0
LINE
  5
12D5E9
330
18
100
AcDbEntity
  8
姿図
100
AcDbLine
 10
9550.348453929395
 20
-4425.668717434516
 30
0.0
 11
9548.939397680895
 21
-4427.015096567531
 31
0.0
  0
LINE
  5
12D5EA
330
18
100
AcDbEntity
  8
姿図
100
AcDbLine
 10
9549.961098142949
 20
-4425.073014680771
 30
0.0
 11
9548.580802332956
 21
-4426.487142072629
 31
0.0
  0
LINE
  5
12D5EB
330
18
100
AcDbEntity
  8
姿図
100
AcDbLine
 10
9551.282968532266
 20
-4427.374816305421
 30
0.0
 11
9549.846616032661
 21
-4428.565987505293
 31
0.0
  0
LINE
  5
12D5EC
330
18
100
AcDbEntity
  8
姿図
100
AcDbLine
 10
9550.983660963757
 20
-4426.773584654855
 30
0.0
 11
9549.558396183835
 21
-4428.028539185344
 31
0.0
  0
LINE
  5
12D5ED
330
18
100
AcDbEntity
  8
姿図
100
AcDbLine
 10
9550.686095460733
 20
-4426.232293922288
 30
0.0
 11
9549.29412049695
 21
-4427.576674742922
 31
0.0
  0
LINE
  5
12D5EE
330
18
100
AcDbEntity
  8
姿図
100
AcDbLine
 10
9534.576858697072
 20
-4428.964173864875
 30
0.0
 11
9536.076164252628
 21
-4429.287668331022
 31
0.0
  0
LINE
  5
12D5EF
330
18
100
AcDbEntity
  8
姿図
100
AcDbLine
 10
9534.576858697072
 20
-4429.493340531541
 30
0.0
 11
9536.076164252628
 21
-4429.816834997687
 31
0.0
  0
LINE
  5
12D5F0
330
18
100
AcDbEntity
  8
姿図
100
AcDbLine
 10
9534.576858697072
 20
-4430.110701642652
 30
0.0
 11
9536.076164252628
 21
-4430.434196108798
 31
0.0
  0
LINE
  5
12D5F1
330
18
100
AcDbEntity
  8
姿図
100
AcDbLine
 10
9534.694508707927
 20
-4430.75751832017
 30
0.0
 11
9536.193814263482
 21
-4431.081012786316
 31
0.0
  0
LINE
  5
12D5F2
330
18
100
AcDbEntity
  8
姿図
100
AcDbLine
 10
9534.694508707927
 20
-4431.345423864876
 30
0.0
 11
9536.193814263482
 21
-4431.668918331021
 31
0.0
  0
LINE
  5
12D5F3
330
18
100
AcDbEntity
  8
姿図
100
AcDbLine
 10
9542.653971191649
 20
-4431.734891909579
 30
0.0
 11
9541.198762858316
 21
-4431.426211354025
 31
0.0
  0
LINE
  5
12D5F4
330
18
100
AcDbEntity
  8
姿図
100
AcDbLine
 10
9542.565776747204
 20
-4431.073433576245
 30
0.0
 11
9541.110568413873
 21
-4430.76475302069
 31
0.0
  0
LINE
  5
12D5F5
330
18
100
AcDbEntity
  8
姿図
100
AcDbLine
 10
9542.521679524982
 20
-4430.456072465134
 30
0.0
 11
9541.066471191649
 21
-4430.14739190958
 31
0.0
  0
LINE
  5
12D5F6
330
18
100
AcDbEntity
  8
姿図
100
AcDbLine
 10
9542.521679524982
 20
-4429.882808576247
 30
0.0
 11
9541.066471191649
 21
-4429.574128020691
 31
0.0
  0
LINE
  5
12D5F7
330
18
100
AcDbEntity
  8
姿図
100
AcDbLine
 10
9542.515973529061
 20
-4429.371312888903
 30
0.0
 11
9541.060765195728
 21
-4429.062632333349
 31
0.0
  0
SPLINE
  5
12D5F8
330
18
100
AcDbEntity
  8
姿図
100
AcDbSpline
210
0.0
220
0.0
230
1.0
 70
     8
 71
     3
 72
     8
 73
     4
 74
     0
 42
0.0000000001
 43
0.0000000001
 40
0.0
 40
0.0
 40
0.0
 40
0.0
 40
1.0
 40
1.0
 40
1.0
 40
1.0
 10
9543.139040636093
 20
-4429.926905798469
 30
0.0
 10
9543.139040636093
 20
-4429.609957013746
 30
0.0
 10
9542.912181098333
 20
-4429.35364190958
 30
0.0
 10
9542.631922580538
 20
-4429.35364190958
 30
0.0
  0
LINE
  5
12D5F9
330
18
100
AcDbEntity
  8
姿図
100
AcDbLine
 10
9541.060614529323
 20
-4428.586246890048
 30
0.0
 11
9542.471725640433
 21
-4428.894927445604
 31
0.0
  0
SPLINE
  5
12D5FA
330
18
100
AcDbEntity
  8
姿図
100
AcDbSpline
210
0.0
220
0.0
230
1.0
 70
     8
 71
     3
 72
     8
 73
     4
 74
     0
 42
0.0000000001
 43
0.0000000001
 40
0.0
 40
0.0
 40
0.0
 40
0.0
 40
1.0
 40
1.0
 40
1.0
 40
1.0
 10
9540.649980665648
 20
-4428.736098915582
 30
0.0
 10
9540.690116028059
 20
-4428.534905339193
 30
0.0
 10
9540.981915615734
 20
-4428.484606945096
 30
0.0
 10
9541.052367818423
 20
-4428.555059147788
 30
0.0
  0
LINE
  5
12D5FB
330
18
100
AcDbEntity
  8
姿図
100
AcDbLine
 10
9534.606228136095
 20
-4427.288479420431
 30
0.0
 11
9536.10553369165
 21
-4427.611801631801
 31
0.0
  0
LINE
  5
12D5FC
330
18
100
AcDbEntity
  8
姿図
100
AcDbLine
 10
9534.576858697072
 20
-4428.346812753765
 30
0.0
 11
9536.076164252628
 21
-4428.670307219911
 31
0.0
  0
LINE
  5
12D5FD
330
18
100
AcDbEntity
  8
姿図
100
AcDbLine
 10
9534.576858697072
 20
-4427.75890720906
 30
0.0
 11
9536.076164252628
 21
-4428.082401675204
 31
0.0
  0
SPLINE
  5
12D5FE
330
18
100
AcDbEntity
  8
姿図
100
AcDbSpline
210
0.0
220
0.0
230
1.0
 70
     8
 71
     3
 72
     8
 73
     4
 74
     0
 42
0.0000000001
 43
0.0000000001
 40
0.0
 40
0.0
 40
0.0
 40
0.0
 40
1.0
 40
1.0
 40
1.0
 40
1.0
 10
9533.077467014129
 20
-4428.052773854024
 30
0.0
 10
9533.077467014129
 20
-4427.80903334838
 30
0.0
 10
9533.301053711179
 20
-4427.611801631801
 30
0.0
 10
9533.577264241777
 20
-4427.611801631801
 30
0.0
  0
LINE
  5
12D5FF
330
18
100
AcDbEntity
  8
姿図
100
AcDbLine
 10
9533.577264241779
 20
-4427.611801631801
 30
0.0
 11
9534.106430908442
 21
-4427.611801631801
 31
0.0
  0
SPLINE
  5
12D600
330
18
100
AcDbEntity
  8
姿図
100
AcDbSpline
210
0.0
220
0.0
230
1.0
 70
     8
 71
     3
 72
     8
 73
     4
 74
     0
 42
0.0000000001
 43
0.0000000001
 40
0.0
 40
0.0
 40
0.0
 40
0.0
 40
1.0
 40
1.0
 40
1.0
 40
1.0
 10
9534.106430908442
 20
-4427.611801631801
 30
0.0
 10
9534.106430908442
 20
-4427.465557328416
 30
0.0
 10
9534.303662625026
 20
-4427.34721829847
 30
0.0
 10
9534.547403130668
 20
-4427.34721829847
 30
0.0
  0
LINE
  5
12D601
330
18
100
AcDbEntity
  8
姿図
100
AcDbLine
 10
9552.862478136091
 20
-4413.53005995971
 30
0.0
 11
9542.808311469427
 21
-4429.287496076245
 31
0.0
  0
SPLINE
  5
12D602
330
18
100
AcDbEntity
  8
姿図
100
AcDbSpline
210
0.0
220
0.0
230
1.0
 70
     8
 71
     3
 72
     8
 73
     4
 74
     0
 42
0.0000000001
 43
0.0000000001
 40
0.0
 40
0.0
 40
0.0
 40
0.0
 40
0.986699542059012
 40
0.986699542059012
 40
0.986699542059012
 40
0.986699542059012
 10
9557.11717106144
 20
-4423.08046753892
 30
0.0
 10
9556.711127765595
 20
-4421.398081785926
 30
0.0
 10
9555.389090073159
 20
-4418.742514875217
 30
0.0
 10
9552.978096724713
 20
-4416.370173277303
 30
0.0
  0
SPLINE
  5
12D603
330
18
100
AcDbEntity
  8
姿図
100
AcDbSpline
210
0.0
220
0.0
230
1.0
 70
     8
 71
     3
 72
     8
 73
     4
 74
     0
 42
0.0000000001
 43
0.0000000001
 40
0.0
 40
0.0
 40
0.0
 40
0.0
 40
1.0
 40
1.0
 40
1.0
 40
1.0
 10
9556.411615505885
 20
-4428.43466268866
 30
0.0
 10
9558.076285644771
 20
-4424.598204355326
 30
0.0
 10
9555.055625922546
 20
-4419.240391855327
 30
0.0
 10
9552.619254394771
 20
-4417.388308521993
 30
0.0
  0
SPLINE
  5
12D604
330
18
100
AcDbEntity
  8
姿図
100
AcDbSpline
210
0.0
220
0.0
230
1.0
 70
    24
 71
     3
 72
     8
 73
     4
 74
     0
 42
0.0000000001
 43
0.0000000001
 40
0.0
 40
0.0
 40
0.0
 40
0.0
 40
1.0
 40
1.0
 40
1.0
 40
1.0
 10
9560.746609855145
 20
-4405.632127791159
 30
0.0
 10
9560.746609855145
 20
-4405.632127791159
 30
0.0
 10
9561.838677318972
 20
-4403.513352235297
 30
0.0
 10
9561.838677318972
 20
-4403.513352235297
 30
0.0
  0
SPLINE
  5
12D605
330
18
100
AcDbEntity
  8
姿図
100
AcDbSpline
210
0.0
220
0.0
230
1.0
 70
     8
 71
     3
 72
     8
 73
     4
 74
     0
 42
0.0000000001
 43
0.0000000001
 40
1.0
 40
1.0
 40
1.0
 40
1.0
 40
2.0
 40
2.0
 40
2.0
 40
2.0
 10
9561.838677318972
 20
-4403.513352235297
 30
0.0
 10
9561.838677318972
 20
-4403.513352235297
 30
0.0
 10
9561.862820336052
 20
-4403.362509587064
 30
0.0
 10
9561.797447442568
 20
-4403.276525251193
 30
0.0
  0
SPLINE
  5
12D606
330
18
100
AcDbEntity
  8
姿図
100
AcDbSpline
210
0.0000000025636992
220
-0.0000000018006262
230
1.0
 70
     8
 71
     3
 72
     8
 73
     4
 74
     0
 42
0.0000000001
 43
0.0000000001
 40
1.471451898813355
 40
1.471451898813355
 40
1.471451898813355
 40
1.471451898813355
 40
1.773254205883106
 40
1.773254205883106
 40
1.773254205883106
 40
1.773254205883106
 10
9547.343200628816
 20
-4400.478700594371
 30
0.0000000000000015
 10
9548.433856922004
 20
-4398.923719607359
 30
0.0000000000000025
 10
9549.64572860076
 20
-4397.197513732851
 30
0.000000000000004
 10
9550.687059664204
 20
-4395.718090851686
 30
0.0000000000000066
  0
SPLINE
  5
12D607
330
18
100
AcDbEntity
  8
姿図
100
AcDbSpline
210
0.0
220
0.0
230
1.0
 70
     8
 71
     3
 72
     8
 73
     4
 74
     0
 42
0.0000000001
 43
0.0000000001
 40
0.0
 40
0.0
 40
0.0
 40
0.0
 40
1.0
 40
1.0
 40
1.0
 40
1.0
 10
9565.783826684794
 20
-4406.120127106311
 30
0.0
 10
9565.783826684794
 20
-4406.120127106311
 30
0.0
 10
9566.201419507365
 20
-4406.412514753569
 30
0.0
 10
9566.104833378856
 20
-4406.659555798477
 30
0.0
  0
SPLINE
  5
12D608
330
18
100
AcDbEntity
  8
姿図
100
AcDbSpline
210
0.0
220
0.0
230
1.0
 70
     8
 71
     3
 72
     8
 73
     4
 74
     0
 42
0.0000000001
 43
0.0000000001
 40
1.0
 40
1.0
 40
1.0
 40
1.0
 40
1.88888372913265
 40
1.88888372913265
 40
1.88888372913265
 40
1.88888372913265
 10
9566.104833378856
 20
-4406.659555798477
 30
0.0
 10
9566.104833378856
 20
-4406.659555798477
 30
0.0
 10
9561.961350235014
 20
-4412.985446144899
 30
0.0
 10
9559.249417394921
 20
-4416.979088728278
 30
0.0
  0
SPLINE
  5
12D609
330
18
100
AcDbEntity
  8
姿図
100
AcDbSpline
210
0.0
220
0.0
230
1.0
 70
     8
 71
     3
 72
    11
 73
     7
 74
     0
 42
0.0000000001
 43
0.0000000001
 40
0.0
 40
0.0
 40
0.0
 40
0.0
 40
1.0
 40
1.0
 40
1.0
 40
1.788176320105198
 40
1.788176320105198
 40
1.788176320105198
 40
1.788176320105198
 10
9566.145393896793
 20
-4404.064419335531
 30
0.0
 10
9566.145393896793
 20
-4404.064419335531
 30
0.0
 10
9566.543277589937
 20
-4404.18514848112
 30
0.0
 10
9566.196936486013
 20
-4404.765109147779
 30
0.0
 10
9565.92395862923
 20
-4405.222220411832
 30
0.0
 10
9560.635408227971
 20
-4413.538054016017
 30
0.0
 10
9556.921853117804
 20
-4422.407076532956
 30
0.0
  0
SPLINE
  5
12D60A
330
18
100
AcDbEntity
  8
姿図
100
AcDbSpline
210
0.0
220
0.0
230
1.0
 70
    24
 71
     3
 72
     8
 73
     4
 74
     0
 42
0.0000000001
 43
0.0000000001
 40
0.0
 40
0.0
 40
0.0
 40
0.0
 40
1.0
 40
1.0
 40
1.0
 40
1.0
 10
9564.617702372981
 20
-4403.67303469233
 30
0.0
 10
9564.617702372981
 20
-4403.67303469233
 30
0.0
 10
9566.371414677218
 20
-4404.097352527705
 30
0.0
 10
9566.371414677218
 20
-4404.097352527705
 30
0.0
  0
SPLINE
  5
12D60B
330
18
100
AcDbEntity
  8
姿図
100
AcDbSpline
210
0.0
220
0.0
230
1.0
 70
     8
 71
     3
 72
     8
 73
     4
 74
     0
 42
0.0000000001
 43
0.0000000001
 40
1.0
 40
1.0
 40
1.0
 40
1.0
 40
2.0
 40
2.0
 40
2.0
 40
2.0
 10
9566.371414677218
 20
-4404.097352527705
 30
0.0
 10
9566.371414677218
 20
-4404.097352527705
 30
0.0
 10
9566.811634970763
 20
-4404.239398009221
 30
0.0
 10
9566.616742756599
 20
-4404.626475498676
 30
0.0
  0
SPLINE
  5
12D60C
330
18
100
AcDbEntity
  8
姿図
100
AcDbSpline
210
0.0
220
0.0
230
1.0
 70
     8
 71
     3
 72
     8
 73
     4
 74
     0
 42
0.0000000001
 43
0.0000000001
 40
2.0
 40
2.0
 40
2.0
 40
2.0
 40
2.733284138265211
 40
2.733284138265211
 40
2.733284138265211
 40
2.733284138265211
 10
9566.616742756599
 20
-4404.626475498676
 30
0.0
 10
9566.616742756599
 20
-4404.626475498676
 30
0.0
 10
9561.478361831808
 20
-4412.610519290001
 30
0.0
 10
9557.11717106144
 20
-4423.08046753892
 30
0.0
  0
SPLINE
  5
12D60D
330
18
100
AcDbEntity
  8
姿図
100
AcDbSpline
210
0.0
220
0.0
230
1.0
 70
     8
 71
     3
 72
    11
 73
     7
 74
     0
 42
0.0000000001
 43
0.0000000001
 40
0.0
 40
0.0
 40
0.0
 40
0.0
 40
1.0
 40
1.0
 40
1.0
 40
1.768789991941922
 40
1.768789991941922
 40
1.768789991941922
 40
1.768789991941922
 10
9565.430902323724
 20
-4401.468183140205
 30
0.0
 10
9565.430902323724
 20
-4401.468183140205
 30
0.0
 10
9565.839697979576
 20
-4401.296207476831
 30
0.0
 10
9565.180449446406
 20
-4402.231623575828
 30
0.0
 10
9564.673625771904
 20
-4402.950762111039
 30
0.0
 10
9559.916161146567
 20
-4409.568048745526
 30
0.0
 10
9555.481833570413
 20
-4419.462200205699
 30
0.0
  0
SPLINE
  5
12D60E
330
18
100
AcDbEntity
  8
姿図
100
AcDbSpline
210
0.0
220
0.0
230
1.0
 70
     8
 71
     3
 72
     8
 73
     4
 74
     0
 42
0.0000000001
 43
0.0000000001
 40
0.0
 40
0.0
 40
0.0
 40
0.0
 40
1.0
 40
1.0
 40
1.0
 40
1.0
 10
9563.422945031105
 20
-4399.189837877968
 30
0.0
 10
9563.422945031105
 20
-4399.189837877968
 30
0.0
 10
9563.92044594496
 20
-4399.062525013674
 30
0.0
 10
9563.670895380601
 20
-4399.502949718271
 30
0.0
  0
SPLINE
  5
12D60F
330
18
100
AcDbEntity
  8
姿図
100
AcDbSpline
210
0.0
220
0.0
230
1.0
 70
     8
 71
     3
 72
     8
 73
     4
 74
     0
 42
0.0000000001
 43
0.0000000001
 40
1.0
 40
1.0
 40
1.0
 40
1.0
 40
1.309625444955235
 40
1.309625444955235
 40
1.309625444955235
 40
1.309625444955235
 10
9563.670895380601
 20
-4399.502949718271
 30
0.0
 10
9563.593628176072
 20
-4399.6393164134
 30
0.0
 10
9562.877880870056
 20
-4400.746290290732
 30
0.0
 10
9561.381765941378
 20
-4403.059004413473
 30
0.0
  0
SPLINE
  5
12D610
330
18
100
AcDbEntity
  8
姿図
100
AcDbSpline
210
0.0
220
0.0
230
1.0
 70
     8
 71
     3
 72
     8
 73
     4
 74
     0
 42
0.0000000001
 43
0.0000000001
 40
1.612607606405297
 40
1.612607606405297
 40
1.612607606405297
 40
1.612607606405297
 40
1.648289524194878
 40
1.648289524194878
 40
1.648289524194878
 40
1.648289524194878
 10
9554.615053581967
 20
-4413.532268115868
 30
0.0
 10
9554.250977258096
 20
-4414.096678958194
 30
0.0
 10
9553.874693111373
 20
-4414.680158698946
 30
0.0
 10
9553.485983982293
 20
-4415.283067210352
 30
0.0
  0
SPLINE
  5
12D611
330
18
100
AcDbEntity
  8
姿図
100
AcDbSpline
210
0.0
220
0.0
230
1.0
 70
    24
 71
     3
 72
     8
 73
     4
 74
     0
 42
0.0000000001
 43
0.0000000001
 40
0.0
 40
0.0
 40
0.0
 40
0.0
 40
1.0
 40
1.0
 40
1.0
 40
1.0
 10
9562.748674800905
 20
-4401.708506163932
 30
0.0
 10
9562.748674800905
 20
-4401.708506163932
 30
0.0
 10
9565.430902323724
 20
-4401.468183140205
 30
0.0
 10
9565.430902323724
 20
-4401.468183140205
 30
0.0
  0
SPLINE
  5
12D612
330
18
100
AcDbEntity
  8
姿図
100
AcDbSpline
210
0.0
220
0.0
230
1.0
 70
     8
 71
     3
 72
    11
 73
     7
 74
     0
 42
0.0000000001
 43
0.0000000001
 40
1.0
 40
1.0
 40
1.0
 40
1.0
 40
2.0
 40
2.0
 40
2.0
 40
2.814388548252563
 40
2.814388548252563
 40
2.814388548252563
 40
2.814388548252563
 10
9565.430902323724
 20
-4401.468183140205
 30
0.0
 10
9565.430902323724
 20
-4401.468183140205
 30
0.0
 10
9566.086739024491
 20
-4401.392793605338
 30
0.0
 10
9565.774036006279
 20
-4401.855754120524
 30
0.0
 10
9565.519374249248
 20
-4402.232783862384
 30
0.0
 10
9559.535356646215
 20
-4411.090620091626
 30
0.0
 10
9555.807661144758
 20
-4419.998083608862
 30
0.0
  0
SPLINE
  5
12D613
330
18
100
AcDbEntity
  8
姿図
100
AcDbSpline
210
0.0
220
0.0
230
1.0
 70
     8
 71
     3
 72
     8
 73
     4
 74
     0
 42
0.0000000001
 43
0.0000000001
 40
1.0
 40
1.0
 40
1.0
 40
1.0
 40
1.201957035102942
 40
1.201957035102942
 40
1.201957035102942
 40
1.201957035102942
 10
9560.32872142269
 20
-4401.109209654867
 30
0.0
 10
9560.135784469151
 20
-4400.810726535768
 30
0.0
 10
9559.914640757698
 20
-4400.572768843865
 30
0.0
 10
9559.684552645563
 20
-4400.383063632236
 30
0.0
  0
SPLINE
  5
12D614
330
18
100
AcDbEntity
  8
姿図
100
AcDbSpline
210
0.0
220
0.0
230
1.0
 70
     8
 71
     3
 72
     8
 73
     4
 74
     0
 42
0.0000000001
 43
0.0000000001
 40
1.371408514633379
 40
1.371408514633379
 40
1.371408514633379
 40
1.371408514633379
 40
2.0
 40
2.0
 40
2.0
 40
2.0
 10
9559.097875795618
 20
-4400.000208529728
 30
0.0
 10
9558.377216769686
 20
-4399.634884464318
 30
0.0
 10
9557.726479668287
 20
-4399.63725466181
 30
0.0
 10
9557.726479668287
 20
-4399.63725466181
 30
0.0
  0
SPLINE
  5
12D615
330
18
100
AcDbEntity
  8
姿図
100
AcDbSpline
210
0.0
220
0.0
230
1.0
 70
    24
 71
     3
 72
     8
 73
     4
 74
     0
 42
0.0000000001
 43
0.0000000001
 40
2.0
 40
2.0
 40
2.0
 40
2.0
 40
3.0
 40
3.0
 40
3.0
 40
3.0
 10
9557.726479668287
 20
-4399.63725466181
 30
0.0
 10
9557.726479668287
 20
-4399.63725466181
 30
0.0
 10
9556.180005664076
 20
-4401.904409176644
 30
0.0
 10
9556.180005664076
 20
-4401.904409176644
 30
0.0
  0
SPLINE
  5
12D616
330
18
100
AcDbEntity
  8
姿図
100
AcDbSpline
210
0.0
220
0.0
230
1.0
 70
    24
 71
     3
 72
     8
 73
     4
 74
     0
 42
0.0000000001
 43
0.0000000001
 40
0.1253663450285614
 40
0.1253663450285614
 40
0.1253663450285614
 40
0.1253663450285614
 40
1.0
 40
1.0
 40
1.0
 40
1.0
 10
9560.032091792546
 20
-4400.718254994026
 30
0.0
 10
9560.772655017276
 20
-4400.377624020705
 30
0.0
 10
9563.726251632704
 20
-4399.019081689256
 30
0.0
 10
9563.726251632704
 20
-4399.019081689256
 30
0.0
  0
SPLINE
  5
12D617
330
18
100
AcDbEntity
  8
姿図
100
AcDbSpline
210
0.0
220
0.0
230
1.0
 70
     8
 71
     3
 72
    11
 73
     7
 74
     0
 42
0.0000000001
 43
0.0000000001
 40
1.0
 40
1.0
 40
1.0
 40
1.0
 40
2.0
 40
2.0
 40
2.0
 40
2.466205817988146
 40
2.466205817988146
 40
2.466205817988146
 40
2.466205817988146
 10
9563.726251632704
 20
-4399.019081689256
 30
0.0
 10
9563.726251632704
 20
-4399.019081689256
 30
0.0
 10
9564.653364055846
 20
-4398.675941015079
 30
0.0
 10
9564.122936941442
 20
-4399.568816102617
 30
0.0
 10
9563.875648734692
 20
-4399.985079663165
 30
0.0
 10
9562.50488257244
 20
-4402.167155296682
 30
0.0
 10
9560.278485271169
 20
-4405.697794507631
 30
0.0
  0
SPLINE
  5
12D618
330
18
100
AcDbEntity
  8
姿図
100
AcDbSpline
210
0.0
220
0.0
230
1.0
 70
     8
 71
     3
 72
     8
 73
     4
 74
     0
 42
0.0000000001
 43
0.0000000001
 40
2.751548371221979
 40
2.751548371221979
 40
2.751548371221979
 40
2.751548371221979
 40
2.782200575022114
 40
2.782200575022114
 40
2.782200575022114
 40
2.782200575022114
 10
9555.290299196911
 20
-4413.600490425759
 30
0.0
 10
9555.081651002053
 20
-4413.93088303066
 30
0.0
 10
9554.870012729205
 20
-4414.266001289216
 30
0.0
 10
9553.353980244557
 20
-4416.751337475183
 30
0.0
  0
SPLINE
  5
12D619
330
18
100
AcDbEntity
  8
姿図
100
AcDbSpline
210
0.0
220
0.0
230
1.0
 70
    24
 71
     3
 72
     8
 73
     4
 74
     0
 42
0.0000000001
 43
0.0000000001
 40
1.593919470979719
 40
1.593919470979719
 40
1.593919470979719
 40
1.593919470979719
 40
2.0
 40
2.0
 40
2.0
 40
2.0
 10
9558.553841658003
 20
-4400.783348872497
 30
0.0
 10
9560.18981639561
 20
-4398.428353609905
 30
0.0
 10
9561.28797793726
 20
-4396.847543607957
 30
0.0
 10
9561.28797793726
 20
-4396.847543607957
 30
0.0
  0
SPLINE
  5
12D61A
330
18
100
AcDbEntity
  8
姿図
100
AcDbSpline
210
0.0
220
0.0
230
1.0
 70
     8
 71
     3
 72
     8
 73
     4
 74
     0
 42
0.0000000001
 43
0.0000000001
 40
2.0
 40
2.0
 40
2.0
 40
2.0
 40
3.0
 40
3.0
 40
3.0
 40
3.0
 10
9561.28797793726
 20
-4396.847543607957
 30
0.0
 10
9561.28797793726
 20
-4396.847543607957
 30
0.0
 10
9561.6504331328
 20
-4396.642127239834
 30
0.0
 10
9561.717392027125
 20
-4397.063752158046
 30
0.0
  0
SPLINE
  5
12D61B
330
18
100
AcDbEntity
  8
姿図
100
AcDbSpline
210
0.0
220
0.0
230
1.0
 70
     8
 71
     3
 72
     8
 73
     4
 74
     0
 42
0.0000000001
 43
0.0000000001
 40
3.0
 40
3.0
 40
3.0
 40
3.0
 40
3.386391109152339
 40
3.386391109152339
 40
3.386391109152339
 40
3.386391109152339
 10
9561.717392027125
 20
-4397.063752158046
 30
0.0
 10
9561.729847456685
 20
-4397.142769152793
 30
0.0
 10
9560.79295112304
 20
-4398.643459223378
 30
0.0
 10
9559.43897636598
 20
-4400.743211072104
 30
0.0
  0
SPLINE
  5
12D61C
330
18
100
AcDbEntity
  8
姿図
100
AcDbSpline
210
0.0
220
0.0
230
1.0
 70
     8
 71
     3
 72
     8
 73
     4
 74
     0
 42
0.0000000001
 43
0.0000000001
 40
1.170835818589571
 40
1.170835818589571
 40
1.170835818589571
 40
1.170835818589571
 40
1.260682760381689
 40
1.260682760381689
 40
1.260682760381689
 40
1.260682760381689
 10
9554.380137316121
 20
-4402.160949153864
 30
0.0
 10
9555.375218227196
 20
-4400.692014099726
 30
0.0
 10
9556.840231407425
 20
-4398.527214519812
 30
0.0
 10
9558.994238543034
 20
-4395.340908599257
 30
0.0
  0
SPLINE
  5
12D61D
330
18
100
AcDbEntity
  8
姿図
100
AcDbSpline
210
0.0
220
0.0
230
1.0
 70
    24
 71
     3
 72
     8
 73
     4
 74
     0
 42
0.0000000001
 43
0.0000000001
 40
1.505104155280973
 40
1.505104155280973
 40
1.505104155280973
 40
1.505104155280973
 40
2.0
 40
2.0
 40
2.0
 40
2.0
 10
9553.730094536225
 20
-4402.046287378309
 30
0.0
 10
9556.836907431597
 20
-4397.63484996926
 30
0.0
 10
9558.481031738358
 20
-4395.300318822316
 30
0.0
 10
9558.481031738358
 20
-4395.300318822316
 30
0.0
  0
SPLINE
  5
12D61E
330
18
100
AcDbEntity
  8
姿図
100
AcDbSpline
210
0.0
220
0.0
230
1.0
 70
     8
 71
     3
 72
     8
 73
     4
 74
     0
 42
0.0000000001
 43
0.0000000001
 40
2.0
 40
2.0
 40
2.0
 40
2.0
 40
3.0
 40
3.0
 40
3.0
 40
3.0
 10
9558.481031738358
 20
-4395.300318822316
 30
0.0
 10
9558.481031738358
 20
-4395.300318822316
 30
0.0
 10
9559.044603447604
 20
-4394.82846948002
 30
0.0
 10
9559.171165588169
 20
-4395.32369707472
 30
0.0
  0
SPLINE
  5
12D61F
330
18
100
AcDbEntity
  8
姿図
100
AcDbSpline
210
0.0
220
0.0
230
1.0
 70
    24
 71
     3
 72
     8
 73
     4
 74
     0
 42
0.0000000001
 43
0.0000000001
 40
3.0
 40
3.0
 40
3.0
 40
3.0
 40
4.0
 40
4.0
 40
4.0
 40
4.0
 10
9559.171165588169
 20
-4395.32369707472
 30
0.0
 10
9559.171165588169
 20
-4395.32369707472
 30
0.0
 10
9558.199837565059
 20
-4399.660784445749
 30
0.0
 10
9558.199837565059
 20
-4399.660784445749
 30
0.0
  0
SPLINE
  5
12D620
330
18
100
AcDbEntity
  8
姿図
100
AcDbSpline
210
0.0
220
0.0
230
1.0
 70
    24
 71
     3
 72
     8
 73
     4
 74
     0
 42
0.0000000001
 43
0.0000000001
 40
1.351290308159436
 40
1.351290308159436
 40
1.351290308159436
 40
1.351290308159436
 40
1.428242292534494
 40
1.428242292534494
 40
1.428242292534494
 40
1.428242292534494
 10
9550.99070017483
 20
-4401.473375727688
 30
0.0
 10
9551.227270499992
 20
-4401.138670175987
 30
0.0
 10
9551.475720452291
 20
-4400.787157033777
 30
0.0
 10
9551.729902746558
 20
-4400.427533632252
 30
0.0
  0
SPLINE
  5
12D621
330
18
100
AcDbEntity
  8
姿図
100
AcDbSpline
210
0.0
220
0.0
230
1.0
 70
    24
 71
     3
 72
     8
 73
     4
 74
     0
 42
0.0000000001
 43
0.0000000001
 40
1.615278216396081
 40
1.615278216396081
 40
1.615278216396081
 40
1.615278216396081
 40
2.0
 40
2.0
 40
2.0
 40
2.0
 10
9551.729902746558
 20
-4400.427533632252
 30
0.0
 10
9554.82517879937
 20
-4396.048260457545
 30
0.0
 10
9555.823539433186
 20
-4394.635755121102
 30
0.0
 10
9555.823539433186
 20
-4394.635755121102
 30
0.0
  0
SPLINE
  5
12D622
330
18
100
AcDbEntity
  8
姿図
100
AcDbSpline
210
0.0
220
0.0
230
1.0
 70
     8
 71
     3
 72
     8
 73
     4
 74
     0
 42
0.0000000001
 43
0.0000000001
 40
2.0
 40
2.0
 40
2.0
 40
2.0
 40
3.0
 40
3.0
 40
3.0
 40
3.0
 10
9555.823539433186
 20
-4394.635755121102
 30
0.0
 10
9555.823539433186
 20
-4394.635755121102
 30
0.0
 10
9556.039194621272
 20
-4394.314096355325
 30
0.0
 10
9556.31691657177
 20
-4395.261971752392
 30
0.0
  0
SPLINE
  5
12D623
330
18
100
AcDbEntity
  8
姿図
100
AcDbSpline
210
0.0
220
0.0
230
1.0
 70
    24
 71
     3
 72
     8
 73
     4
 74
     0
 42
0.0000000001
 43
0.0000000001
 40
1.350323050295564
 40
1.350323050295564
 40
1.350323050295564
 40
1.350323050295564
 40
1.445359962748387
 40
1.445359962748387
 40
1.445359962748387
 40
1.445359962748387
 10
9550.586183743188
 20
-4401.376306685968
 30
0.0
 10
9550.885022932339
 20
-4400.951867507854
 30
0.0
 10
9551.202539616108
 20
-4400.500900816779
 30
0.0
 10
9551.526874577529
 20
-4400.040250174373
 30
0.0
  0
SPLINE
  5
12D624
330
18
100
AcDbEntity
  8
姿図
100
AcDbSpline
210
0.0
220
0.0
230
1.0
 70
    24
 71
     3
 72
     8
 73
     4
 74
     0
 42
0.0000000001
 43
0.0000000001
 40
1.629831745831646
 40
1.629831745831646
 40
1.629831745831646
 40
1.629831745831646
 40
2.0
 40
2.0
 40
2.0
 40
2.0
 10
9551.526874577529
 20
-4400.040250174373
 30
0.0
 10
9554.598212250436
 20
-4395.678051089
 30
0.0
 10
9555.544770629825
 20
-4394.333660944851
 30
0.0
 10
9555.544770629825
 20
-4394.333660944851
 30
0.0
  0
SPLINE
  5
12D625
330
18
100
AcDbEntity
  8
姿図
100
AcDbSpline
210
0.0
220
0.0
230
1.0
 70
     8
 71
     3
 72
    11
 73
     7
 74
     0
 42
0.0000000001
 43
0.0000000001
 40
2.0
 40
2.0
 40
2.0
 40
2.0
 40
3.0
 40
3.0
 40
3.0
 40
4.0
 40
4.0
 40
4.0
 40
4.0
 10
9555.544770629825
 20
-4394.333660944851
 30
0.0
 10
9555.544770629825
 20
-4394.333660944851
 30
0.0
 10
9555.943056153429
 20
-4394.129858813309
 30
0.0
 10
9556.08194004378
 20
-4394.550422856942
 30
0.0
 10
9556.220823934129
 20
-4394.970986900578
 30
0.0
 10
9556.957738567124
 20
-4397.309375847315
 30
0.0
 10
9556.957738567124
 20
-4397.309375847315
 30
0.0
  0
SPLINE
  5
12D626
330
18
100
AcDbEntity
  8
姿図
100
AcDbSpline
210
0.0
220
0.0
230
1.0
 70
    24
 71
     3
 72
     8
 73
     4
 74
     0
 42
0.0000000001
 43
0.0000000001
 40
1.393866661974843
 40
1.393866661974843
 40
1.393866661974843
 40
1.393866661974843
 40
1.573101002211188
 40
1.573101002211188
 40
1.573101002211188
 40
1.573101002211188
 10
9548.841679814271
 20
-4400.920131881099
 30
0.0
 10
9549.421806626613
 20
-4400.09341420782
 30
0.0
 10
9550.048158616668
 20
-4399.200822710829
 30
0.0
 10
9550.642672290113
 20
-4398.353602843739
 30
0.0
  0
SPLINE
  5
12D627
330
18
100
AcDbEntity
  8
姿図
100
AcDbSpline
210
0.0
220
0.0
230
1.0
 70
    24
 71
     3
 72
     8
 73
     4
 74
     0
 42
0.0000000001
 43
0.0000000001
 40
1.799348189808346
 40
1.799348189808346
 40
1.799348189808346
 40
1.799348189808346
 40
2.0
 40
2.0
 40
2.0
 40
2.0
 10
9550.642672290113
 20
-4398.353602843739
 30
0.0
 10
9553.021148712105
 20
-4394.964122385837
 30
0.0
 10
9553.294071935162
 20
-4394.575189402296
 30
0.0
 10
9553.294071935162
 20
-4394.575189402296
 30
0.0
  0
SPLINE
  5
12D628
330
18
100
AcDbEntity
  8
姿図
100
AcDbSpline
210
0.0
220
0.0
230
1.0
 70
     8
 71
     3
 72
     8
 73
     4
 74
     0
 42
0.0000000001
 43
0.0000000001
 40
2.0
 40
2.0
 40
2.0
 40
2.0
 40
3.0
 40
3.0
 40
3.0
 40
3.0
 10
9553.294071935162
 20
-4394.575189402296
 30
0.0
 10
9553.294071935162
 20
-4394.575189402296
 30
0.0
 10
9553.531156209835
 20
-4394.532193738545
 30
0.0
 10
9553.658726364686
 20
-4395.027928865054
 30
0.0
  0
SPLINE
  5
12D629
330
18
100
AcDbEntity
  8
姿図
100
AcDbSpline
210
0.0
220
0.0
230
1.0
 70
    24
 71
     3
 72
     8
 73
     4
 74
     0
 42
0.0000000001
 43
0.0000000001
 40
1.391994967145552
 40
1.391994967145552
 40
1.391994967145552
 40
1.391994967145552
 40
1.583667207078013
 40
1.583667207078013
 40
1.583667207078013
 40
1.583667207078013
 10
9548.562578553529
 20
-4400.841422741439
 30
0.0
 10
9549.186731147656
 20
-4399.953852781361
 30
0.0
 10
9549.865097101976
 20
-4398.989189254107
 30
0.0
 10
9550.501466120469
 20
-4398.084247049819
 30
0.0
  0
SPLINE
  5
12D62A
330
18
100
AcDbEntity
  8
姿図
100
AcDbSpline
210
0.0
220
0.0
230
1.0
 70
    24
 71
     3
 72
     8
 73
     4
 74
     0
 42
0.0000000001
 43
0.0000000001
 40
1.815455566821609
 40
1.815455566821609
 40
1.815455566821609
 40
1.815455566821609
 40
2.0
 40
2.0
 40
2.0
 40
2.0
 10
9550.501466120469
 20
-4398.084247049819
 30
0.0
 10
9552.835189917674
 20
-4394.765598442056
 30
0.0
 10
9553.067846743688
 20
-4394.434751127274
 30
0.0
 10
9553.067846743688
 20
-4394.434751127274
 30
0.0
  0
SPLINE
  5
12D62B
330
18
100
AcDbEntity
  8
姿図
100
AcDbSpline
210
0.0
220
0.0
230
1.0
 70
     8
 71
     3
 72
     8
 73
     4
 74
     0
 42
0.0000000001
 43
0.0000000001
 40
2.0
 40
2.0
 40
2.0
 40
2.0
 40
3.0
 40
3.0
 40
3.0
 40
3.0
 10
9553.067846743688
 20
-4394.434751127274
 30
0.0
 10
9553.067846743688
 20
-4394.434751127274
 30
0.0
 10
9553.349132115828
 20
-4394.197310910025
 30
0.0
 10
9553.498571968615
 20
-4394.542954112032
 30
0.0
  0
SPLINE
  5
12D62C
330
18
100
AcDbEntity
  8
姿図
100
AcDbSpline
210
0.0
220
0.0
230
1.0
 70
    24
 71
     3
 72
     8
 73
     4
 74
     0
 42
0.0000000001
 43
0.0000000001
 40
3.0
 40
3.0
 40
3.0
 40
3.0
 40
4.0
 40
4.0
 40
4.0
 40
4.0
 10
9553.498571968615
 20
-4394.542954112032
 30
0.0
 10
9553.498571968615
 20
-4394.542954112032
 30
0.0
 10
9554.180874081612
 20
-4396.827942964114
 30
0.0
 10
9554.180874081612
 20
-4396.827942964114
 30
0.0
  0
SPLINE
  5
12D62D
330
18
100
AcDbEntity
  8
姿図
100
AcDbSpline
210
0.0
220
0.0
230
1.0
 70
    24
 71
     3
 72
     8
 73
     4
 74
     0
 42
0.0000000001
 43
0.0000000001
 40
1.477316060400323
 40
1.477316060400323
 40
1.477316060400323
 40
1.477316060400323
 40
1.790999460430504
 40
1.790999460430504
 40
1.790999460430504
 40
1.790999460430504
 10
9547.152697675793
 20
-4400.419235798605
 30
0.0
 10
9548.290067958401
 20
-4398.796934675099
 30
0.0
 10
9549.544051440877
 20
-4397.008300978941
 30
0.0
 10
9550.576703858023
 20
-4395.535365381678
 30
0.0
  0
ELLIPSE
  5
12D62E
330
18
100
AcDbEntity
  8
姿図
100
AcDbEllipse
 10
9553.795493136531
 20
-4406.275876127664
 30
0.0
 11
7.45547548116728
 21
-3.953919751002641
 31
0.0
210
0.0
220
0.0
230
0.9999999999999998
 40
0.5896757540129038
 41
2.589251650966877
 42
2.665769938206601
  0
ELLIPSE
  5
12D62F
330
18
100
AcDbEntity
  8
姿図
100
AcDbEllipse
 10
9553.795493136531
 20
-4406.275876127664
 30
0.0
 11
7.45547548116728
 21
-3.953919751002641
 31
0.0
210
0.0
220
0.0
230
0.9999999999999998
 40
0.5896757540129038
 41
6.965981119172361
 42
7.147828363455014
  0
ELLIPSE
  5
12D630
330
18
100
AcDbEntity
  8
姿図
100
AcDbEllipse
 10
9553.795493136531
 20
-4406.275876127664
 30
0.0
 11
7.45547548116728
 21
-3.953919751002641
 31
0.0
210
0.0
220
0.0
230
0.9999999999999998
 40
0.5896757540129038
 41
7.723477700805621
 42
7.896541804765815
  0
ELLIPSE
  5
12D631
330
18
100
AcDbEntity
  8
姿図
100
AcDbEllipse
 10
9553.795493136531
 20
-4406.275876127664
 30
0.0
 11
7.45547548116728
 21
-3.953919751002641
 31
0.0
210
0.0
220
0.0
230
0.9999999999999998
 40
0.5896757540129038
 41
8.489247713282603
 42
8.607693964296711
  0
ARC
  5
12D632
330
18
100
AcDbEntity
  8
姿図
100
AcDbCircle
 10
9550.400080422109
 20
-4399.873546471638
 30
0.0
 40
0.4909226071316664
100
AcDbArc
 50
176.6035262431399
 51
269.2179010901226
  0
ARC
  5
12D633
330
18
100
AcDbEntity
  8
姿図
100
AcDbCircle
 10
9556.076635710256
 20
-4401.193471263903
 30
0.0
 40
0.5870661458547285
100
AcDbArc
 50
178.6996333805868
 51
242.7355601294599
  0
ARC
  5
12D634
330
18
100
AcDbEntity
  8
姿図
100
AcDbCircle
 10
9561.449806213138
 20
-4406.216123204866
 30
0.0
 40
0.5330746199154416
100
AcDbArc
 50
221.5153020365672
 51
291.9422318176752
  0
LINE
  5
12D635
330
18
100
AcDbEntity
  8
姿図
100
AcDbLine
 10
9550.998371186535
 20
-4395.580529632524
 30
0.0000000000000062
 11
9551.629304780822
 21
-4396.48041535197
 31
0.0000000000000002
  0
ARC
  5
12D636
330
18
100
AcDbEntity
  8
姿図
100
AcDbCircle
 10
9550.76440531684
 20
-4395.773916887579
 30
-0.0000000000000118
 40
0.3035435036363659
100
AcDbArc
 50
30.49478329119179
 51
128.1970235673505
  0
ARC
  5
12D637
330
18
100
AcDbEntity
  8
姿図
100
AcDbCircle
 10
9550.89073629991
 20
-4395.893540109491
 30
0.0000000000000226
 40
0.2688245040821502
100
AcDbArc
 50
39.97839485125425
 51
150.4619100593407
  0
LINE
  5
12D638
330
18
100
AcDbEntity
  8
姿図
100
AcDbLine
 10
9555.807701910209
 20
-4401.715315369744
 30
0.0
 11
9555.361714914189
 21
-4402.31884815252
 31
0.0
  0
ARC
  5
12D639
330
18
100
AcDbEntity
  8
姿図
100
AcDbCircle
 10
9549.936928986353
 20
-4413.416771379447
 30
0.0000000000000072
 40
13.09160217354804
100
AcDbArc
 50
70.10507181515404
 51
78.98271778318279
  0
ARC
  5
12D63A
330
18
100
AcDbEntity
  8
姿図
100
AcDbCircle
 10
9552.585665120387
 20
-4400.091434682564
 30
0.0000000000000072
 40
0.4972036399820606
100
AcDbArc
 50
188.0617757773451
 51
252.8196158441444
  0
LINE
  5
12D63B
330
18
100
AcDbEntity
  8
姿図
100
AcDbLine
 10
9552.304369321483
 20
-4400.501415332271
 30
0.0000000000000072
 11
9551.487424345943
 21
-4401.588141061614
 31
0.0000000000000062
  0
LINE
  5
12D63C
330
18
100
AcDbEntity
  8
姿図
100
AcDbLine
 10
9550.270221648011
 20
-4400.346982533831
 30
0.0
 11
9549.660414454397
 21
-4401.141867004326
 31
0.0
  0
LINE
  5
12D63D
330
18
100
AcDbEntity
  8
姿図
100
AcDbLine
 10
9561.175223317253
 20
-4406.6730398096
 30
0.0
 11
9553.742019031354
 21
-4417.170112815223
 31
0.0
  0
ARC
  5
12D63E
330
18
100
AcDbEntity
  8
姿図
100
AcDbCircle
 10
9572.570255863304
 20
-4437.288259727512
 30
0.000000000000007
 40
45.30954587500439
100
AcDbArc
 50
125.0955168657244
 51
142.2118279621175
  0
ARC
  5
12D63F
330
18
100
AcDbEntity
  8
姿図
100
AcDbCircle
 10
9563.570984029528
 20
-4348.156072769356
 30
0.000000000000007
 40
54.78136851718089
100
AcDbArc
 50
251.8650335897605
 51
261.6937835389734
  0
ARC
  5
12D640
330
18
100
AcDbEntity
  8
姿図
100
AcDbCircle
 10
9563.570984029528
 20
-4348.156072769356
 30
0.000000000000007
 40
54.78136851718089
100
AcDbArc
 50
262.3667051436631
 51
263.112361520045
  0
LINE
  5
12D641
330
18
100
AcDbEntity
  8
姿図
100
AcDbLine
 10
9556.266921495465
 20
-4402.428756520039
 30
0.0
 11
9556.478450358314
 21
-4402.608676631802
 31
0.0
  0
SPLINE
  5
12D642
330
18
100
AcDbEntity
  8
姿図
100
AcDbSpline
210
0.0
220
0.0
230
1.0
 70
     8
 71
     3
 72
    11
 73
     7
 74
     0
 42
0.0000000001
 43
0.0000000001
 40
0.0
 40
0.0
 40
0.0
 40
0.0
 40
1.0
 40
1.0
 40
1.0
 40
2.0
 40
2.0
 40
2.0
 40
2.0
 10
9541.326403646074
 20
-4448.306145707323
 30
0.0
 10
9538.572566569252
 20
-4449.04219035793
 30
0.0
 10
9535.049870307316
 20
-4449.484023854023
 30
0.0
 10
9531.210742024981
 20
-4449.484023854023
 30
0.0
 10
9527.138380778238
 20
-4449.484023854023
 30
0.0
 10
9523.422242404757
 20
-4448.986896575379
 30
0.0
 10
9520.602173367212
 20
-4448.168686397426
 30
0.0
  0
SPLINE
  5
12D643
330
18
100
AcDbEntity
  8
姿図
100
AcDbSpline
210
0.0
220
0.0
230
1.0
 70
     8
 71
     3
 72
    11
 73
     7
 74
     0
 42
0.0000000001
 43
0.0000000001
 40
0.0
 40
0.0
 40
0.0
 40
0.0
 40
1.0
 40
1.0
 40
1.0
 40
2.0
 40
2.0
 40
2.0
 40
2.0
 10
9542.280522840952
 20
-4448.618960377461
 30
0.0
 10
9539.402490071857
 20
-4449.536044795864
 30
0.0
 10
9535.465004313392
 20
-4450.101384965134
 30
0.0
 10
9531.122547580537
 20
-4450.101384965134
 30
0.0
 10
9526.55323130992
 20
-4450.101384965134
 30
0.0
 10
9522.432294216821
 20
-4449.475583370083
 30
0.0
 10
9519.522308187092
 20
-4448.472543819302
 30
0.0
  0
SPLINE
  5
12D644
330
18
100
AcDbEntity
  8
姿図
100
AcDbSpline
210
0.0
220
0.0
230
1.0
 70
     8
 71
     3
 72
    11
 73
     7
 74
     0
 42
0.0000000001
 43
0.0000000001
 40
0.0
 40
0.0
 40
0.0
 40
0.0
 40
1.0
 40
1.0
 40
1.0
 40
2.0
 40
2.0
 40
2.0
 40
2.0
 10
9543.176075412567
 20
-4448.947966996385
 30
0.0
 10
9540.247744249374
 20
-4450.08433174248
 30
0.0
 10
9535.855678141516
 20
-4450.806940520691
 30
0.0
 10
9530.946158691648
 20
-4450.806940520691
 30
0.0
 10
9525.909687473117
 20
-4450.806940520691
 30
0.0
 10
9521.417971978324
 20
-4450.046607946906
 30
0.0
 10
9518.492310764129
 20
-4448.858739023295
 30
0.0
  0
SPLINE
  5
12D645
330
18
100
AcDbEntity
  8
姿図
100
AcDbSpline
210
0.0
220
0.0
230
1.0
 70
     8
 71
     3
 72
    11
 73
     7
 74
     0
 42
0.0000000001
 43
0.0000000001
 40
0.0
 40
0.0
 40
0.0
 40
0.0
 40
1.0
 40
1.0
 40
1.0
 40
2.0
 40
2.0
 40
2.0
 40
2.0
 10
9543.752439887395
 20
-4449.208760724683
 30
0.0
 10
9540.864416341388
 20
-4450.548558359233
 30
0.0
 10
9536.08675792125
 20
-4451.424301631801
 30
0.0
 10
9530.681575358313
 20
-4451.424301631801
 30
0.0
 10
9525.272947699894
 20
-4451.424301631801
 30
0.0
 10
9520.492619330758
 20
-4450.547352575813
 30
0.0
 10
9517.605198676458
 20
-4449.206004648295
 30
0.0
  0
SPLINE
  5
12D646
330
18
100
AcDbEntity
  8
姿図
100
AcDbSpline
210
0.0
220
0.0
230
1.0
 70
     8
 71
     3
 72
    11
 73
     7
 74
     0
 42
0.0000000001
 43
0.0000000001
 40
0.0
 40
0.0
 40
0.0
 40
0.0
 40
1.0
 40
1.0
 40
1.0
 40
2.0
 40
2.0
 40
2.0
 40
2.0
 10
9544.364977864825
 20
-4449.519508337531
 30
0.0
 10
9541.571694444687
 20
-4451.030699472513
 30
0.0
 10
9536.488628309703
 20
-4452.041662742913
 30
0.0
 10
9530.681575358313
 20
-4452.041662742913
 30
0.0
 10
9524.883049018255
 20
-4452.041662742913
 30
0.0
 10
9519.80670081947
 20
-4451.03380005845
 30
0.0
 10
9517.010747450328
 20
-4449.52622627373
 30
0.0
  0
SPLINE
  5
12D647
330
18
100
AcDbEntity
  8
姿図
100
AcDbSpline
210
0.0
220
0.0
230
1.0
 70
     8
 71
     3
 72
    11
 73
     7
 74
     0
 42
0.0000000001
 43
0.0000000001
 40
0.0
 40
0.0
 40
0.0
 40
0.0
 40
1.0
 40
1.0
 40
1.0
 40
2.0
 40
2.0
 40
2.0
 40
2.0
 10
9544.975621039741
 20
-4449.862812102722
 30
0.0
 10
9542.359760037136
 20
-4451.57261299248
 30
0.0
 10
9536.94139998397
 20
-4452.747218298468
 30
0.0
 10
9530.681575358313
 20
-4452.747218298468
 30
0.0
 10
9524.445608018902
 20
-4452.747218298468
 30
0.0
 10
9519.044817952716
 20
-4451.581570240743
 30
0.0
 10
9516.417674262394
 20
-4449.882449146993
 30
0.0
  0
SPLINE
  5
12D648
330
18
100
AcDbEntity
  8
姿図
100
AcDbSpline
210
0.0
220
0.0
230
1.0
 70
     8
 71
     3
 72
    11
 73
     7
 74
     0
 42
0.0000000001
 43
0.0000000001
 40
0.0
 40
0.0
 40
0.0
 40
0.0
 40
1.0
 40
1.0
 40
1.0
 40
2.0
 40
2.0
 40
2.0
 40
2.0
 10
9545.529247884354
 20
-4450.303439815395
 30
0.0
 10
9543.085124891735
 20
-4452.155695403503
 30
0.0
 10
9537.436115695772
 20
-4453.452773854023
 30
0.0
 10
9530.857964247205
 20
-4453.452773854023
 30
0.0
 10
9524.087576470511
 20
-4453.452773854023
 30
0.0
 10
9518.301624728975
 20
-4452.078697519389
 30
0.0
 10
9515.980836154756
 20
-4450.139625525031
 30
0.0
  0
SPLINE
  5
12D649
330
18
100
AcDbEntity
  8
姿図
100
AcDbSpline
210
0.0
220
0.0
230
1.0
 70
     8
 71
     3
 72
    11
 73
     7
 74
     0
 42
0.0000000001
 43
0.0000000001
 40
0.0
 40
0.0
 40
0.0
 40
0.0
 40
1.0
 40
1.0
 40
1.0
 40
2.0
 40
2.0
 40
2.0
 40
2.0
 10
9545.966258246769
 20
-4450.639164370516
 30
0.0
 10
9543.818930230278
 20
-4452.686240108365
 30
0.0
 10
9537.865632975504
 20
-4454.15832940958
 30
0.0
 10
9530.857964247205
 20
-4454.15832940958
 30
0.0
 10
9523.68036618405
 20
-4454.15832940958
 30
0.0
 10
9517.609246663656
 20
-4452.61406535793
 30
0.0
 10
9515.600325358315
 20
-4450.489302716871
 30
0.0
  0
SPLINE
  5
12D64A
330
18
100
AcDbEntity
  8
姿図
100
AcDbSpline
210
0.0
220
0.0
230
1.0
 70
     8
 71
     3
 72
    11
 73
     7
 74
     0
 42
0.0000000001
 43
0.0000000001
 40
0.0
 40
0.0
 40
0.0
 40
0.0
 40
1.0
 40
1.0
 40
1.0
 40
2.0
 40
2.0
 40
2.0
 40
2.0
 10
9546.130072537133
 20
-4450.905470251593
 30
0.0
 10
9544.23268619816
 20
-4453.088110496818
 30
0.0
 10
9538.074061252412
 20
-4454.687496076245
 30
0.0
 10
9530.769769802761
 20
-4454.687496076245
 30
0.0
 10
9523.354201768908
 20
-4454.687496076245
 30
0.0
 10
9517.11961246769
 20
-4453.039190140916
 30
0.0
 10
9515.32575124807
 20
-4450.805390227722
 30
0.0
  0
SPLINE
  5
12D64B
330
18
100
AcDbEntity
  8
姿図
100
AcDbSpline
210
0.0
220
0.0
230
1.0
 70
     8
 71
     3
 72
    11
 73
     7
 74
     0
 42
0.0000000001
 43
0.0000000001
 40
0.0
 40
0.0
 40
0.0
 40
0.0
 40
1.0
 40
1.0
 40
1.0
 40
2.0
 40
2.0
 40
2.0
 40
2.0
 10
9546.388454698593
 20
-4451.269961354024
 30
0.0
 10
9544.86244965302
 20
-4453.625200883103
 30
0.0
 10
9538.449404405625
 20
-4455.3930516318
 30
0.0
 10
9530.769769802761
 20
-4455.3930516318
 30
0.0
 10
9522.926062527368
 20
-4455.3930516318
 30
0.0
 10
9516.40363549829
 20
-4453.548719763312
 30
0.0
 10
9515.060134386095
 20
-4451.118204897861
 30
0.0
  0
SPLINE
  5
12D64C
330
18
100
AcDbEntity
  8
姿図
100
AcDbSpline
210
0.0
220
0.0
230
1.0
 70
     8
 71
     3
 72
    11
 73
     7
 74
     0
 42
0.0000000001
 43
0.0000000001
 40
0.0
 40
0.0
 40
0.0
 40
0.0
 40
1.0
 40
1.0
 40
1.0
 40
2.0
 40
2.0
 40
2.0
 40
2.0
 10
9546.542450466825
 20
-4451.612748354892
 30
0.0
 10
9545.354409288437
 20
-4454.103896900899
 30
0.0
 10
9538.744993598333
 20
-4456.010412742913
 30
0.0
 10
9530.769769802761
 20
-4456.010412742913
 30
0.0
 10
9522.524536648466
 20
-4456.010412742913
 30
0.0
 10
9515.73933496118
 20
-4453.972466508104
 30
0.0
 10
9514.89502818492
 20
-4451.35781128892
 30
0.0
  0
SPLINE
  5
12D64D
330
18
100
AcDbEntity
  8
姿図
100
AcDbSpline
210
0.0
220
0.0
230
1.0
 70
     8
 71
     3
 72
    11
 73
     7
 74
     0
 42
0.0000000001
 43
0.0000000001
 40
0.0
 40
0.0
 40
0.0
 40
0.0
 40
1.0
 40
1.0
 40
1.0
 40
2.0
 40
2.0
 40
2.0
 40
2.0
 10
9546.652176758056
 20
-4452.03873441175
 30
0.0
 10
9545.842923828368
 20
-4454.665275210361
 30
0.0
 10
9539.040755045816
 20
-4456.715968298468
 30
0.0
 10
9530.769769802761
 20
-4456.715968298468
 30
0.0
 10
9521.953512071641
 20
-4456.715968298468
 30
0.0
 10
9514.806575358313
 20
-4454.386050221212
 30
0.0
 10
9514.806575358313
 20
-4451.512496076246
 30
0.0
  0
SPLINE
  5
12D64E
330
18
100
AcDbEntity
  8
姿図
100
AcDbSpline
210
0.0
220
0.0
230
1.0
 70
     8
 71
     3
 72
    11
 73
     7
 74
     0
 42
0.0000000001
 43
0.0000000001
 40
0.0
 40
0.0
 40
0.0
 40
0.0
 40
1.0
 40
1.0
 40
1.0
 40
2.0
 40
2.0
 40
2.0
 40
2.0
 10
9538.373440050156
 20
-4447.579575069301
 30
0.0
 10
9536.1762442765
 20
-4447.951128617478
 30
0.0
 10
9533.680444851588
 20
-4448.161107187358
 30
0.0
 10
9531.034353136092
 20
-4448.161107187358
 30
0.0
 10
9528.29963633922
 20
-4448.161107187358
 30
0.0
 10
9525.725547119384
 20
-4447.936831471212
 30
0.0
 10
9523.475555257403
 20
-4447.542023528503
 30
0.0
  0
SPLINE
  5
12D64F
330
18
100
AcDbEntity
  8
姿図
100
AcDbSpline
210
0.0
220
0.0
230
1.0
 70
     8
 71
     3
 72
    11
 73
     7
 74
     0
 42
0.0000000001
 43
0.0000000001
 40
0.0
 40
0.0
 40
0.0
 40
0.0
 40
1.0
 40
1.0
 40
1.0
 40
2.0
 40
2.0
 40
2.0
 40
2.0
 10
9540.070838596165
 20
-4447.94199911444
 30
0.0
 10
9537.571507948374
 20
-4448.470993526332
 30
0.0
 10
9534.589433295598
 20
-4448.778468298468
 30
0.0
 10
9531.38713091387
 20
-4448.778468298468
 30
0.0
 10
9527.919383924938
 20
-4448.778468298468
 30
0.0
 10
9524.709846842688
 20
-4448.417939055847
 30
0.0
 10
9522.092091037569
 20
-4447.805745587965
 30
0.0
  0
SPLINE
  5
12D650
330
18
100
AcDbEntity
  8
姿図
100
AcDbSpline
210
0.0
220
0.0
230
1.0
 70
     8
 71
     3
 72
    11
 73
     7
 74
     0
 42
0.0000000001
 43
0.0000000001
 40
0.0
 40
0.0
 40
0.0
 40
0.0
 40
1.0
 40
1.0
 40
1.0
 40
2.0
 40
2.0
 40
2.0
 40
2.0
 10
9536.264697103106
 20
-4447.277612449943
 30
0.0
 10
9534.67642195662
 20
-4447.450211733797
 30
0.0
 10
9532.977042480707
 20
-4447.543746076245
 30
0.0
 10
9531.210742024981
 20
-4447.543746076245
 30
0.0
 10
9529.296733100284
 20
-4447.543746076245
 30
0.0
 10
9527.461358480058
 20
-4447.433847530239
 30
0.0
 10
9525.760773220728
 20
-4447.232481699077
 30
0.0
  0
ENDSEC
  0
SECTION
  2
OBJECTS
  0
DICTIONARY
  5
C
330
0
100
AcDbDictionary
281
     1
  3
ACAD_COLOR
350
12DA24
  3
ACAD_GROUP
350
D
  3
ACAD_IMAGE_VARS
350
129BB3
  3
ACAD_LAYOUT
350
617
  3
ACAD_MATERIAL
350
12D9FA
  3
ACAD_MLEADERSTYLE
350
12DA27
  3
ACAD_MLINESTYLE
350
E
  3
ACAD_PLOTSETTINGS
350
618
  3
ACAD_PLOTSTYLENAME
350
615
  3
ACAD_SCALELIST
350
A36
  3
ACAD_TABLESTYLE
350
12DA25
  3
ACAD_VISUALSTYLE
350
12DA13
  3
AcadDim
350
AB4
  3
ACDB_RECOMPOSE_DATA
350
12DA31
  3
AcDbVariableDictionary
350
6DE
  3
APPDATA
350
129BB2
  3
DWGPROPS
350
12DA32
  0
DICTIONARY
  5
8BF
330
2
100
AcDbDictionary
280
     1
281
     1
  3
ACAD_LAYERSTATES
360
8C0
  0
DICTIONARY
  5
A60
330
F
100
AcDbDictionary
280
     1
281
     1
  3
ADSK_XREC_LAYER_RECONCILED
360
A61
  0
DICTIONARY
  5
A66
330
34
100
AcDbDictionary
280
     1
281
     1
  3
ADSK_XREC_LAYER_RECONCILED
360
A67
  0
DICTIONARY
  5
A6A
330
2A3
100
AcDbDictionary
280
     1
281
     1
  3
ADSK_XREC_LAYER_RECONCILED
360
A6B
  0
DICTIONARY
  5
A6E
330
2F4
100
AcDbDictionary
280
     1
281
     1
  3
ADSK_XREC_LAYER_RECONCILED
360
A6F
  0
DICTIONARY
  5
A72
330
305
100
AcDbDictionary
280
     1
281
     1
  3
ADSK_XREC_LAYER_RECONCILED
360
A73
  0
DICTIONARY
  5
143F
330
18
100
AcDbDictionary
280
     1
281
     1
  3
ACAD_SORTENTS
360
1440
  0
DICTIONARY
  5
12DA24
102
{ACAD_REACTORS
330
C
102
}
330
C
100
AcDbDictionary
281
     1
  0
DICTIONARY
  5
D
102
{ACAD_REACTORS
330
C
102
}
330
C
100
AcDbDictionary
281
     1
  0
RASTERVARIABLES
  5
129BB3
102
{ACAD_REACTORS
330
C
102
}
330
C
100
AcDbRasterVariables
 90
        0
 70
     1
 71
     1
 72
     0
  0
DICTIONARY
  5
617
102
{ACAD_REACTORS
330
C
102
}
330
C
100
AcDbDictionary
281
     1
  3
Model
350
619
  3
ﾚｲｱｳﾄ1
350
61A
  0
DICTIONARY
  5
12D9FA
102
{ACAD_REACTORS
330
C
102
}
330
C
100
AcDbDictionary
281
     1
  3
ByBlock
350
12DA03
  3
ByLayer
350
12D9FB
  3
Global
350
12DA0B
  0
DICTIONARY
  5
12DA27
102
{ACAD_REACTORS
330
C
102
}
330
C
100
AcDbDictionary
281
     1
  3
Standard
350
12DA28
  0
DICTIONARY
  5
E
102
{ACAD_REACTORS
330
C
102
}
330
C
100
AcDbDictionary
281
     1
  3
STANDARD
350
1B
  0
DICTIONARY
  5
618
102
{ACAD_REACTORS
330
C
102
}
330
C
100
AcDbDictionary
281
     1
  0
ACDBDICTIONARYWDFLT
  5
615
102
{ACAD_REACTORS
330
C
102
}
330
C
100
AcDbDictionary
281
     1
  3
Normal
350
616
100
AcDbDictionaryWithDefault
340
616
  0
DICTIONARY
  5
A36
102
{ACAD_REACTORS
330
C
102
}
330
C
100
AcDbDictionary
281
     1
  3
A0
350
A37
  3
A1
350
A38
  3
A2
350
A39
  3
A3
350
A3A
  3
A4
350
A3B
  3
A5
350
A3C
  3
A6
350
A3D
  3
A7
350
A3E
  3
A8
350
A3F
  3
A9
350
A40
  3
B0
350
A41
  3
B1
350
A42
  3
B2
350
A43
  3
B3
350
A44
  3
B4
350
A45
  3
B5
350
A46
  3
B6
350
A47
  3
B7
350
A48
  3
B8
350
A49
  3
B9
350
A4A
  3
C0
350
A4B
  3
C1
350
A4C
  3
C2
350
A4D
  3
C3
350
A4E
  3
C4
350
A4F
  3
C5
350
A50
  3
C6
350
A51
  3
C7
350
A52
  3
C8
350
A53
  3
C9
350
A54
  3
D0
350
A55
  3
D1
350
A56
  3
D2
350
A57
  0
DICTIONARY
  5
12DA25
102
{ACAD_REACTORS
330
C
102
}
330
C
100
AcDbDictionary
281
     1
  3
Standard
350
12DA26
  0
DICTIONARY
  5
12DA13
102
{ACAD_REACTORS
330
C
102
}
330
C
100
AcDbDictionary
281
     1
  3
2dWireframe
350
12DA19
  3
3D Hidden
350
12DA1B
  3
3dWireframe
350
12DA1A
  3
Basic
350
12DA18
  3
Brighten
350
12DA1F
  3
ColorChange
350
12DA23
  3
Conceptual
350
12DA1C
  3
Dim
350
12DA1E
  3
Facepattern
350
12DA22
  3
Flat
350
12DA14
  3
FlatWithEdges
350
12DA15
  3
Gouraud
350
12DA16
  3
GouraudWithEdges
350
12DA17
  3
Linepattern
350
12DA21
  3
Realistic
350
12DA1D
  3
Thicken
350
12DA20
  0
XRECORD
  5
AB4
102
{ACAD_REACTORS
330
C
102
}
330
C
100
AcDbXrecord
280
     1
 90
   990106
  3
OPEN
 60
     0
 61
     0
 62
     1
 63
     3
 64
     1
 65
     0
 66
     0
 67
     3
 68
     1
 69
     0
 70
     0
 71
     0
 72
     0
 40
0.0
170
     2
  0
XRECORD
  5
12DA31
102
{ACAD_REACTORS
330
C
102
}
330
C
100
AcDbXrecord
280
     1
 90
        1
330
12DA26
  0
DICTIONARY
  5
6DE
102
{ACAD_REACTORS
330
C
102
}
330
C
100
AcDbDictionary
281
     1
  3
CANNOSCALE
350
12DA2E
  3
CMLEADERSTYLE
350
12DA2D
  3
CTABLESTYLE
350
12DA2C
  3
DIMASSOC
350
6DF
  3
INDEXCTL
350
A93
  3
PROJECTNAME
350
6E0
  3
SORTENTS
350
A92
  0
DICTIONARY
  5
129BB2
102
{ACAD_REACTORS
330
C
102
}
330
C
100
AcDbDictionary
281
     1
  0
XRECORD
  5
12DA32
102
{ACAD_REACTORS
330
C
102
}
330
C
100
AcDbXrecord
280
     1
  1
DWGPROPS COOKIE
  2

  3

  4

  6

  7

  8
SPAX
  9

300
=
301
=
302
=
303
=
304
=
305
=
306
=
307
=
308
=
309
=
 40
48.77741399305556
 41
2448636.61962963
 42
2457337.804451493
  1

 90
        0
  0
DICTIONARY
  5
8C0
102
{ACAD_REACTORS
330
8BF
102
}
330
8BF
100
AcDbDictionary
281
     1
  0
XRECORD
  5
A61
102
{ACAD_REACTORS
330
A60
102
}
330
A60
100
AcDbXrecord
280
     1
290
     1
  0
XRECORD
  5
A67
102
{ACAD_REACTORS
330
A66
102
}
330
A66
100
AcDbXrecord
280
     1
290
     1
  0
XRECORD
  5
A6B
102
{ACAD_REACTORS
330
A6A
102
}
330
A6A
100
AcDbXrecord
280
     1
290
     1
  0
XRECORD
  5
A6F
102
{ACAD_REACTORS
330
A6E
102
}
330
A6E
100
AcDbXrecord
280
     1
290
     1
  0
XRECORD
  5
A73
102
{ACAD_REACTORS
330
A72
102
}
330
A72
100
AcDbXrecord
280
     1
290
     1
  0
SORTENTSTABLE
  5
1440
102
{ACAD_REACTORS
330
143F
102
}
330
143F
100
AcDbSortentsTable
330
18
331
D0CC6
  5
D0CC6
331
F6D78
  5
F6D78
331
F6D77
  5
F6D77
  0
LAYOUT
  5
619
102
{ACAD_XDICTIONARY
360
12DA33
102
}
102
{ACAD_REACTORS
330
617
102
}
330
617
100
AcDbPlotSettings
  1

  2
JUST PDF 2
  4
A4
  6

 40
3.174999952316283
 41
3.174999952316283
 42
3.175003051757812
 43
3.17498779296875
 44
209.8886566162109
 45
297.0530090332031
 46
14.27171755861538
 47
9.855173074625584
 48
9489.205832145216
 49
-4891.661366896265
140
9839.196269135028
141
-4349.676016618931
142
1.0
143
2.0
 70
  3748
 72
     1
 73
     0
 74
     4
  7
spax form.ctb
 75
     0
147
0.5
148
-9489.205832145216
149
4891.661366896265
100
AcDbLayout
  1
Model
 70
     1
 71
     0
 10
0.0
 20
0.0
 11
12.0
 21
9.0
 12
0.0
 22
0.0
 32
0.0
 14
9494.326223848473
 24
-4481.639749657622
 34
-0.0000000000000118
 15
9570.159557181803
 25
-4394.284330384535
 35
0.0000000000000226
146
0.0
 13
0.0
 23
0.0
 33
0.0
 16
1.0
 26
0.0
 36
0.0
 17
0.0
 27
1.0
 37
0.0
 76
     0
330
18
331
129BB1
1001
ACAD_PSEXT
1000
JUST PDF 2
1000
JUST PDF 2
1000
JUST PDF 2 Port:
1000

1070
     0
  0
LAYOUT
  5
61A
102
{ACAD_XDICTIONARY
360
12DA35
102
}
102
{ACAD_REACTORS
330
617
102
}
330
617
100
AcDbPlotSettings
  1

  2
Canon LASER SHOT LBP-750
  4

  6

 40
0.0
 41
0.0
 42
0.0
 43
0.0
 44
0.0
 45
0.0
 46
0.0
 47
0.0
 48
0.0
 49
0.0
140
0.0
141
0.0
142
1.0
143
1.0
 70
   688
 72
     0
 73
     0
 74
     5
  7
spax form.ctb
 75
    16
147
1.0
148
0.0
149
0.0
100
AcDbLayout
  1
ﾚｲｱｳﾄ1
 70
     0
 71
     1
 10
0.0
 20
0.0
 11
0.0
 21
0.0
 12
0.0
 22
0.0
 32
0.0
 14
1.000000000000000E+20
 24
1.000000000000000E+20
 34
1.000000000000000E+20
 15
-1.000000000000000E+20
 25
-1.000000000000000E+20
 35
-1.000000000000000E+20
146
0.0
 13
0.0
 23
0.0
 33
0.0
 16
1.0
 26
0.0
 36
0.0
 17
0.0
 27
1.0
 37
0.0
 76
     0
330
15
  0
MATERIAL
  5
12DA03
102
{ACAD_XDICTIONARY
360
12DA04
102
}
102
{ACAD_REACTORS
330
12D9FA
102
}
330
12D9FA
100
AcDbMaterial
  1
ByBlock
 72
     0
 43
0.0208333333333333
 43
0.0
 43
0.0
 43
0.0
 43
0.0
 43
0.0208333333333333
 43
0.0
 43
0.0
 43
0.0
 43
0.0
 43
1.0
 43
0.0
 43
0.0
 43
0.0
 43
0.0
 43
1.0
 77
     0
 47
0.0208333333333333
 47
0.0
 47
0.0
 47
0.0
 47
0.0
 47
0.0208333333333333
 47
0.0
 47
0.0
 47
0.0
 47
0.0
 47
1.0
 47
0.0
 47
0.0
 47
0.0
 47
0.0
 47
1.0
171
     0
 49
0.0208333333333333
 49
0.0
 49
0.0
 49
0.0
 49
0.0
 49
0.0208333333333333
 49
0.0
 49
0.0
 49
0.0
 49
0.0
 49
1.0
 49
0.0
 49
0.0
 49
0.0
 49
0.0
 49
1.0
175
     0
142
0.0208333333333333
142
0.0
142
0.0
142
0.0
142
0.0
142
0.0208333333333333
142
0.0
142
0.0
142
0.0
142
0.0
142
1.0
142
0.0
142
0.0
142
0.0
142
0.0
142
1.0
179
     0
144
0.0208333333333333
144
0.0
144
0.0
144
0.0
144
0.0
144
0.0208333333333333
144
0.0
144
0.0
144
0.0
144
0.0
144
1.0
144
0.0
144
0.0
144
0.0
144
0.0
144
1.0
147
0.0208333333333333
147
0.0
147
0.0
147
0.0
147
0.0
147
0.0208333333333333
147
0.0
147
0.0
147
0.0
147
0.0
147
1.0
147
0.0
147
0.0
147
0.0
147
0.0
147
1.0
  0
MATERIAL
  5
12D9FB
102
{ACAD_XDICTIONARY
360
12D9FC
102
}
102
{ACAD_REACTORS
330
12D9FA
102
}
330
12D9FA
100
AcDbMaterial
  1
ByLayer
 72
     0
 43
0.0208333333333333
 43
0.0
 43
0.0
 43
0.0
 43
0.0
 43
0.0208333333333333
 43
0.0
 43
0.0
 43
0.0
 43
0.0
 43
1.0
 43
0.0
 43
0.0
 43
0.0
 43
0.0
 43
1.0
 77
     0
 47
0.0208333333333333
 47
0.0
 47
0.0
 47
0.0
 47
0.0
 47
0.0208333333333333
 47
0.0
 47
0.0
 47
0.0
 47
0.0
 47
1.0
 47
0.0
 47
0.0
 47
0.0
 47
0.0
 47
1.0
171
     0
 49
0.0208333333333333
 49
0.0
 49
0.0
 49
0.0
 49
0.0
 49
0.0208333333333333
 49
0.0
 49
0.0
 49
0.0
 49
0.0
 49
1.0
 49
0.0
 49
0.0
 49
0.0
 49
0.0
 49
1.0
175
     0
142
0.0208333333333333
142
0.0
142
0.0
142
0.0
142
0.0
142
0.0208333333333333
142
0.0
142
0.0
142
0.0
142
0.0
142
1.0
142
0.0
142
0.0
142
0.0
142
0.0
142
1.0
179
     0
144
0.0208333333333333
144
0.0
144
0.0
144
0.0
144
0.0
144
0.0208333333333333
144
0.0
144
0.0
144
0.0
144
0.0
144
1.0
144
0.0
144
0.0
144
0.0
144
0.0
144
1.0
147
0.0208333333333333
147
0.0
147
0.0
147
0.0
147
0.0
147
0.0208333333333333
147
0.0
147
0.0
147
0.0
147
0.0
147
1.0
147
0.0
147
0.0
147
0.0
147
0.0
147
1.0
  0
MATERIAL
  5
12DA0B
102
{ACAD_XDICTIONARY
360
12DA0C
102
}
102
{ACAD_REACTORS
330
12D9FA
102
}
330
12D9FA
100
AcDbMaterial
  1
Global
 72
     0
 43
0.0208333333333333
 43
0.0
 43
0.0
 43
0.0
 43
0.0
 43
0.0208333333333333
 43
0.0
 43
0.0
 43
0.0
 43
0.0
 43
1.0
 43
0.0
 43
0.0
 43
0.0
 43
0.0
 43
1.0
 77
     0
 47
0.0208333333333333
 47
0.0
 47
0.0
 47
0.0
 47
0.0
 47
0.0208333333333333
 47
0.0
 47
0.0
 47
0.0
 47
0.0
 47
1.0
 47
0.0
 47
0.0
 47
0.0
 47
0.0
 47
1.0
171
     0
 49
0.0208333333333333
 49
0.0
 49
0.0
 49
0.0
 49
0.0
 49
0.0208333333333333
 49
0.0
 49
0.0
 49
0.0
 49
0.0
 49
1.0
 49
0.0
 49
0.0
 49
0.0
 49
0.0
 49
1.0
175
     0
142
0.0208333333333333
142
0.0
142
0.0
142
0.0
142
0.0
142
0.0208333333333333
142
0.0
142
0.0
142
0.0
142
0.0
142
1.0
142
0.0
142
0.0
142
0.0
142
0.0
142
1.0
179
     0
144
0.0208333333333333
144
0.0
144
0.0
144
0.0
144
0.0
144
0.0208333333333333
144
0.0
144
0.0
144
0.0
144
0.0
144
1.0
144
0.0
144
0.0
144
0.0
144
0.0
144
1.0
147
0.0208333333333333
147
0.0
147
0.0
147
0.0
147
0.0
147
0.0208333333333333
147
0.0
147
0.0
147
0.0
147
0.0
147
1.0
147
0.0
147
0.0
147
0.0
147
0.0
147
1.0
  0
MLEADERSTYLE
  5
12DA28
102
{ACAD_REACTORS
330
12DA27
102
}
330
12DA27
100
AcDbMLeaderStyle
170
     2
171
     1
172
     0
 90
        2
 40
0.0
 41
0.0
173
     1
 91
-1056964608
340
12
 92
       -2
290
     1
 42
0.09
291
     1
 43
0.36
  3
Standard
 44
0.18
300

342
10
174
     1
178
     6
175
     1
176
     0
 93
-1056964608
 45
0.18
292
     0
297
     0
 46
0.18
 94
-1056964608
 47
1.0
 49
1.0
140
1.0
293
     1
141
0.0
294
     1
177
     0
142
1.0
295
     0
296
     0
143
0.125
1001
ACAD_MLEADERVER
1070
     2
  0
MLINESTYLE
  5
1B
102
{ACAD_REACTORS
330
E
102
}
330
E
100
AcDbMlineStyle
  2
STANDARD
 70
     0
  3

 62
     0
 51
90.0
 52
90.0
 71
     2
 49
0.5
 62
   256
  6
BYLAYER
 49
-0.5
 62
   256
  6
BYLAYER
  0
ACDBPLACEHOLDER
  5
616
102
{ACAD_REACTORS
330
615
102
}
330
615
  0
SCALE
  5
A37
102
{ACAD_REACTORS
330
A36
102
}
330
A36
100
AcDbScale
 70
     0
300
1:1
140
1.0
141
1.0
290
     1
  0
SCALE
  5
A38
102
{ACAD_REACTORS
330
A36
102
}
330
A36
100
AcDbScale
 70
     0
300
1:2
140
1.0
141
2.0
290
     0
  0
SCALE
  5
A39
102
{ACAD_REACTORS
330
A36
102
}
330
A36
100
AcDbScale
 70
     0
300
1:4
140
1.0
141
4.0
290
     0
  0
SCALE
  5
A3A
102
{ACAD_REACTORS
330
A36
102
}
330
A36
100
AcDbScale
 70
     0
300
1:5
140
1.0
141
5.0
290
     0
  0
SCALE
  5
A3B
102
{ACAD_REACTORS
330
A36
102
}
330
A36
100
AcDbScale
 70
     0
300
1:8
140
1.0
141
8.0
290
     0
  0
SCALE
  5
A3C
102
{ACAD_REACTORS
330
A36
102
}
330
A36
100
AcDbScale
 70
     0
300
1:10
140
1.0
141
10.0
290
     0
  0
SCALE
  5
A3D
102
{ACAD_REACTORS
330
A36
102
}
330
A36
100
AcDbScale
 70
     0
300
1:16
140
1.0
141
16.0
290
     0
  0
SCALE
  5
A3E
102
{ACAD_REACTORS
330
A36
102
}
330
A36
100
AcDbScale
 70
     0
300
1:20
140
1.0
141
20.0
290
     0
  0
SCALE
  5
A3F
102
{ACAD_REACTORS
330
A36
102
}
330
A36
100
AcDbScale
 70
     0
300
1:30
140
1.0
141
30.0
290
     0
  0
SCALE
  5
A40
102
{ACAD_REACTORS
330
A36
102
}
330
A36
100
AcDbScale
 70
     0
300
1:40
140
1.0
141
40.0
290
     0
  0
SCALE
  5
A41
102
{ACAD_REACTORS
330
A36
102
}
330
A36
100
AcDbScale
 70
     0
300
1:50
140
1.0
141
50.0
290
     0
  0
SCALE
  5
A42
102
{ACAD_REACTORS
330
A36
102
}
330
A36
100
AcDbScale
 70
     0
300
1:100
140
1.0
141
100.0
290
     0
  0
SCALE
  5
A43
102
{ACAD_REACTORS
330
A36
102
}
330
A36
100
AcDbScale
 70
     0
300
2:1
140
2.0
141
1.0
290
     0
  0
SCALE
  5
A44
102
{ACAD_REACTORS
330
A36
102
}
330
A36
100
AcDbScale
 70
     0
300
4:1
140
4.0
141
1.0
290
     0
  0
SCALE
  5
A45
102
{ACAD_REACTORS
330
A36
102
}
330
A36
100
AcDbScale
 70
     0
300
8:1
140
8.0
141
1.0
290
     0
  0
SCALE
  5
A46
102
{ACAD_REACTORS
330
A36
102
}
330
A36
100
AcDbScale
 70
     0
300
10:1
140
10.0
141
1.0
290
     0
  0
SCALE
  5
A47
102
{ACAD_REACTORS
330
A36
102
}
330
A36
100
AcDbScale
 70
     0
300
100:1
140
100.0
141
1.0
290
     0
  0
SCALE
  5
A48
102
{ACAD_REACTORS
330
A36
102
}
330
A36
100
AcDbScale
 70
     0
300
1/128" = 1'-0"
140
0.0078125
141
12.0
290
     0
  0
SCALE
  5
A49
102
{ACAD_REACTORS
330
A36
102
}
330
A36
100
AcDbScale
 70
     0
300
1/64" = 1'-0"
140
0.015625
141
12.0
290
     0
  0
SCALE
  5
A4A
102
{ACAD_REACTORS
330
A36
102
}
330
A36
100
AcDbScale
 70
     0
300
1/32" = 1'-0"
140
0.03125
141
12.0
290
     0
  0
SCALE
  5
A4B
102
{ACAD_REACTORS
330
A36
102
}
330
A36
100
AcDbScale
 70
     0
300
1/16" = 1'-0"
140
0.0625
141
12.0
290
     0
  0
SCALE
  5
A4C
102
{ACAD_REACTORS
330
A36
102
}
330
A36
100
AcDbScale
 70
     0
300
3/32" = 1'-0"
140
0.09375
141
12.0
290
     0
  0
SCALE
  5
A4D
102
{ACAD_REACTORS
330
A36
102
}
330
A36
100
AcDbScale
 70
     0
300
1/8" = 1'-0"
140
0.125
141
12.0
290
     0
  0
SCALE
  5
A4E
102
{ACAD_REACTORS
330
A36
102
}
330
A36
100
AcDbScale
 70
     0
300
3/16" = 1'-0"
140
0.1875
141
12.0
290
     0
  0
SCALE
  5
A4F
102
{ACAD_REACTORS
330
A36
102
}
330
A36
100
AcDbScale
 70
     0
300
1/4" = 1'-0"
140
0.25
141
12.0
290
     0
  0
SCALE
  5
A50
102
{ACAD_REACTORS
330
A36
102
}
330
A36
100
AcDbScale
 70
     0
300
3/8" = 1'-0"
140
0.375
141
12.0
290
     0
  0
SCALE
  5
A51
102
{ACAD_REACTORS
330
A36
102
}
330
A36
100
AcDbScale
 70
     0
300
1/2" = 1'-0"
140
0.5
141
12.0
290
     0
  0
SCALE
  5
A52
102
{ACAD_REACTORS
330
A36
102
}
330
A36
100
AcDbScale
 70
     0
300
3/4" = 1'-0"
140
0.75
141
12.0
290
     0
  0
SCALE
  5
A53
102
{ACAD_REACTORS
330
A36
102
}
330
A36
100
AcDbScale
 70
     0
300
1" = 1'-0"
140
1.0
141
12.0
290
     0
  0
SCALE
  5
A54
102
{ACAD_REACTORS
330
A36
102
}
330
A36
100
AcDbScale
 70
     0
300
1-1/2" = 1'-0"
140
1.5
141
12.0
290
     0
  0
SCALE
  5
A55
102
{ACAD_REACTORS
330
A36
102
}
330
A36
100
AcDbScale
 70
     0
300
3" = 1'-0"
140
3.0
141
12.0
290
     0
  0
SCALE
  5
A56
102
{ACAD_REACTORS
330
A36
102
}
330
A36
100
AcDbScale
 70
     0
300
6" = 1'-0"
140
6.0
141
12.0
290
     0
  0
SCALE
  5
A57
102
{ACAD_REACTORS
330
A36
102
}
330
A36
100
AcDbScale
 70
     0
300
1'-0" = 1'-0"
140
12.0
141
12.0
290
     0
  0
TABLESTYLE
  5
12DA26
102
{ACAD_XDICTIONARY
360
12DA2F
102
}
102
{ACAD_REACTORS
330
12DA25
102
}
330
12DA25
100
AcDbTableStyle
  3
Standard
 70
     0
 71
     0
 40
0.06
 41
0.06
280
     0
281
     0
  7
STANDARD
140
0.18
170
     2
 62
     0
 63
     7
283
     0
274
    -2
284
     1
 64
     0
275
    -2
285
     1
 65
     0
276
    -2
286
     1
 66
     0
277
    -2
287
     1
 67
     0
278
    -2
288
     1
 68
     0
279
    -2
289
     1
 69
     0
  7
STANDARD
140
0.25
170
     5
 62
     0
 63
     7
283
     0
274
    -2
284
     1
 64
     0
275
    -2
285
     1
 65
     0
276
    -2
286
     1
 66
     0
277
    -2
287
     1
 67
     0
278
    -2
288
     1
 68
     0
279
    -2
289
     1
 69
     0
  7
STANDARD
140
0.18
170
     5
 62
     0
 63
     7
283
     0
274
    -2
284
     1
 64
     0
275
    -2
285
     1
 65
     0
276
    -2
286
     1
 66
     0
277
    -2
287
     1
 67
     0
278
    -2
288
     1
 68
     0
279
    -2
289
     1
 69
     0
  0
VISUALSTYLE
  5
12DA19
102
{ACAD_REACTORS
330
12DA13
102
}
330
12DA13
100
AcDbVisualStyle
  2
2dWireframe
 70
     4
 71
     0
 72
     2
 73
     0
 90
        0
 40
-0.6
 41
-30.0
 62
     5
 63
     7
 74
     1
 91
        4
 64
     7
 65
   257
 75
     1
175
     1
 42
1.0
 92
        0
 66
   257
 43
1.0
 76
     1
 77
     6
 78
     2
 67
     7
 79
     5
170
     0
171
     0
290
     0
174
     0
 93
        1
 44
0.0
173
     0
291
     0
 45
0.0
1001
ACAD
1000
AcDbSavedByObjectVersion
1070
     0
  0
VISUALSTYLE
  5
12DA1B
102
{ACAD_REACTORS
330
12DA13
102
}
330
12DA13
100
AcDbVisualStyle
  2
3D Hidden
 70
     6
 71
     1
 72
     2
 73
     2
 90
        0
 40
-0.6
 41
-30.0
 62
     5
 63
     7
 74
     2
 91
        2
 64
     7
 65
   257
 75
     2
175
     1
 42
40.0
 92
        0
 66
   257
 43
1.0
 76
     1
 77
     6
 78
     2
 67
     7
 79
     3
170
     0
171
     0
290
     0
174
     0
 93
        1
 44
0.0
173
     0
291
     0
 45
0.0
1001
ACAD
1000
AcDbSavedByObjectVersion
1070
     0
  0
VISUALSTYLE
  5
12DA1A
102
{ACAD_REACTORS
330
12DA13
102
}
330
12DA13
100
AcDbVisualStyle
  2
3dWireframe
 70
     5
 71
     0
 72
     2
 73
     0
 90
        0
 40
-0.6
 41
-30.0
 62
     5
 63
     7
 74
     1
 91
        4
 64
     7
 65
   257
 75
     1
175
     1
 42
1.0
 92
        0
 66
   257
 43
1.0
 76
     1
 77
     6
 78
     2
 67
     7
 79
     5
170
     0
171
     0
290
     0
174
     0
 93
        1
 44
0.0
173
     0
291
     0
 45
0.0
1001
ACAD
1000
AcDbSavedByObjectVersion
1070
     0
  0
VISUALSTYLE
  5
12DA18
102
{ACAD_REACTORS
330
12DA13
102
}
330
12DA13
100
AcDbVisualStyle
  2
Basic
 70
     7
 71
     1
 72
     0
 73
     1
 90
        0
 40
-0.6
 41
-30.0
 62
     5
 63
     7
 74
     0
 91
        4
 64
     7
 65
   257
 75
     1
175
     1
 42
1.0
 92
        8
 66
     7
 43
1.0
 76
     1
 77
     6
 78
     2
 67
     7
 79
     5
170
     0
171
     0
290
     0
174
     0
 93
        1
 44
0.0
173
     0
291
     1
 45
0.0
1001
ACAD
1000
AcDbSavedByObjectVersion
1070
     0
  0
VISUALSTYLE
  5
12DA1F
102
{ACAD_REACTORS
330
12DA13
102
}
330
12DA13
100
AcDbVisualStyle
  2
Brighten
 70
    12
 71
     2
 72
     2
 73
     0
 90
        0
 40
-0.6
 41
-30.0
 62
     5
 63
     7
 74
     1
 91
        4
 64
     7
 65
   257
 75
     1
175
     1
 42
1.0
 92
        8
 66
     7
 43
1.0
 76
     1
 77
     6
 78
     2
 67
     7
 79
     5
170
     0
171
     0
290
     0
174
     0
 93
        1
 44
50.0
173
     0
291
     1
 45
0.0
1001
ACAD
1000
AcDbSavedByObjectVersion
1070
     0
  0
VISUALSTYLE
  5
12DA23
102
{ACAD_REACTORS
330
12DA13
102
}
330
12DA13
100
AcDbVisualStyle
  2
ColorChange
 70
    16
 71
     2
 72
     2
 73
     3
 90
        0
 40
-0.6
 41
-30.0
 62
     5
 63
     8
 74
     1
 91
        4
 64
     7
 65
   257
 75
     1
175
     1
 42
1.0
 92
        8
 66
     8
 43
1.0
 76
     1
 77
     6
 78
     2
 67
     7
 79
     5
170
     0
171
     0
290
     0
174
     0
 93
        1
 44
0.0
173
     0
291
     1
 45
0.0
1001
ACAD
1000
AcDbSavedByObjectVersion
1070
     0
  0
VISUALSTYLE
  5
12DA1C
102
{ACAD_REACTORS
330
12DA13
102
}
330
12DA13
100
AcDbVisualStyle
  2
Conceptual
 70
     9
 71
     3
 72
     2
 73
     0
 90
        0
 40
-0.6
 41
-30.0
 62
     5
 63
     7
 74
     2
 91
        2
 64
     7
 65
   257
 75
     1
175
     1
 42
40.0
 92
        8
 66
     7
 43
1.0
 76
     1
 77
     6
 78
     2
 67
     7
 79
     3
170
     0
171
     0
290
     0
174
     0
 93
        1
 44
0.0
173
     0
291
     0
 45
0.0
1001
ACAD
1000
AcDbSavedByObjectVersion
1070
     0
  0
VISUALSTYLE
  5
12DA1E
102
{ACAD_REACTORS
330
12DA13
102
}
330
12DA13
100
AcDbVisualStyle
  2
Dim
 70
    11
 71
     2
 72
     2
 73
     0
 90
        0
 40
-0.6
 41
-30.0
 62
     5
 63
     7
 74
     1
 91
        4
 64
     7
 65
   257
 75
     1
175
     1
 42
1.0
 92
        8
 66
     7
 43
1.0
 76
     1
 77
     6
 78
     2
 67
     7
 79
     5
170
     0
171
     0
290
     0
174
     0
 93
        1
 44
-50.0
173
     0
291
     1
 45
0.0
1001
ACAD
1000
AcDbSavedByObjectVersion
1070
     0
  0
VISUALSTYLE
  5
12DA22
102
{ACAD_REACTORS
330
12DA13
102
}
330
12DA13
100
AcDbVisualStyle
  2
Facepattern
 70
    15
 71
     2
 72
     2
 73
     0
 90
        0
 40
-0.6
 41
-30.0
 62
     5
 63
     7
 74
     1
 91
        4
 64
     7
 65
   257
 75
     1
175
     1
 42
1.0
 92
        8
 66
     7
 43
1.0
 76
     1
 77
     6
 78
     2
 67
     7
 79
     5
170
     0
171
     0
290
     0
174
     0
 93
        1
 44
0.0
173
     0
291
     1
 45
0.0
1001
ACAD
1000
AcDbSavedByObjectVersion
1070
     0
  0
VISUALSTYLE
  5
12DA14
102
{ACAD_REACTORS
330
12DA13
102
}
330
12DA13
100
AcDbVisualStyle
  2
Flat
 70
     0
 71
     2
 72
     1
 73
     1
 90
        2
 40
-0.6
 41
30.0
 62
     5
 63
     7
 74
     0
 91
        4
 64
     7
 65
   257
 75
     1
175
     1
 42
1.0
 92
        8
 66
     7
 43
1.0
 76
     1
 77
     6
 78
     2
 67
     7
 79
     5
170
     0
171
     0
290
     0
174
     0
 93
       13
 44
0.0
173
     0
291
     1
 45
0.0
1001
ACAD
1000
AcDbSavedByObjectVersion
1070
     0
  0
VISUALSTYLE
  5
12DA15
102
{ACAD_REACTORS
330
12DA13
102
}
330
12DA13
100
AcDbVisualStyle
  2
FlatWithEdges
 70
     1
 71
     2
 72
     1
 73
     1
 90
        2
 40
-0.6
 41
30.0
 62
     5
 63
     7
 74
     1
 91
        4
 64
     7
 65
   257
 75
     1
175
     1
 42
1.0
 92
        0
 66
   257
 43
1.0
 76
     1
 77
     6
 78
     2
 67
     7
 79
     5
170
     0
171
     0
290
     0
174
     0
 93
       13
 44
0.0
173
     0
291
     1
 45
0.0
1001
ACAD
1000
AcDbSavedByObjectVersion
1070
     0
  0
VISUALSTYLE
  5
12DA16
102
{ACAD_REACTORS
330
12DA13
102
}
330
12DA13
100
AcDbVisualStyle
  2
Gouraud
 70
     2
 71
     2
 72
     2
 73
     1
 90
        2
 40
-0.6
 41
30.0
 62
     5
 63
     7
 74
     0
 91
        4
 64
     7
 65
   257
 75
     1
175
     1
 42
1.0
 92
        0
 66
     7
 43
1.0
 76
     1
 77
     6
 78
     2
 67
     7
 79
     5
170
     0
171
     0
290
     0
174
     0
 93
       13
 44
0.0
173
     0
291
     1
 45
0.0
1001
ACAD
1000
AcDbSavedByObjectVersion
1070
     0
  0
VISUALSTYLE
  5
12DA17
102
{ACAD_REACTORS
330
12DA13
102
}
330
12DA13
100
AcDbVisualStyle
  2
GouraudWithEdges
 70
     3
 71
     2
 72
     2
 73
     1
 90
        2
 40
-0.6
 41
30.0
 62
     5
 63
     7
 74
     1
 91
        4
 64
     7
 65
   257
 75
     1
175
     1
 42
1.0
 92
        0
 66
   257
 43
1.0
 76
     1
 77
     6
 78
     2
 67
     7
 79
     5
170
     0
171
     0
290
     0
174
     0
 93
       13
 44
0.0
173
     0
291
     1
 45
0.0
1001
ACAD
1000
AcDbSavedByObjectVersion
1070
     0
  0
VISUALSTYLE
  5
12DA21
102
{ACAD_REACTORS
330
12DA13
102
}
330
12DA13
100
AcDbVisualStyle
  2
Linepattern
 70
    14
 71
     2
 72
     2
 73
     0
 90
        0
 40
-0.6
 41
-30.0
 62
     5
 63
     7
 74
     1
 91
        4
 64
     7
 65
   257
 75
     7
175
     7
 42
1.0
 92
        8
 66
     7
 43
1.0
 76
     1
 77
     6
 78
     2
 67
     7
 79
     5
170
     0
171
     0
290
     0
174
     0
 93
        1
 44
0.0
173
     0
291
     1
 45
0.0
1001
ACAD
1000
AcDbSavedByObjectVersion
1070
     0
  0
VISUALSTYLE
  5
12DA1D
102
{ACAD_REACTORS
330
12DA13
102
}
330
12DA13
100
AcDbVisualStyle
  2
Realistic
 70
     8
 71
     2
 72
     2
 73
     0
 90
        0
 40
-0.6
 41
-30.0
 62
     5
 63
     7
 74
     1
 91
        0
 64
     7
 65
   257
 75
     1
175
     1
 42
1.0
 92
        8
 66
     8
 43
1.0
 76
     1
 77
     6
 78
     2
 67
     7
 79
     5
170
     0
171
     0
290
     0
174
     0
 93
       13
 44
0.0
173
     0
291
     0
 45
0.0
1001
ACAD
1000
AcDbSavedByObjectVersion
1070
     0
  0
VISUALSTYLE
  5
12DA20
102
{ACAD_REACTORS
330
12DA13
102
}
330
12DA13
100
AcDbVisualStyle
  2
Thicken
 70
    13
 71
     2
 72
     2
 73
     0
 90
        0
 40
-0.6
 41
-30.0
 62
     5
 63
     7
 74
     1
 91
        4
 64
     7
 65
   257
 75
     1
175
     1
 42
1.0
 92
       12
 66
     7
 43
1.0
 76
     1
 77
     6
 78
     2
 67
     7
 79
     5
170
     0
171
     0
290
     0
174
     0
 93
        1
 44
0.0
173
     0
291
     1
 45
0.0
1001
ACAD
1000
AcDbSavedByObjectVersion
1070
     0
  0
DICTIONARYVAR
  5
12DA2E
102
{ACAD_REACTORS
330
6DE
102
}
330
6DE
100
DictionaryVariables
280
     0
  1
1:1
  0
DICTIONARYVAR
  5
12DA2D
102
{ACAD_REACTORS
330
6DE
102
}
330
6DE
100
DictionaryVariables
280
     0
  1
STANDARD
  0
DICTIONARYVAR
  5
12DA2C
102
{ACAD_REACTORS
330
6DE
102
}
330
6DE
100
DictionaryVariables
280
     0
  1
STANDARD
  0
DICTIONARYVAR
  5
6DF
102
{ACAD_REACTORS
330
6DE
102
}
330
6DE
100
DictionaryVariables
280
     0
  1
1
  0
DICTIONARYVAR
  5
A93
102
{ACAD_REACTORS
330
6DE
102
}
330
6DE
100
DictionaryVariables
280
     0
  1
0
  0
DICTIONARYVAR
  5
6E0
102
{ACAD_REACTORS
330
6DE
102
}
330
6DE
100
DictionaryVariables
280
     0
  1

  0
DICTIONARYVAR
  5
A92
102
{ACAD_REACTORS
330
6DE
102
}
330
6DE
100
DictionaryVariables
280
     0
  1
127
  0
DICTIONARY
  5
12DA33
330
619
100
AcDbDictionary
280
     1
281
     1
  3
ACAD_XREC_ROUNDTRIP
360
12DA34
  0
DICTIONARY
  5
12DA35
330
61A
100
AcDbDictionary
280
     1
281
     1
  3
ACAD_XREC_ROUNDTRIP
360
12DA36
  0
DICTIONARY
  5
12DA04
330
12DA03
100
AcDbDictionary
280
     1
281
     1
  3
ACAD_XREC_ROUNDTRIP
360
12DA38
  3
BUMPTILE
360
12DA06
  3
DIFFUSETILE
360
12DA05
  3
OPACITYTILE
360
12DA09
  3
REFLECTIONTILE
360
12DA08
  3
REFRACTIONTILE
360
12DA0A
  3
SPECULARTILE
360
12DA07
  0
DICTIONARY
  5
12D9FC
330
12D9FB
100
AcDbDictionary
280
     1
281
     1
  3
ACAD_XREC_ROUNDTRIP
360
12DA37
  3
BUMPTILE
360
12D9FE
  3
DIFFUSETILE
360
12D9FD
  3
OPACITYTILE
360
12DA01
  3
REFLECTIONTILE
360
12DA00
  3
REFRACTIONTILE
360
12DA02
  3
SPECULARTILE
360
12D9FF
  0
DICTIONARY
  5
12DA0C
330
12DA0B
100
AcDbDictionary
280
     1
281
     1
  3
ACAD_XREC_ROUNDTRIP
360
12DA39
  3
BUMPTILE
360
12DA0E
  3
DIFFUSETILE
360
12DA0D
  3
OPACITYTILE
360
12DA11
  3
REFLECTIONTILE
360
12DA10
  3
REFRACTIONTILE
360
12DA12
  3
SPECULARTILE
360
12DA0F
  0
DICTIONARY
  5
12DA2F
330
12DA26
100
AcDbDictionary
280
     1
281
     1
  3
ACAD_ROUNDTRIP_2008_TABLESTYLE_CELLSTYLEMAP
360
12DA30
  3
ACAD_XREC_ROUNDTRIP
360
12DA3A
  0
XRECORD
  5
12DA34
102
{ACAD_REACTORS
330
12DA33
102
}
330
12DA33
100
AcDbXrecord
280
     1
102
SHADEPLOT
 70
     0
102
SHADEPLOTRESLEVEL
 70
     2
102
SHADEPLOTCUSTOMDPI
 70
   300
  0
XRECORD
  5
12DA36
102
{ACAD_REACTORS
330
12DA35
102
}
330
12DA35
100
AcDbXrecord
280
     1
102
SHADEPLOT
 70
     0
102
SHADEPLOTRESLEVEL
 70
     2
102
SHADEPLOTCUSTOMDPI
 70
   300
  0
XRECORD
  5
12DA38
102
{ACAD_REACTORS
330
12DA04
102
}
330
12DA04
100
AcDbXrecord
280
     1
102
MATERIAL
148
0.0
149
0.0
149
0.0
 93
        0
 94
      127
282
     0
 72
     0
 77
     0
171
     0
175
     0
179
     0
273
     0
  0
XRECORD
  5
12DA06
102
{ACAD_REACTORS
330
12DA04
102
}
330
12DA04
100
AcDbXrecord
280
     1
270
     1
271
     1
  0
XRECORD
  5
12DA05
102
{ACAD_REACTORS
330
12DA04
102
}
330
12DA04
100
AcDbXrecord
280
     1
270
     1
271
     1
  0
XRECORD
  5
12DA09
102
{ACAD_REACTORS
330
12DA04
102
}
330
12DA04
100
AcDbXrecord
280
     1
270
     1
271
     1
  0
XRECORD
  5
12DA08
102
{ACAD_REACTORS
330
12DA04
102
}
330
12DA04
100
AcDbXrecord
280
     1
270
     1
271
     1
  0
XRECORD
  5
12DA0A
102
{ACAD_REACTORS
330
12DA04
102
}
330
12DA04
100
AcDbXrecord
280
     1
270
     1
271
     1
  0
XRECORD
  5
12DA07
102
{ACAD_REACTORS
330
12DA04
102
}
330
12DA04
100
AcDbXrecord
280
     1
270
     1
271
     1
  0
XRECORD
  5
12DA37
102
{ACAD_REACTORS
330
12D9FC
102
}
330
12D9FC
100
AcDbXrecord
280
     1
102
MATERIAL
148
0.0
149
0.0
149
0.0
 93
        0
 94
      127
282
     0
 72
     0
 77
     0
171
     0
175
     0
179
     0
273
     0
  0
XRECORD
  5
12D9FE
102
{ACAD_REACTORS
330
12D9FC
102
}
330
12D9FC
100
AcDbXrecord
280
     1
270
     1
271
     1
  0
XRECORD
  5
12D9FD
102
{ACAD_REACTORS
330
12D9FC
102
}
330
12D9FC
100
AcDbXrecord
280
     1
270
     1
271
     1
  0
XRECORD
  5
12DA01
102
{ACAD_REACTORS
330
12D9FC
102
}
330
12D9FC
100
AcDbXrecord
280
     1
270
     1
271
     1
  0
XRECORD
  5
12DA00
102
{ACAD_REACTORS
330
12D9FC
102
}
330
12D9FC
100
AcDbXrecord
280
     1
270
     1
271
     1
  0
XRECORD
  5
12DA02
102
{ACAD_REACTORS
330
12D9FC
102
}
330
12D9FC
100
AcDbXrecord
280
     1
270
     1
271
     1
  0
XRECORD
  5
12D9FF
102
{ACAD_REACTORS
330
12D9FC
102
}
330
12D9FC
100
AcDbXrecord
280
     1
270
     1
271
     1
  0
XRECORD
  5
12DA39
102
{ACAD_REACTORS
330
12DA0C
102
}
330
12DA0C
100
AcDbXrecord
280
     1
102
MATERIAL
148
0.0
149
0.0
149
0.0
 93
        0
 94
      127
282
     0
 72
     0
 77
     0
171
     0
175
     0
179
     0
273
     0
  0
XRECORD
  5
12DA0E
102
{ACAD_REACTORS
330
12DA0C
102
}
330
12DA0C
100
AcDbXrecord
280
     1
270
     1
271
     1
  0
XRECORD
  5
12DA0D
102
{ACAD_REACTORS
330
12DA0C
102
}
330
12DA0C
100
AcDbXrecord
280
     1
270
     1
271
     1
  0
XRECORD
  5
12DA11
102
{ACAD_REACTORS
330
12DA0C
102
}
330
12DA0C
100
AcDbXrecord
280
     1
270
     1
271
     1
  0
XRECORD
  5
12DA10
102
{ACAD_REACTORS
330
12DA0C
102
}
330
12DA0C
100
AcDbXrecord
280
     1
270
     1
271
     1
  0
XRECORD
  5
12DA12
102
{ACAD_REACTORS
330
12DA0C
102
}
330
12DA0C
100
AcDbXrecord
280
     1
270
     1
271
     1
  0
XRECORD
  5
12DA0F
102
{ACAD_REACTORS
330
12DA0C
102
}
330
12DA0C
100
AcDbXrecord
280
     1
270
     1
271
     1
  0
CELLSTYLEMAP
  5
12DA30
102
{ACAD_REACTORS
330
12DA2F
102
}
330
12DA2F
100
AcDbCellStyleMap
 90
        3
300
CELLSTYLE
  1
TABLEFORMAT_BEGIN
 90
        5
170
     1
 91
        0
 92
    32768
 62
   257
 93
        1
300
CONTENTFORMAT
  1
CONTENTFORMAT_BEGIN
 90
        0
 91
        0
 92
      512
 93
        0
300

 40
0.0
140
1.0
 94
        5
 62
     0
340
10
144
0.25
309
CONTENTFORMAT_END
171
     0
 94
        0
309
TABLEFORMAT_END
  1
CELLSTYLE_BEGIN
 90
        1
 91
        1
300
_TITLE
309
CELLSTYLE_END
300
CELLSTYLE
  1
TABLEFORMAT_BEGIN
 90
        5
170
     1
 91
        0
 92
        0
 62
   257
 93
        1
300
CONTENTFORMAT
  1
CONTENTFORMAT_BEGIN
 90
        0
 91
        0
 92
      512
 93
        0
300

 40
0.0
140
1.0
 94
        5
 62
     0
340
10
144
0.18
309
CONTENTFORMAT_END
171
     0
 94
        0
309
TABLEFORMAT_END
  1
CELLSTYLE_BEGIN
 90
        2
 91
        1
300
_HEADER
309
CELLSTYLE_END
300
CELLSTYLE
  1
TABLEFORMAT_BEGIN
 90
        5
170
     1
 91
        0
 92
        0
 62
   257
 93
        1
300
CONTENTFORMAT
  1
CONTENTFORMAT_BEGIN
 90
        0
 91
        0
 92
      512
 93
        0
300

 40
0.0
140
1.0
 94
        2
 62
     0
340
10
144
0.18
309
CONTENTFORMAT_END
171
     0
 94
        0
309
TABLEFORMAT_END
  1
CELLSTYLE_BEGIN
 90
        3
 91
        2
300
_DATA
309
CELLSTYLE_END
  0
XRECORD
  5
12DA3A
102
{ACAD_REACTORS
330
12DA2F
102
}
330
12DA2F
100
AcDbXrecord
280
     1
102
ACAD_ROUNDTRIP_PRE2007_TABLESTYLE
 90
      512
 91
        0
  1

 92
      512
 93
        0
  2

 94
      512
 95
        0
  3

  0
ENDSEC
  0
EOF
