  0
SECTION
  2
HEADER
  9
$ACADVER
  1
AC1015
  9
$ACADMAINTVER
 70
    20
  9
$DWGCODEPAGE
  3
ANSI_932
  9
$INSBASE
 10
0.0
 20
0.0
 30
0.0
  9
$EXTMIN
 10
5473.79409385405
 20
-7043.302057302861
 30
-0.0000000000000231
  9
$EXTMAX
 10
5569.627676021208
 20
-6955.941517392108
 30
0.000000000000038
  9
$LIMMIN
 10
0.0
 20
0.0
  9
$LIMMAX
 10
420.0
 20
297.0
  9
$ORTHOMODE
 70
     1
  9
$REGENMODE
 70
     1
  9
$FILLMODE
 70
     1
  9
$QTEXTMODE
 70
     0
  9
$MIRRTEXT
 70
     1
  9
$LTSCALE
 40
5.0
  9
$ATTMODE
 70
     0
  9
$TEXTSIZE
 40
53.44730959687513
  9
$TRACEWID
 40
1.0
  9
$TEXTSTYLE
  7
STANDARD
  9
$CLAYER
  8
寸法線
  9
$CELTYPE
  6
BYLAYER
  9
$CECOLOR
 62
   256
  9
$CELTSCALE
 40
1.0
  9
$DISPSILH
 70
     0
  9
$DIMSCALE
 40
1.0
  9
$DIMASZ
 40
2.5
  9
$DIMEXO
 40
1.5
  9
$DIMDLI
 40
0.38
  9
$DIMRND
 40
0.0
  9
$DIMDLE
 40
0.0
  9
$DIMEXE
 40
1.0
  9
$DIMTP
 40
0.0
  9
$DIMTM
 40
0.0
  9
$DIMTXT
 40
2.500000000000003
  9
$DIMCEN
 40
0.0
  9
$DIMTSZ
 40
0.0
  9
$DIMTOL
 70
     0
  9
$DIMLIM
 70
     0
  9
$DIMTIH
 70
     0
  9
$DIMTOH
 70
     0
  9
$DIMSE1
 70
     0
  9
$DIMSE2
 70
     0
  9
$DIMTAD
 70
     3
  9
$DIMZIN
 70
     8
  9
$DIMBLK
  1

  9
$DIMASO
 70
     1
  9
$DIMSHO
 70
     0
  9
$DIMPOST
  1

  9
$DIMAPOST
  1

  9
$DIMALT
 70
     0
  9
$DIMALTD
 70
     0
  9
$DIMALTF
 40
25.4
  9
$DIMLFAC
 40
1.0
  9
$DIMTOFL
 70
     1
  9
$DIMTVP
 40
0.0
  9
$DIMTIX
 70
     0
  9
$DIMSOXD
 70
     0
  9
$DIMSAH
 70
     1
  9
$DIMBLK1
  1
OPEN
  9
$DIMBLK2
  1
OPEN
  9
$DIMSTYLE
  2
STANDARD
  9
$DIMCLRD
 70
     8
  9
$DIMCLRE
 70
     8
  9
$DIMCLRT
 70
   256
  9
$DIMTFAC
 40
1.0
  9
$DIMGAP
 40
1.0
  9
$DIMJUST
 70
     0
  9
$DIMSD1
 70
     0
  9
$DIMSD2
 70
     0
  9
$DIMTOLJ
 70
     1
  9
$DIMTZIN
 70
     0
  9
$DIMALTZ
 70
     0
  9
$DIMALTTZ
 70
     0
  9
$DIMUPT
 70
     0
  9
$DIMDEC
 70
     2
  9
$DIMTDEC
 70
     2
  9
$DIMALTU
 70
     2
  9
$DIMALTTD
 70
     0
  9
$DIMTXSTY
  7
STANDARD
  9
$DIMAUNIT
 70
     0
  9
$DIMADEC
 70
     2
  9
$DIMALTRND
 40
0.0
  9
$DIMAZIN
 70
     2
  9
$DIMDSEP
 70
    46
  9
$DIMATFIT
 70
     1
  9
$DIMFRAC
 70
     0
  9
$DIMLDRBLK
  1
OPEN
  9
$DIMLUNIT
 70
     2
  9
$DIMLWD
 70
    -2
  9
$DIMLWE
 70
    -2
  9
$DIMTMOVE
 70
     0
  9
$LUNITS
 70
     2
  9
$LUPREC
 70
     2
  9
$SKETCHINC
 40
0.1
  9
$FILLETRAD
 40
7.0
  9
$AUNITS
 70
     0
  9
$AUPREC
 70
     1
  9
$MENU
  1
FM
  9
$ELEVATION
 40
0.0
  9
$PELEVATION
 40
0.0
  9
$THICKNESS
 40
0.0
  9
$LIMCHECK
 70
     0
  9
$CHAMFERA
 40
0.0
  9
$CHAMFERB
 40
0.0
  9
$CHAMFERC
 40
0.0
  9
$CHAMFERD
 40
0.0
  9
$SKPOLY
 70
     0
  9
$TDCREATE
 40
2448636.619629630
  9
$TDUCREATE
 40
2448636.244629629
  9
$TDUPDATE
 40
2457337.803812928
  9
$TDUUPDATE
 40
2457337.428812928
  9
$TDINDWG
 40
53.0305199769
  9
$TDUSRTIMER
 40
2456821.204097836
  9
$USRTIMER
 70
     1
  9
$ANGBASE
 50
0.0
  9
$ANGDIR
 70
     0
  9
$PDMODE
 70
     3
  9
$PDSIZE
 40
0.0
  9
$PLINEWID
 40
0.0
  9
$SPLFRAME
 70
     0
  9
$SPLINETYPE
 70
     6
  9
$SPLINESEGS
 70
     8
  9
$HANDSEED
  5
168EC1
  9
$SURFTAB1
 70
     6
  9
$SURFTAB2
 70
     6
  9
$SURFTYPE
 70
     6
  9
$SURFU
 70
     6
  9
$SURFV
 70
     6
  9
$UCSBASE
  2

  9
$UCSNAME
  2

  9
$UCSORG
 10
0.0
 20
0.0
 30
0.0
  9
$UCSXDIR
 10
1.0
 20
0.0
 30
0.0
  9
$UCSYDIR
 10
0.0
 20
1.0
 30
0.0
  9
$UCSORTHOREF
  2

  9
$UCSORTHOVIEW
 70
     0
  9
$UCSORGTOP
 10
0.0
 20
0.0
 30
0.0
  9
$UCSORGBOTTOM
 10
0.0
 20
0.0
 30
0.0
  9
$UCSORGLEFT
 10
0.0
 20
0.0
 30
0.0
  9
$UCSORGRIGHT
 10
0.0
 20
0.0
 30
0.0
  9
$UCSORGFRONT
 10
0.0
 20
0.0
 30
0.0
  9
$UCSORGBACK
 10
0.0
 20
0.0
 30
0.0
  9
$PUCSBASE
  2

  9
$PUCSNAME
  2

  9
$PUCSORG
 10
0.0
 20
0.0
 30
0.0
  9
$PUCSXDIR
 10
1.0
 20
0.0
 30
0.0
  9
$PUCSYDIR
 10
0.0
 20
1.0
 30
0.0
  9
$PUCSORTHOREF
  2

  9
$PUCSORTHOVIEW
 70
     0
  9
$PUCSORGTOP
 10
0.0
 20
0.0
 30
0.0
  9
$PUCSORGBOTTOM
 10
0.0
 20
0.0
 30
0.0
  9
$PUCSORGLEFT
 10
0.0
 20
0.0
 30
0.0
  9
$PUCSORGRIGHT
 10
0.0
 20
0.0
 30
0.0
  9
$PUCSORGFRONT
 10
0.0
 20
0.0
 30
0.0
  9
$PUCSORGBACK
 10
0.0
 20
0.0
 30
0.0
  9
$USERI1
 70
     0
  9
$USERI2
 70
     0
  9
$USERI3
 70
     0
  9
$USERI4
 70
     0
  9
$USERI5
 70
     0
  9
$USERR1
 40
0.0
  9
$USERR2
 40
0.0
  9
$USERR3
 40
0.0
  9
$USERR4
 40
0.0
  9
$USERR5
 40
0.0
  9
$WORLDVIEW
 70
     0
  9
$SHADEDGE
 70
     3
  9
$SHADEDIF
 70
    70
  9
$TILEMODE
 70
     1
  9
$MAXACTVP
 70
    16
  9
$PINSBASE
 10
0.0
 20
0.0
 30
0.0
  9
$PLIMCHECK
 70
     0
  9
$PEXTMIN
 10
1.000000000000000E+20
 20
1.000000000000000E+20
 30
1.000000000000000E+20
  9
$PEXTMAX
 10
-1.000000000000000E+20
 20
-1.000000000000000E+20
 30
-1.000000000000000E+20
  9
$PLIMMIN
 10
0.0
 20
0.0
  9
$PLIMMAX
 10
0.0
 20
0.0
  9
$UNITMODE
 70
     0
  9
$VISRETAIN
 70
     0
  9
$PLINEGEN
 70
     0
  9
$PSLTSCALE
 70
     0
  9
$TREEDEPTH
 70
  3020
  9
$CMLSTYLE
  2
STANDARD
  9
$CMLJUST
 70
     0
  9
$CMLSCALE
 40
1.0
  9
$PROXYGRAPHICS
 70
     1
  9
$MEASUREMENT
 70
     0
  9
$CELWEIGHT
370
    -1
  9
$ENDCAPS
280
     0
  9
$JOINSTYLE
280
     0
  9
$LWDISPLAY
290
     0
  9
$INSUNITS
 70
     0
  9
$HYPERLINKBASE
  1

  9
$STYLESHEET
  1
SPAX FORM.CTB
  9
$XEDIT
290
     1
  9
$CEPSNTYPE
380
     0
  9
$PSTYLEMODE
290
     1
  9
$FINGERPRINTGUID
  2
{BBAEEBA6-8B94-11D3-9160-00E0294F7E09}
  9
$VERSIONGUID
  2
{45FEAD53-EAA5-4866-AF91-C2BD25467061}
  9
$EXTNAMES
290
     1
  9
$PSVPSCALE
 40
0.0
  9
$OLESTARTUP
290
     0
  0
ENDSEC
  0
SECTION
  2
CLASSES
  0
CLASS
  1
ACDBDICTIONARYWDFLT
  2
AcDbDictionaryWithDefault
  3
ObjectDBX Classes
 90
        0
280
     0
281
     0
  0
CLASS
  1
ACDBPLACEHOLDER
  2
AcDbPlaceHolder
  3
ObjectDBX Classes
 90
        0
280
     0
281
     0
  0
CLASS
  1
LAYOUT
  2
AcDbLayout
  3
ObjectDBX Classes
 90
        0
280
     0
281
     0
  0
CLASS
  1
DICTIONARYVAR
  2
AcDbDictionaryVar
  3
ObjectDBX Classes
 90
        0
280
     0
281
     0
  0
CLASS
  1
MATERIAL
  2
AcDbMaterial
  3
ObjectDBX Classes
 90
     1153
280
     0
281
     0
  0
CLASS
  1
VISUALSTYLE
  2
AcDbVisualStyle
  3
ObjectDBX Classes
 90
     4095
280
     0
281
     0
  0
CLASS
  1
TABLESTYLE
  2
AcDbTableStyle
  3
ObjectDBX Classes
 90
     4095
280
     0
281
     0
  0
CLASS
  1
SCALE
  2
AcDbScale
  3
ObjectDBX Classes
 90
     1153
280
     0
281
     0
  0
CLASS
  1
MLEADERSTYLE
  2
AcDbMLeaderStyle
  3
ACDB_MLEADERSTYLE_CLASS
 90
     4095
280
     0
281
     0
  0
CLASS
  1
CELLSTYLEMAP
  2
AcDbCellStyleMap
  3
ObjectDBX Classes
 90
     1152
280
     0
281
     0
  0
CLASS
  1
SORTENTSTABLE
  2
AcDbSortentsTable
  3
ObjectDBX Classes
 90
        0
280
     0
281
     0
  0
CLASS
  1
MULTILEADER
  2
AcDbMLeader
  3
ACDB_MLEADER_CLASS
 90
    33793
280
     0
281
     1
  0
CLASS
  1
DIMASSOC
  2
AcDbDimAssoc
  3
"AcDbDimAssoc|Product Desc:     AcDim ARX App For Dimension|Company:          Autodesk, Inc.|WEB Address:      www.autodesk.com"
 90
    32768
280
     0
281
     0
  0
CLASS
  1
RASTERVARIABLES
  2
AcDbRasterVariables
  3
ISM
 90
        0
280
     0
281
     0
  0
CLASS
  1
SUN
  2
AcDbSun
  3
SCENEOE
 90
    33921
280
     0
281
     0
  0
ENDSEC
  0
SECTION
  2
TABLES
  0
TABLE
  2
VPORT
  5
8
330
0
100
AcDbSymbolTable
 70
     1
  0
VPORT
  5
163876
330
8
100
AcDbSymbolTableRecord
100
AcDbViewportTableRecord
  2
*Active
 70
     0
 10
0.0
 20
0.0
 11
1.0
 21
1.0
 12
5521.710884937629
 22
-6999.621787347485
 13
0.0
 23
0.0
 14
1.0
 24
1.0
 15
20.0
 25
20.0
 16
0.0
 26
0.0
 36
1.0
 17
0.0
 27
0.0
 37
0.0
 40
94.87087061057277
 41
1.020066889632107
 42
50.0
 43
0.0
 44
0.0
 50
0.0
 51
0.0
 71
    16
 72
   100
 73
     1
 74
     0
 75
     0
 76
     0
 77
     0
 78
     0
281
     0
 65
     1
110
0.0
120
0.0
130
0.0
111
1.0
121
0.0
131
0.0
112
0.0
122
1.0
132
0.0
 79
     0
146
0.0
  0
ENDTAB
  0
TABLE
  2
LTYPE
  5
5
330
0
100
AcDbSymbolTable
 70
     4
  0
LTYPE
  5
12
330
5
100
AcDbSymbolTableRecord
100
AcDbLinetypeTableRecord
  2
BYBLOCK
 70
     0
  3

 72
    65
 73
     0
 40
0.0
  0
LTYPE
  5
13
330
5
100
AcDbSymbolTableRecord
100
AcDbLinetypeTableRecord
  2
BYLAYER
 70
     0
  3

 72
    65
 73
     0
 40
0.0
  0
LTYPE
  5
14
330
5
100
AcDbSymbolTableRecord
100
AcDbLinetypeTableRecord
  2
CONTINUOUS
 70
     0
  3
Solid line
 72
    65
 73
     0
 40
0.0
  0
LTYPE
  5
26
330
5
100
AcDbSymbolTableRecord
100
AcDbLinetypeTableRecord
  2
PHANTOM
 70
     0
  3
_____ _ _ _____ _ _ _____ _ _ _____ _ _ ____
 72
    65
 73
     6
 40
2.5
 49
1.25
 74
     0
 49
-0.25
 74
     0
 49
0.25
 74
     0
 49
-0.25
 74
     0
 49
0.25
 74
     0
 49
-0.25
 74
     0
  0
LTYPE
  5
27
330
5
100
AcDbSymbolTableRecord
100
AcDbLinetypeTableRecord
  2
HIDDEN
 70
     0
  3
_ _ _ _ _ _ _ _ _ _ _ _ _ _ _ _ _ _ _ _ _ _ _
 72
    65
 73
     2
 40
0.375
 49
0.25
 74
     0
 49
-0.125
 74
     0
  0
LTYPE
  5
514
330
5
100
AcDbSymbolTableRecord
100
AcDbLinetypeTableRecord
  2
CENTER
 70
     0
  3
Center ____ _ ____ _ ____ _ ____ _ ____ _ ____
 72
    65
 73
     4
 40
2.0
 49
1.25
 74
     0
 49
-0.25
 74
     0
 49
0.25
 74
     0
 49
-0.25
 74
     0
  0
ENDTAB
  0
TABLE
  2
LAYER
  5
2
102
{ACAD_XDICTIONARY
360
8BF
102
}
330
0
100
AcDbSymbolTable
 70
     4
  0
LAYER
  5
F
102
{ACAD_XDICTIONARY
360
A60
102
}
330
2
100
AcDbSymbolTableRecord
100
AcDbLayerTableRecord
  2
0
 70
     0
 62
     7
  6
CONTINUOUS
370
    -3
390
616
  0
LAYER
  5
34
102
{ACAD_XDICTIONARY
360
A66
102
}
330
2
100
AcDbSymbolTableRecord
100
AcDbLayerTableRecord
  2
寸法線
 70
     0
 62
     7
  6
CONTINUOUS
370
    -3
390
616
  0
LAYER
  5
2F4
102
{ACAD_XDICTIONARY
360
A6E
102
}
330
2
100
AcDbSymbolTableRecord
100
AcDbLayerTableRecord
  2
文字
 70
     0
 62
     7
  6
CONTINUOUS
370
    -3
390
616
  0
LAYER
  5
305
102
{ACAD_XDICTIONARY
360
A72
102
}
330
2
100
AcDbSymbolTableRecord
100
AcDbLayerTableRecord
  2
姿図
 70
     0
 62
     8
  6
CONTINUOUS
370
    -3
390
616
  0
ENDTAB
  0
TABLE
  2
STYLE
  5
3
330
0
100
AcDbSymbolTable
 70
     1
  0
STYLE
  5
10
330
3
100
AcDbSymbolTableRecord
100
AcDbTextStyleTableRecord
  2
STANDARD
 70
     0
 40
0.0
 41
1.0
 50
0.0
 71
     0
 42
53.44730959687513
  3
MONOTXT
  4
BIGFONT
  0
ENDTAB
  0
TABLE
  2
VIEW
  5
6
330
0
100
AcDbSymbolTable
 70
     0
  0
ENDTAB
  0
TABLE
  2
UCS
  5
7
330
0
100
AcDbSymbolTable
 70
     0
  0
ENDTAB
  0
TABLE
  2
APPID
  5
9
330
0
100
AcDbSymbolTable
 70
    15
  0
APPID
  5
11
330
9
100
AcDbSymbolTableRecord
100
AcDbRegAppTableRecord
  2
ACAD
 70
     0
  0
APPID
  5
8BB
330
9
100
AcDbSymbolTableRecord
100
AcDbRegAppTableRecord
  2
ACAD_PSEXT
 70
     0
  0
APPID
  5
A5A
330
9
100
AcDbSymbolTableRecord
100
AcDbRegAppTableRecord
  2
ACAD_MLEADERVER
 70
     0
  0
APPID
  5
A5E
330
9
100
AcDbSymbolTableRecord
100
AcDbRegAppTableRecord
  2
ACAD_DSTYLE_DIMJAG
 70
     0
  0
APPID
  5
A5F
330
9
100
AcDbSymbolTableRecord
100
AcDbRegAppTableRecord
  2
ACAD_DSTYLE_DIMTALN
 70
     0
  0
APPID
  5
12C0
330
9
100
AcDbSymbolTableRecord
100
AcDbRegAppTableRecord
  2
ACAD_EXEMPT_FROM_CAD_STANDARDS
 70
     0
  0
APPID
  5
1C50
330
9
100
AcDbSymbolTableRecord
100
AcDbRegAppTableRecord
  2
AcAecLayerStandard
 70
     0
  0
APPID
  5
5088
330
9
100
AcDbSymbolTableRecord
100
AcDbRegAppTableRecord
  2
ACAD_DSTYLE_DIMRADIAL_EXTENSION
 70
     0
  0
APPID
  5
14AF3
330
9
100
AcDbSymbolTableRecord
100
AcDbRegAppTableRecord
  2
WACOM_STRING
 70
     0
  0
APPID
  5
14AF4
330
9
100
AcDbSymbolTableRecord
100
AcDbRegAppTableRecord
  2
WACOM_DRSYM_ARROW
 70
     0
  0
APPID
  5
1E1A8
330
9
100
AcDbSymbolTableRecord
100
AcDbRegAppTableRecord
  2
GENIUS_GENODEF_13
 70
     0
  0
APPID
  5
1E1A9
330
9
100
AcDbSymbolTableRecord
100
AcDbRegAppTableRecord
  2
GENIUS_GENREC_14
 70
     0
  0
APPID
  5
1E1AA
330
9
100
AcDbSymbolTableRecord
100
AcDbRegAppTableRecord
  2
GENIUS_GENOBJ-N-REC_13
 70
     0
  0
APPID
  5
27C72
330
9
100
AcDbSymbolTableRecord
100
AcDbRegAppTableRecord
  2
ASK_MEN_XD
 70
     0
  0
APPID
  5
29316
330
9
100
AcDbSymbolTableRecord
100
AcDbRegAppTableRecord
  2
ACAD_DSTYLE_DIMBREAK
 70
     0
  0
ENDTAB
  0
TABLE
  2
DIMSTYLE
  5
A
330
0
100
AcDbSymbolTable
 70
     1
100
AcDbDimStyleTable
 71
     0
  0
DIMSTYLE
105
1CC
330
A
100
AcDbSymbolTableRecord
100
AcDbDimStyleTableRecord
  2
STANDARD
 70
     0
 41
2.5
 42
1.5
 44
1.0
 73
     0
 74
     0
 77
     3
 78
     8
 79
     2
140
2.500000000000003
141
0.0
147
1.0
171
     0
172
     1
173
     1
176
     8
177
     8
178
   256
179
     2
271
     2
272
     2
274
     0
289
     1
340
10
341
608
343
608
344
608
1001
ACAD_DSTYLE_DIMJAG
1070
   388
1040
1.5
1001
ACAD_DSTYLE_DIMTALN
1070
   392
1070
     0
  0
ENDTAB
  0
TABLE
  2
BLOCK_RECORD
  5
1
330
0
100
AcDbSymbolTable
 70
     3
  0
BLOCK_RECORD
  5
18
102
{ACAD_XDICTIONARY
360
143F
102
}
330
1
100
AcDbSymbolTableRecord
100
AcDbBlockTableRecord
  2
*MODEL_SPACE
340
619
  0
BLOCK_RECORD
  5
15
330
1
100
AcDbSymbolTableRecord
100
AcDbBlockTableRecord
  2
*PAPER_SPACE
340
61A
  0
BLOCK_RECORD
  5
608
330
1
100
AcDbSymbolTableRecord
100
AcDbBlockTableRecord
  2
_OPEN
340
0
  0
BLOCK_RECORD
  5
89D
330
1
100
AcDbSymbolTableRecord
100
AcDbBlockTableRecord
  2
SUN
340
0
  0
BLOCK_RECORD
  5
1F1F
330
1
100
AcDbSymbolTableRecord
100
AcDbBlockTableRecord
  2
_OPEN30
340
0
  0
ENDTAB
  0
ENDSEC
  0
SECTION
  2
BLOCKS
  0
BLOCK
  5
39
330
18
100
AcDbEntity
  8
0
100
AcDbBlockBegin
  2
*MODEL_SPACE
 70
     0
 10
0.0
 20
0.0
 30
0.0
  3
*MODEL_SPACE
  1
*MODEL_SPACE
  0
ENDBLK
  5
3A
330
18
100
AcDbEntity
  8
0
100
AcDbBlockEnd
  0
BLOCK
  5
37
330
15
100
AcDbEntity
 67
     1
  8
0
100
AcDbBlockBegin
  2
*PAPER_SPACE
 70
     0
 10
0.0
 20
0.0
 30
0.0
  3
*PAPER_SPACE
  1
*PAPER_SPACE
  0
ENDBLK
  5
38
330
15
100
AcDbEntity
 67
     1
  8
0
100
AcDbBlockEnd
  0
BLOCK
  5
609
330
608
100
AcDbEntity
  8
0
100
AcDbBlockBegin
  2
_OPEN
 70
     0
 10
0.0
 20
0.0
 30
0.0
  3
_OPEN
  1
_OPEN
  0
LINE
  5
60A
330
608
100
AcDbEntity
  8
0
  6
ByBlock
 62
     0
100
AcDbLine
 10
-1.0
 20
0.1666666666666667
 30
0.0
 11
0.0
 21
0.0
 31
0.0
  0
LINE
  5
60B
330
608
100
AcDbEntity
  8
0
  6
ByBlock
 62
     0
100
AcDbLine
 10
0.0
 20
0.0
 30
0.0
 11
-1.0
 21
-0.1666666666666667
 31
0.0
  0
LINE
  5
60C
330
608
100
AcDbEntity
  8
0
  6
ByBlock
 62
     0
100
AcDbLine
 10
0.0
 20
0.0
 30
0.0
 11
-1.0
 21
0.0
 31
0.0
  0
ENDBLK
  5
60D
330
608
100
AcDbEntity
  8
0
100
AcDbBlockEnd
  0
BLOCK
  5
89E
330
89D
100
AcDbEntity
  8
0
100
AcDbBlockBegin
  2
SUN
 70
     0
 10
0.0
 20
0.0
 30
0.0
  3
SUN
  1
SUN
  0
LINE
  5
89F
330
89D
100
AcDbEntity
  8
0
100
AcDbLine
 10
-0.0000000000000568
 20
0.0
 30
0.0
 11
-1.500000000000056
 21
0.0
 31
0.0
  0
LINE
  5
8A0
330
89D
100
AcDbEntity
  8
0
100
AcDbLine
 10
-0.0000000000000568
 20
0.0000000000000284
 30
0.0
 11
-1.500000000000056
 21
0.401923788646684
 31
0.0
  0
LINE
  5
8A1
330
89D
100
AcDbEntity
  8
0
100
AcDbLine
 10
-0.0000000000000568
 20
0.0000000000000284
 30
0.0
 11
-1.500000000000056
 21
-0.4019237886466557
 31
0.0
  0
ENDBLK
  5
8A2
330
89D
100
AcDbEntity
  8
0
100
AcDbBlockEnd
  0
BLOCK
  5
1F20
330
1F1F
100
AcDbEntity
  8
0
100
AcDbBlockBegin
  2
_OPEN30
 70
     0
 10
0.0
 20
0.0
 30
0.0
  3
_OPEN30
  1
_OPEN30
  0
LINE
  5
1F21
330
1F1F
100
AcDbEntity
  8
0
  6
ByBlock
 62
     0
100
AcDbLine
 10
-1.0
 20
0.26794919
 30
0.0
 11
0.0
 21
0.0
 31
0.0
  0
LINE
  5
1F22
330
1F1F
100
AcDbEntity
  8
0
  6
ByBlock
 62
     0
100
AcDbLine
 10
0.0
 20
0.0
 30
0.0
 11
-1.0
 21
-0.26794919
 31
0.0
  0
LINE
  5
1F23
330
1F1F
100
AcDbEntity
  8
0
  6
ByBlock
 62
     0
100
AcDbLine
 10
0.0
 20
0.0
 30
0.0
 11
-1.0
 21
0.0
 31
0.0
  0
ENDBLK
  5
1F24
330
1F1F
100
AcDbEntity
  8
0
100
AcDbBlockEnd
  0
ENDSEC
  0
SECTION
  2
ENTITIES
  0
MTEXT
  5
D0CC6
330
18
100
AcDbEntity
  8
寸法線
100
AcDbMText
 10
2610.774875364868
 20
-2740.315466585338
 30
0.0
 40
2.500000000000003
 41
0.0
 71
     9
 72
     1
  1
\A1;
 73
     1
 44
1.0
1001
ACAD
1000
MTEXTBEGIN
1070
    73
1070
     1
1070
    44
1040
1.0
1070
    74
1070
     0
1000
MTEXTEND
  0
MTEXT
  5
F6D77
330
18
100
AcDbEntity
  8
文字
100
AcDbMText
 10
5821.057140836062
 20
-2842.341718131324
 30
0.0
 40
2.5
 41
64.39156592258223
 71
     1
 72
     5
  1
   
 73
     1
 44
1.0
1001
ACAD
1000
MTEXTBEGIN
1070
    73
1070
     1
1070
    44
1040
1.0
1070
    74
1070
     0
1000
MTEXTEND
  0
MTEXT
  5
F6D78
330
18
100
AcDbEntity
  8
寸法線
100
AcDbMText
 10
6222.662262480188
 20
-2968.738290481128
 30
0.0
 40
3.000000000000001
 41
0.0
 71
     7
 72
     1
  1
\A1;
 73
     1
 44
1.0
1001
ACAD
1000
MTEXTBEGIN
1070
    73
1070
     1
1070
    44
1040
1.0
1070
    74
1070
     0
1000
MTEXTEND
  0
TEXT
  5
167900
330
18
100
AcDbEntity
  8
文字
100
AcDbText
 10
5473.880604148527
 20
-7043.078072986515
 30
0.0
 40
6.5
  1
SX-B1352D/CE/BF
100
AcDbText
  0
ELLIPSE
  5
168A2F
330
18
100
AcDbEntity
  8
姿図
100
AcDbEllipse
 10
5522.026017219313
 20
-6971.583535172857
 30
0.0
 11
15.172283203125
 21
0.0
 31
0.0
210
0.0
220
0.0
230
0.9999999999999998
 40
0.4970283540701101
 41
7.074854205792756
 42
8.482454624318267
  0
ELLIPSE
  5
168A30
330
18
100
AcDbEntity
  8
姿図
100
AcDbEllipse
 10
5522.466217740147
 20
-6963.557168245777
 30
0.0
 11
6.807216536458332
 21
0.0
 31
0.0
210
0.0
220
0.0
230
1.0
 40
0.5787746356777223
 41
1.112128156115095
 42
1.201556856358738
  0
ELLIPSE
  5
168A31
330
18
100
AcDbEntity
  8
姿図
100
AcDbEllipse
 10
5522.466217740147
 20
-6963.557168245777
 30
0.0
 11
6.807216536458332
 21
0.0
 31
0.0
210
0.0
220
0.0
230
1.0
 40
0.5787746356777223
 41
1.412415807147716
 42
1.598884992121848
  0
ELLIPSE
  5
168A32
330
18
100
AcDbEntity
  8
姿図
100
AcDbEllipse
 10
5522.466217740147
 20
-6963.557168245777
 30
0.0
 11
6.807216536458332
 21
0.0
 31
0.0
210
0.0
220
0.0
230
1.0
 40
0.5787746356777223
 41
1.728626964199835
 42
1.903766585222754
  0
LINE
  5
168A33
330
18
100
AcDbEntity
  8
姿図
100
AcDbLine
 10
5537.200060463712
 20
-7001.134949866927
 30
0.0
 11
5537.569843961043
 21
-7002.463603113203
 31
0.0
  0
LINE
  5
168A34
330
18
100
AcDbEntity
  8
姿図
100
AcDbLine
 10
5507.609519143132
 20
-7001.180019417347
 30
0.0
 11
5507.21867333906
 21
-7002.526883543602
 31
0.0
  0
LINE
  5
168A35
330
18
100
AcDbEntity
  8
姿図
100
AcDbLine
 10
5506.144767205883
 20
-7006.22759014111
 30
0.0
 11
5505.659822672942
 21
-7007.898720770713
 31
0.0
  0
LINE
  5
168A36
330
18
100
AcDbEntity
  8
姿図
100
AcDbLine
 10
5537.446678026604
 20
-6991.937434912443
 30
0.0
 11
5537.363200090277
 21
-6995.598302976621
 31
0.0
  0
LINE
  5
168A37
330
18
100
AcDbEntity
  8
姿図
100
AcDbLine
 10
5507.576211880771
 20
-6991.937434912443
 30
0.0
 11
5507.468692516392
 21
-6995.797799082078
 31
0.0
  0
LINE
  5
168A38
330
18
100
AcDbEntity
  8
姿図
100
AcDbLine
 10
5506.921467349521
 20
-6977.702190120776
 30
0.0
 11
5506.853724930377
 21
-6980.261963101054
 31
0.0
  0
LINE
  5
168A39
330
18
100
AcDbEntity
  8
姿図
100
AcDbLine
 10
5507.612588335677
 20
-6980.300332954219
 30
0.0
 11
5506.853724930377
 21
-6980.261963101054
 31
0.0
  0
LINE
  5
168A3A
330
18
100
AcDbEntity
  8
姿図
100
AcDbLine
 10
5507.824556412021
 20
-6977.702190120776
 30
0.0
 11
5506.921467349521
 21
-6977.702190120776
 31
0.0
  0
LINE
  5
168A3B
330
18
100
AcDbEntity
  8
姿図
100
AcDbLine
 10
5538.238405060337
 20
-6978.743643846247
 30
0.0
 11
5538.214234276606
 21
-6981.314645589524
 31
0.0
  0
LINE
  5
168A3C
330
18
100
AcDbEntity
  8
姿図
100
AcDbLine
 10
5538.214234276606
 20
-6981.314645589524
 30
0.0
 11
5537.54199328494
 21
-6981.315696531199
 31
0.0
  0
LINE
  5
168A3D
330
18
100
AcDbEntity
  8
姿図
100
AcDbLine
 10
5538.238405060337
 20
-6978.743643846247
 30
0.0
 11
5537.47364261401
 21
-6978.748900578903
 31
0.0
  0
LINE
  5
168A3E
330
18
100
AcDbEntity
  8
姿図
100
AcDbLine
 10
5536.860022119382
 20
-6978.021203032587
 30
0.0
 11
5536.782215714657
 21
-6980.513567211582
 31
0.0
  0
LINE
  5
168A3F
330
18
100
AcDbEntity
  8
姿図
100
AcDbLine
 10
5508.443293520222
 20
-6976.528167724942
 30
0.0
 11
5508.438199724754
 21
-6980.049281709219
 31
0.0
  0
LINE
  5
168A40
330
18
100
AcDbEntity
  8
姿図
100
AcDbLine
 10
5520.241268225196
 20
-6959.833717241554
 30
0.0
 11
5520.196864839057
 21
-6964.097483269295
 31
0.0
  0
LINE
  5
168A41
330
18
100
AcDbEntity
  8
姿図
100
AcDbLine
 10
5525.480142300145
 20
-6960.024534594108
 30
0.0
 11
5525.523679759259
 21
-6964.24559643356
 31
0.0
  0
LINE
  5
168A42
330
18
100
AcDbEntity
  8
姿図
100
AcDbLine
 10
5523.539846508291
 20
-6959.666635060442
 30
0.0
 11
5523.582262826107
 21
-6964.08225459725
 31
0.0
  0
LINE
  5
168A43
330
18
100
AcDbEntity
  8
姿図
100
AcDbLine
 10
5522.275037254738
 20
-6959.618878088338
 30
0.0
 11
5522.319489745354
 21
-6964.065234391608
 31
0.0
  0
LINE
  5
168A44
330
18
100
AcDbEntity
  8
姿図
100
AcDbLine
 10
5529.679834276605
 20
-6958.691712256191
 30
0.0
 11
5527.828478547439
 21
-6959.549656787442
 31
0.0
  0
LINE
  5
168A45
330
18
100
AcDbEntity
  8
姿図
100
AcDbLine
 10
5527.512367609936
 20
-6957.201578922859
 30
0.0
 11
5524.938500943272
 21
-6959.685123454107
 31
0.0
  0
LINE
  5
168A46
330
18
100
AcDbEntity
  8
姿図
100
AcDbLine
 10
5524.622456151606
 20
-6956.433923454108
 30
0.0
 11
5523.39972884534
 21
-6959.654546455324
 31
0.0
  0
LINE
  5
168A47
330
18
100
AcDbEntity
  8
姿図
100
AcDbLine
 10
5521.777623078687
 20
-6956.208167724942
 30
0.0
 11
5522.406061696565
 21
-6959.617477817623
 31
0.0
  0
LINE
  5
168A48
330
18
100
AcDbEntity
  8
姿図
100
AcDbLine
 10
5518.707067349522
 20
-6956.885501058275
 30
0.0
 11
5521.000453677951
 21
-6959.709743114257
 31
0.0
  0
LINE
  5
168A49
330
18
100
AcDbEntity
  8
姿図
100
AcDbLine
 10
5516.223489745356
 20
-6957.969234391609
 30
0.0
 11
5518.373725793575
 21
-6959.45787010621
 31
0.0
  0
ELLIPSE
  5
168A4A
330
18
100
AcDbEntity
  8
姿図
100
AcDbEllipse
 10
5522.296967089104
 20
-6998.947834912441
 30
0.0
 11
-15.72127068290483
 21
1.57236852281813
 31
0.0
210
0.0
220
0.0
230
0.9999999999999998
 40
0.4268081429402282
 41
3.41487396931836
 42
3.775569610690079
  0
ELLIPSE
  5
168A4B
330
18
100
AcDbEntity
  8
姿図
100
AcDbEllipse
 10
5522.296967089104
 20
-6998.947834912441
 30
0.0
 11
15.08197760416667
 21
0.0
 31
0.0
210
0.0
220
0.0
230
1.0
 40
0.359285297639149
 41
7.112852223479593
 42
7.656454855824705
  0
ELLIPSE
  5
168A4C
330
18
100
AcDbEntity
  8
姿図
100
AcDbEllipse
 10
5522.296967089104
 20
-6998.947834912441
 30
0.0
 11
15.08197760416667
 21
0.0
 31
0.0
210
0.0
220
0.0
230
1.0
 40
0.359285297639149
 41
7.825574573037986
 42
8.547289682742333
  0
ELLIPSE
  5
168A4D
330
18
100
AcDbEntity
  8
姿図
100
AcDbEllipse
 10
5522.296967089104
 20
-6998.947834912441
 30
0.0
 11
15.08197760416667
 21
0.0
 31
0.0
210
0.0
220
0.0
230
1.0
 40
0.359285297639149
 41
8.914808065990232
 42
9.337446565053687
  0
ELLIPSE
  5
168A4E
330
18
100
AcDbEntity
  8
姿図
100
AcDbEllipse
 10
5522.409861490147
 20
-6998.067301579109
 30
0.0
 11
-15.23373145994704
 21
0.2106274502766241
 31
0.0
210
0.0
220
0.0
230
1.0
 40
0.4186036671425239
 41
3.202482138794767
 42
3.703239094700399
  0
ELLIPSE
  5
168A4F
330
18
100
AcDbEntity
  8
姿図
100
AcDbEllipse
 10
5522.409861490147
 20
-6998.067301579109
 30
0.0
 11
15.172283203125
 21
0.0
 31
0.0
210
0.0
220
0.0
230
0.9999999999999998
 40
0.4062539168738496
 41
7.129382602215342
 42
7.660879420274057
  0
ELLIPSE
  5
168A50
330
18
100
AcDbEntity
  8
姿図
100
AcDbEllipse
 10
5522.409861490147
 20
-6998.067301579109
 30
0.0
 11
15.172283203125
 21
0.0
 31
0.0
210
0.0
220
0.0
230
0.9999999999999998
 40
0.4062539168738496
 41
7.833746855100951
 42
8.548827107596959
  0
ELLIPSE
  5
168A51
330
18
100
AcDbEntity
  8
姿図
100
AcDbEllipse
 10
5522.409861490147
 20
-6998.067301579109
 30
0.0
 11
15.172283203125
 21
0.0
 31
0.0
210
0.0
220
0.0
230
0.9999999999999998
 40
0.4062539168738496
 41
8.919585895043166
 42
9.351902541126062
  0
LINE
  5
168A52
330
18
100
AcDbEntity
  8
姿図
100
AcDbLine
 10
5509.132876608365
 20
-6995.084173506073
 30
0.0
 11
5509.134032321541
 21
-6996.302675220327
 31
0.0
  0
LINE
  5
168A53
330
18
100
AcDbEntity
  8
姿図
100
AcDbLine
 10
5535.350335235512
 20
-6994.849362358666
 30
0.0
 11
5535.360779218654
 21
-6996.239985235496
 31
0.0
  0
LINE
  5
168A54
330
18
100
AcDbEntity
  8
姿図
100
AcDbLine
 10
5532.466585845725
 20
-6993.452062671562
 30
0.0
 11
5532.479522818271
 21
-6994.996745849942
 31
0.0
  0
LINE
  5
168A55
330
18
100
AcDbEntity
  8
姿図
100
AcDbLine
 10
5525.321488914206
 20
-6992.018064756797
 30
0.0
 11
5525.256726821606
 21
-6993.634469721325
 31
0.0
  0
LINE
  5
168A56
330
18
100
AcDbEntity
  8
姿図
100
AcDbLine
 10
5522.716848335665
 20
-6991.904763929236
 30
0.0
 11
5522.725344126589
 21
-6993.531288306247
 31
0.0
  0
LINE
  5
168A57
330
18
100
AcDbEntity
  8
姿図
100
AcDbLine
 10
5512.695553074117
 20
-6993.332562680873
 30
0.0
 11
5512.658301218854
 21
-6994.780091874621
 31
0.0
  0
LINE
  5
168A58
330
18
100
AcDbEntity
  8
姿図
100
AcDbLine
 10
5530.041122818271
 20
-6975.444434391608
 30
0.0
 11
5530.312056151604
 21
-6976.528167724942
 31
0.0
  0
LINE
  5
168A59
330
18
100
AcDbEntity
  8
姿図
100
AcDbLine
 10
5529.355948842892
 20
-6975.188398893381
 30
0.0
 11
5529.651907546629
 21
-6976.330113172839
 31
0.0
  0
LINE
  5
168A5A
330
18
100
AcDbEntity
  8
姿図
100
AcDbLine
 10
5516.281168308235
 20
-6975.159274046136
 30
0.0
 11
5516.08005020248
 21
-6976.114456173819
 31
0.0
  0
LINE
  5
168A5B
330
18
100
AcDbEntity
  8
姿図
100
AcDbLine
 10
5517.082014229885
 20
-6974.899754112204
 30
0.0
 11
5516.872709037824
 21
-6975.946218755625
 31
0.0
  0
LINE
  5
168A5C
330
18
100
AcDbEntity
  8
姿図
100
AcDbLine
 10
5520.558423078688
 20
-6974.186887948954
 30
0.0
 11
5520.367366639817
 21
-6975.491855975362
 31
0.0
  0
LINE
  5
168A5D
330
18
100
AcDbEntity
  8
姿図
100
AcDbLine
 10
5521.506689745354
 20
-6974.102894850743
 30
0.0
 11
5521.506689745354
 21
-6975.435730062155
 31
0.0
  0
LINE
  5
168A5E
330
18
100
AcDbEntity
  8
姿図
100
AcDbLine
 10
5525.164322818271
 20
-6974.206676984611
 30
0.0
 11
5525.164322818271
 21
-6975.544932595226
 31
0.0
  0
LINE
  5
168A5F
330
18
100
AcDbEntity
  8
姿図
100
AcDbLine
 10
5526.003309960476
 20
-6974.326995042348
 30
0.0
 11
5526.326668687148
 21
-6975.674309912652
 31
0.0
  0
LINE
  5
168A60
330
18
100
AcDbEntity
  8
姿図
100
AcDbLine
 10
5532.686955959409
 20
-6966.217871503596
 30
0.0
 11
5533.789011880772
 21
-6977.973123454109
 31
0.0
  0
LINE
  5
168A61
330
18
100
AcDbEntity
  8
姿図
100
AcDbLine
 10
5513.106077079779
 20
-6965.483378282755
 30
0.0
 11
5512.006778491928
 21
-6977.484043350822
 31
0.0
  0
LINE
  5
168A62
330
18
100
AcDbEntity
  8
姿図
100
AcDbLine
 10
5515.410689745355
 20
-6961.762301058273
 30
0.0
 11
5515.218078298438
 21
-6964.844260560761
 31
0.0
  0
LINE
  5
168A63
330
18
100
AcDbEntity
  8
姿図
100
AcDbLine
 10
5515.907411880771
 20
-6958.104701058275
 30
0.0
 11
5515.673932103484
 21
-6964.735191578445
 31
0.0
  0
LINE
  5
168A64
330
18
100
AcDbEntity
  8
姿図
100
AcDbLine
 10
5516.223489745356
 20
-6957.969234391609
 30
0.0
 11
5516.132203845837
 21
-6964.634710083126
 31
0.0
  0
LINE
  5
168A65
330
18
100
AcDbEntity
  8
姿図
100
AcDbLine
 10
5518.436134016188
 20
-6956.930645589524
 30
0.0
 11
5518.254667037965
 21
-6964.27916117196
 31
0.0
  0
LINE
  5
168A66
330
18
100
AcDbEntity
  8
姿図
100
AcDbLine
 10
5518.707067349522
 20
-6956.885501058275
 30
0.0
 11
5518.615752327359
 21
-6964.235440839347
 31
0.0
  0
LINE
  5
168A67
330
18
100
AcDbEntity
  8
姿図
100
AcDbLine
 10
5521.416400682854
 20
-6956.208167724942
 30
0.0
 11
5521.370789125854
 21
-6964.049515610142
 31
0.0
  0
LINE
  5
168A68
330
18
100
AcDbEntity
  8
姿図
100
AcDbLine
 10
5521.777623078687
 20
-6956.208167724942
 30
0.0
 11
5521.910411746635
 21
-6964.042699133774
 31
0.0
  0
LINE
  5
168A69
330
18
100
AcDbEntity
  8
姿図
100
AcDbLine
 10
5530.002348634554
 20
-6958.780115017835
 30
0.0
 11
5530.313377694632
 21
-6965.266818384418
 31
0.0
  0
LINE
  5
168A6A
330
18
100
AcDbEntity
  8
姿図
100
AcDbLine
 10
5529.679834276605
 20
-6958.691712256191
 30
0.0
 11
5529.857317220994
 21
-6965.124672884138
 31
0.0
  0
LINE
  5
168A6B
330
18
100
AcDbEntity
  8
姿図
100
AcDbLine
 10
5527.738189484939
 20
-6957.246723454108
 30
0.0
 11
5528.012544801428
 21
-6964.654316999336
 31
0.0
  0
LINE
  5
168A6C
330
18
100
AcDbEntity
  8
姿図
100
AcDbLine
 10
5527.512367609936
 20
-6957.201578922859
 30
0.0
 11
5527.512367609936
 21
-6964.561923454107
 31
0.0
  0
LINE
  5
168A6D
330
18
100
AcDbEntity
  8
姿図
100
AcDbLine
 10
5524.803034276605
 20
-6956.433441046096
 30
0.0
 11
5525.077044306272
 21
-6964.196526420247
 31
0.0
  0
LINE
  5
168A6E
330
18
100
AcDbEntity
  8
姿図
100
AcDbLine
 10
5524.622456151606
 20
-6956.433923454108
 30
0.0
 11
5524.66731744388
 21
-6964.157630312763
 31
0.0
  0
ELLIPSE
  5
168A6F
330
18
100
AcDbEntity
  8
姿図
100
AcDbEllipse
 10
5522.432417219313
 20
-6982.962735172858
 30
0.0
 11
15.172283203125
 21
0.0
 31
0.0
210
0.0
220
0.0
230
0.9999999999999998
 40
0.4970283540701101
 41
6.361584542067506
 42
9.229399068880688
  0
ELLIPSE
  5
168A70
330
18
100
AcDbEntity
  8
姿図
100
AcDbEllipse
 10
5522.511444953689
 20
-6991.937434912443
 30
0.0
 11
14.93523307291667
 21
0.0
 31
0.0
210
0.0
220
0.0
230
1.0
 40
0.4603164409801034
 41
6.262193097272713
 42
9.424777960769381
  0
ELLIPSE
  5
168A71
330
18
100
AcDbEntity
  8
姿図
100
AcDbEllipse
 10
5522.409811880772
 20
-7001.724901579108
 30
0.0
 11
14.85846326965584
 21
0.0
 31
0.0
210
0.0
220
0.0
230
0.9999999999999998
 40
0.414834250844397
 41
0.095859086798415
 42
3.053076739676216
  0
ELLIPSE
  5
168A72
330
18
100
AcDbEntity
  8
姿図
100
AcDbEllipse
 10
5522.330817219313
 20
-7008.159634391607
 30
0.0
 11
17.08012747395833
 21
0.0
 31
0.0
210
0.0
220
0.0
230
1.0
 40
0.3542648350204007
 41
6.588844122369664
 42
8.063259535111335
  0
ELLIPSE
  5
168A73
330
18
100
AcDbEntity
  8
姿図
100
AcDbEllipse
 10
5522.330817219313
 20
-7008.159634391607
 30
0.0
 11
17.08012747395833
 21
0.0
 31
0.0
210
0.0
220
0.0
230
1.0
 40
0.3542648350204007
 41
8.474559644733769
 42
9.099788009899381
  0
ELLIPSE
  5
168A74
330
18
100
AcDbEntity
  8
姿図
100
AcDbEllipse
 10
5522.432417219313
 20
-7000.437968245775
 30
0.0
 11
15.172283203125
 21
0.0
 31
0.0
210
0.0
220
0.0
230
0.9999999999999998
 40
0.4062539168738496
 41
6.10207073661263
 42
9.604636669081896
  0
ELLIPSE
  5
168A75
330
18
100
AcDbEntity
  8
姿図
100
AcDbEllipse
 10
5522.45497294848
 20
-6996.848101579108
 30
0.0
 11
15.172283203125
 21
0.0
 31
0.0
210
0.0
220
0.0
230
0.9999999999999998
 40
0.4434548040623526
 41
6.277624879366126
 42
9.424777960769381
  0
ELLIPSE
  5
168A76
330
18
100
AcDbEntity
  8
姿図
100
AcDbEllipse
 10
5522.522706281813
 20
-7006.714744808275
 30
0.0
 11
18.15254986979165
 21
0.0
 31
0.0
210
0.0
220
0.0
230
0.9999999999999998
 40
0.3420334162633325
 41
6.561691422199647
 42
8.067365724106057
  0
ELLIPSE
  5
168A77
330
18
100
AcDbEntity
  8
姿図
100
AcDbEllipse
 10
5522.522706281813
 20
-7006.714744808275
 30
0.0
 11
18.15254986979165
 21
0.0
 31
0.0
210
0.0
220
0.0
230
0.9999999999999998
 40
0.3420334162633325
 41
8.146893070061683
 42
8.351464029464972
  0
ELLIPSE
  5
168A78
330
18
100
AcDbEntity
  8
姿図
100
AcDbEllipse
 10
5522.522706281813
 20
-7006.714744808275
 30
0.0
 11
18.15254986979165
 21
0.0
 31
0.0
210
0.0
220
0.0
230
0.9999999999999998
 40
0.3420334162633325
 41
8.439057421236185
 42
9.664094613630071
  0
ELLIPSE
  5
168A79
330
18
100
AcDbEntity
  8
姿図
100
AcDbEllipse
 10
5522.45497294848
 20
-7005.901944808273
 30
0.0
 11
18.15254986979165
 21
0.0
 31
0.0
210
0.0
220
0.0
230
0.9999999999999998
 40
0.3420334162633325
 41
6.528930800392739
 42
8.358669529499954
  0
ELLIPSE
  5
168A7A
330
18
100
AcDbEntity
  8
姿図
100
AcDbEllipse
 10
5522.45497294848
 20
-7005.901944808273
 30
0.0
 11
18.15254986979165
 21
0.0
 31
0.0
210
0.0
220
0.0
230
0.9999999999999998
 40
0.3420334162633325
 41
8.426891086246612
 42
9.518802209022881
  0
ARC
  5
168A7B
330
18
100
AcDbEntity
  8
姿図
100
AcDbCircle
 10
5600.487340293526
 20
-6985.844847104816
 30
0.0
 40
93.04010526863462
100
AcDbArc
 50
174.2529884563951
 51
183.4469198872945
  0
ARC
  5
168A7C
330
18
100
AcDbEntity
  8
姿図
100
AcDbCircle
 10
5378.338548635067
 20
-6984.270783635728
 30
0.0
 40
159.2308680130216
100
AcDbArc
 50
357.4187120087767
 51
2.250399010489076
  0
LINE
  5
168A7D
330
18
100
AcDbEntity
  8
姿図
100
AcDbLine
 10
5537.446611880771
 20
-6978.018301058274
 30
0.0
 11
5536.860022119382
 21
-6978.021203032587
 31
0.0
  0
LINE
  5
168A7E
330
18
100
AcDbEntity
  8
姿図
100
AcDbLine
 10
5507.914878547436
 20
-6976.528167724942
 30
0.0
 11
5508.443293520222
 21
-6976.528167724942
 31
0.0
  0
ARC
  5
168A7F
330
18
100
AcDbEntity
  8
姿図
100
AcDbCircle
 10
5522.776980552442
 20
-6993.839119855778
 30
0.0
 40
19.77706288061811
100
AcDbArc
 50
68.45071832715596
 51
70.56990692624829
  0
ARC
  5
168A80
330
18
100
AcDbEntity
  8
姿図
100
AcDbCircle
 10
5522.776980552442
 20
-6993.839119855778
 30
0.0
 40
19.77706288061811
100
AcDbArc
 50
80.61109519498009
 51
83.06676485220327
  0
ARC
  5
168A81
330
18
100
AcDbEntity
  8
姿図
100
AcDbCircle
 10
5522.776980552442
 20
-6993.839119855778
 30
0.0
 40
19.77706288061811
100
AcDbArc
 50
93.68267220367096
 51
96.4409008326219
  0
ARC
  5
168A82
330
18
100
AcDbEntity
  8
姿図
100
AcDbCircle
 10
5522.776980552442
 20
-6993.839119855778
 30
0.0
 40
19.77706288061811
100
AcDbArc
 50
106.7357525055275
 51
109.1748340181636
  0
LINE
  5
168A83
330
18
100
AcDbEntity
  8
姿図
100
AcDbLine
 10
5529.355948842892
 20
-6975.188398893381
 30
0.0
 11
5529.344419059944
 21
-6976.249679375023
 31
0.0
  0
LINE
  5
168A84
330
18
100
AcDbEntity
  8
姿図
100
AcDbLine
 10
5525.164322818271
 20
-6974.206676984611
 30
0.0
 11
5524.999357500036
 21
-6975.530391218446
 31
0.0
  0
LINE
  5
168A85
330
18
100
AcDbEntity
  8
姿図
100
AcDbLine
 10
5517.082014229885
 20
-6974.899754112204
 30
0.0
 11
5517.091839235134
 21
-6975.904295460633
 31
0.0
  0
LINE
  5
168A86
330
18
100
AcDbEntity
  8
姿図
100
AcDbLine
 10
5507.282689745355
 20
-6996.848101579108
 30
0.0
 11
5507.260134016187
 21
-7000.437968245775
 31
0.0
  0
LINE
  5
168A87
330
18
100
AcDbEntity
  8
姿図
100
AcDbLine
 10
5537.627256151605
 20
-6996.848101579108
 30
0.0
 11
5537.604651210114
 21
-7000.453667340886
 31
0.0
  0
LINE
  5
168A88
330
18
100
AcDbEntity
  8
姿図
100
AcDbLine
 10
5504.302423078687
 20
-7005.901944808273
 30
0.0
 11
5504.376257946785
 21
-7006.875711271906
 31
0.0
  0
LINE
  5
168A89
330
18
100
AcDbEntity
  8
姿図
100
AcDbLine
 10
5515.410689745355
 20
-6961.762301058273
 30
0.0
 11
5515.775148444225
 21
-6961.8607927951
 31
0.0
  0
LINE
  5
168A8A
330
18
100
AcDbEntity
  8
姿図
100
AcDbLine
 10
5515.907411880771
 20
-6958.104701058275
 30
0.0
 11
5516.223489745356
 21
-6957.969234391609
 31
0.0
  0
LINE
  5
168A8B
330
18
100
AcDbEntity
  8
姿図
100
AcDbLine
 10
5518.436134016188
 20
-6956.930645589524
 30
0.0
 11
5518.707067349522
 21
-6956.885501058275
 31
0.0
  0
LINE
  5
168A8C
330
18
100
AcDbEntity
  8
姿図
100
AcDbLine
 10
5521.416400682854
 20
-6956.208167724942
 30
0.0
 11
5521.777623078687
 21
-6956.208167724942
 31
0.0
  0
LINE
  5
168A8D
330
18
100
AcDbEntity
  8
姿図
100
AcDbLine
 10
5524.622456151606
 20
-6956.433923454108
 30
0.0
 11
5524.803034276605
 21
-6956.433441046096
 31
0.0
  0
LINE
  5
168A8E
330
18
100
AcDbEntity
  8
姿図
100
AcDbLine
 10
5527.738189484939
 20
-6957.246723454108
 30
0.0
 11
5527.512367609936
 21
-6957.201578922859
 31
0.0
  0
LINE
  5
168A8F
330
18
100
AcDbEntity
  8
姿図
100
AcDbLine
 10
5530.002348634554
 20
-6958.780115017835
 30
0.0
 11
5529.679834276605
 21
-6958.691712256191
 31
0.0
  0
LINE
  5
168A90
330
18
100
AcDbEntity
  8
姿図
100
AcDbLine
 10
5521.506689745354
 20
-6974.102894850743
 30
0.0
 11
5521.323269972448
 21
-6975.441857384871
 31
0.0
  0
SPLINE
  5
168A91
330
18
100
AcDbEntity
  8
姿図
100
AcDbSpline
210
-0.0000000000004716
220
-0.0000000000002587
230
-1.0
 70
     8
 71
     3
 72
    26
 73
    22
 74
     0
 42
0.0000000001
 43
0.0000000001
 40
0.0
 40
0.0
 40
0.0
 40
0.0
 40
0.1264422350829495
 40
0.1264422350829495
 40
0.1588844121662647
 40
0.1588844121662647
 40
0.1751106177118944
 40
0.1751106177118944
 40
0.1858741810274541
 40
0.1858741810274541
 40
0.1957084812443391
 40
0.1957084812443391
 40
0.2081347559133095
 40
0.2081347559133095
 40
0.2307818527987925
 40
0.2307818527987925
 40
0.2883799021281352
 40
0.2883799021281352
 40
0.5072725936264543
 40
0.5072725936264543
 40
1.002470307424774
 40
1.002470307424774
 40
1.002470307424774
 40
1.002470307424774
 10
5543.043872196868
 20
-7009.780500330521
 30
0.0000000000000084
 10
5543.047074380426
 20
-7009.780790923298
 30
-0.0000000000000011
 10
5543.050890503596
 20
-7009.780421471962
 30
0.0000000000000084
 10
5543.053964913196
 20
-7009.776688258677
 30
0.0000000000000179
 10
5543.05463889267
 20
-7009.775588863452
 30
0.0000000000000084
 10
5543.055368200058
 20
-7009.77318941282
 30
0.0000000000000084
 10
5543.055585706939
 20
-7009.772195273375
 30
0.0000000000000084
 10
5543.055795631905
 20
-7009.770148473217
 30
0.0000000000000084
 10
5543.055837826312
 20
-7009.769242000358
 30
0.0000000000000179
 10
5543.055812712034
 20
-7009.767313381878
 30
0.0000000000000274
 10
5543.055755344973
 20
-7009.766369486616
 30
0.0000000000000084
 10
5543.055540328853
 20
-7009.764203592972
 30
0.0000000000000274
 10
5543.055364870618
 20
-7009.763020902376
 30
0.0000000000000179
 10
5543.054803790309
 20
-7009.759890667464
 30
0.0000000000000179
 10
5543.054334934251
 20
-7009.757953673427
 30
0.0000000000000179
 10
5543.052718475315
 20
-7009.752014695147
 30
0.0000000000000179
 10
5543.05119484989
 20
-7009.747801665041
 30
0.0000000000000274
 10
5543.044226290241
 20
-7009.730386577415
 30
0.0000000000000179
 10
5543.036070884571
 20
-7009.715934467166
 30
-0.0000000000000011
 10
5543.016045180188
 20
-7009.682920505476
 30
0.0000000000000084
 10
5542.996764576003
 20
-7009.655985092887
 30
-0.0000000000000011
 10
5542.971181095581
 20
-7009.62549151801
 30
0.0000000000000179
  0
SPLINE
  5
168A92
330
18
100
AcDbEntity
  8
姿図
100
AcDbSpline
210
-0.0000000000002836
220
0.0000000000000974
230
1.0
 70
     8
 71
     3
 72
    16
 73
    12
 74
     0
 42
0.0000000001
 43
0.0000000001
 40
15.85860550385592
 40
15.85860550385592
 40
15.85860550385592
 40
15.85860550385592
 40
16.11243786898941
 40
16.11243786898941
 40
16.67677331177295
 40
16.67677331177295
 40
17.2411087545565
 40
17.2411087545565
 40
17.80544419734004
 40
17.80544419734004
 40
18.35651257010812
 40
18.35651257010812
 40
18.35651257010812
 40
18.35651257010812
 10
5539.953370641335
 20
-7005.033924767973
 30
0.0000000000000179
 10
5539.965523610557
 20
-7005.020759942472
 30
0.0000000000000179
 10
5539.977123388471
 20
-7005.006675988503
 30
0.0000000000000179
 10
5540.012527999511
 20
-7004.958749561547
 30
-0.0000000000000011
 10
5540.035547032585
 20
-7004.91958229198
 30
0.0000000000000084
 10
5540.076436304456
 20
-7004.830473169753
 30
0.0000000000000084
 10
5540.09431134951
 20
-7004.780534364676
 30
0.0000000000000179
 10
5540.123535686182
 20
-7004.672921839876
 30
0.0000000000000179
 10
5540.134910684661
 20
-7004.615160051696
 30
-0.0000000000000011
 10
5540.150519257963
 20
-7004.497316853974
 30
-0.0000000000000011
 10
5540.154914350122
 20
-7004.437320671141
 30
0.0000000000000179
 10
5540.156249677063
 20
-7004.377917020687
 30
0.0000000000000084
  0
SPLINE
  5
168A93
330
18
100
AcDbEntity
  8
姿図
100
AcDbSpline
210
-0.0000000000002827
220
-0.0000000000002229
230
1.0
 70
     8
 71
     3
 72
    30
 73
    26
 74
     0
 42
0.0000000001
 43
0.0000000001
 40
5.468358937646049
 40
5.468358937646049
 40
5.468358937646049
 40
5.468358937646049
 40
5.554474529312383
 40
5.554474529312383
 40
5.597484804418003
 40
5.597484804418003
 40
5.640495079523625
 40
5.640495079523625
 40
5.653252350784877
 40
5.653252350784877
 40
5.659630986415502
 40
5.659630986415502
 40
5.666009622046128
 40
5.666009622046128
 40
5.672394292855955
 40
5.672394292855955
 40
5.678778963665781
 40
5.678778963665781
 40
5.691548305285434
 40
5.691548305285434
 40
5.734612320533792
 40
5.734612320533792
 40
5.77767633578215
 40
5.77767633578215
 40
5.877831414689103
 40
5.877831414689103
 40
5.877831414689103
 40
5.877831414689103
 10
5542.9476752994
 20
-7008.422464938677
 30
0.0000000000000179
 10
5542.950053142054
 20
-7008.422939330363
 30
0.0000000000000084
 10
5542.952377311988
 20
-7008.423160217109
 30
-0.0000000000000011
 10
5542.955741017665
 20
-7008.422628430897
 30
0.0000000000000179
 10
5542.956955468965
 20
-7008.422287391363
 30
0.0000000000000084
 10
5542.959268878937
 20
-7008.420855437252
 30
0.0000000000000084
 10
5542.960379064357
 20
-7008.419861931137
 30
0.0000000000000274
 10
5542.961473993512
 20
-7008.417162538986
 30
0.0000000000000179
 10
5542.961724493271
 20
-7008.416366471708
 30
-0.0000000000000011
 10
5542.961986032189
 20
-7008.414859453093
 30
0.0000000000000179
 10
5542.962055265776
 20
-7008.414307087472
 30
0.0000000000000179
 10
5542.962140067593
 20
-7008.413105023739
 30
-0.0000000000000011
 10
5542.962155967185
 20
-7008.412456063914
 30
0.0000000000000179
 10
5542.962127175901
 20
-7008.411087104592
 30
0.0000000000000084
 10
5542.962082639381
 20
-7008.410376721075
 30
0.0000000000000179
 10
5542.961942454956
 20
-7008.408946788415
 30
-0.0000000000000011
 10
5542.961846499717
 20
-7008.40822732605
 30
-0.0000000000000011
 10
5542.9615089995
 20
-7008.406114438788
 30
0.0000000000000084
 10
5542.961213728663
 20
-7008.404766437705
 30
0.0000000000000369
 10
5542.959956269839
 20
-7008.399686938753
 30
-0.0000000000000011
 10
5542.958755387974
 20
-7008.396354705702
 30
0.0000000000000274
 10
5542.956280246809
 20
-7008.390085512331
 30
0.0000000000000274
 10
5542.954998421853
 20
-7008.38722647683
 30
-0.0000000000000011
 10
5542.951085092957
 20
-7008.378941954529
 30
0.0000000000000179
 10
5542.94826827115
 20
-7008.37373867021
 30
0.0000000000000179
 10
5542.945392557818
 20
-7008.368729377032
 30
0.0000000000000274
  0
SPLINE
  5
168A94
330
18
100
AcDbEntity
  8
姿図
100
AcDbSpline
 70
     4
 71
     2
 72
     6
 73
     3
 74
     0
 42
0.0000000001
 43
0.0000000001
 40
22.18928893771569
 40
22.18928893771569
 40
22.18928893771569
 40
29.25375354177516
 40
29.25375354177516
 40
29.25375354177516
 10
5542.010877637334
 20
-7009.421005943156
 30
0.0000000000000274
 41
0.9999999984713706
 10
5542.036882284506
 20
-7008.283042495961
 30
0.0000000000000179
 41
0.9999999989658332
 10
5542.062921519036
 20
-7007.143585176397
 30
0.0000000000000084
 41
0.9999999999300859
  0
SPLINE
  5
168A95
330
18
100
AcDbEntity
  8
姿図
100
AcDbSpline
210
0.0000000000000196
220
0.000000000000218
230
1.0
 70
     8
 71
     3
 72
    26
 73
    22
 74
     0
 42
0.0000000001
 43
0.0000000001
 40
5.508613077618152
 40
5.508613077618152
 40
5.508613077618152
 40
5.508613077618152
 40
6.179005067686558
 40
6.179005067686558
 40
6.340002190112532
 40
6.340002190112532
 40
6.392156946112852
 40
6.392156946112852
 40
6.417035445654846
 40
6.417035445654846
 40
6.433276212519533
 40
6.433276212519533
 40
6.447901642471057
 40
6.447901642471057
 40
6.46599523881348
 40
6.46599523881348
 40
6.498353151737191
 40
6.498353151737191
 40
6.578911697646714
 40
6.578911697646714
 40
6.714781857145347
 40
6.714781857145347
 40
6.714781857145347
 40
6.714781857145347
 10
5541.6551401022
 20
-7008.683421505804
 30
0.0000000000000179
 10
5541.595569256797
 20
-7008.657725519848
 30
0.0000000000000084
 10
5541.553994615822
 20
-7008.646588983514
 30
0.0000000000000179
 10
5541.525121908488
 20
-7008.646870018385
 30
0.0000000000000084
 10
5541.51861557997
 20
-7008.64759886572
 30
-0.0000000000000011
 10
5541.512656858825
 20
-7008.651299882686
 30
-0.0000000000000011
 10
5541.511217299374
 20
-7008.652540523732
 30
0.0000000000000179
 10
5541.509689022644
 20
-7008.655101005719
 30
0.0000000000000179
 10
5541.509236215332
 20
-7008.656126619948
 30
0.0000000000000179
 10
5541.508772208765
 20
-7008.658212965397
 30
0.0000000000000369
 10
5541.508664399687
 20
-7008.659127728655
 30
0.0000000000000179
 10
5541.508657565048
 20
-7008.661059059921
 30
0.0000000000000179
 10
5541.508739050683
 20
-7008.661995853533
 30
0.0000000000000084
 10
5541.509082580429
 20
-7008.664121700519
 30
0.0000000000000084
 10
5541.509374839584
 20
-7008.665267998086
 30
0.0000000000000084
 10
5541.510319353951
 20
-7008.668267628
 30
0.0000000000000084
 10
5541.511116603069
 20
-7008.67010047436
 30
0.0000000000000179
 10
5541.513853598857
 20
-7008.675644246783
 30
0.0000000000000179
 10
5541.516429548829
 20
-7008.679513178306
 30
-0.0000000000000011
 10
5541.523066430916
 20
-7008.688476324936
 30
0.0000000000000274
 10
5541.527907723758
 20
-7008.693895998769
 30
0.0000000000000179
 10
5541.532200493688
 20
-7008.698390740457
 30
0.0000000000000274
  0
SPLINE
  5
168A96
330
18
100
AcDbEntity
  8
姿図
100
AcDbSpline
210
0.000000000039651
220
0.0000000000158388
230
-1.0
 70
     8
 71
     3
 72
    10
 73
     6
 74
     0
 42
0.0000000001
 43
0.0000000001
 40
0.505347474080478
 40
0.505347474080478
 40
0.505347474080478
 40
0.505347474080478
 40
0.5908081871204214
 40
0.5908081871204214
 40
0.6018930666040992
 40
0.6018930666040992
 40
0.6018930666040992
 40
0.6018930666040992
 10
5541.855201137331
 20
-7009.245108334195
 30
0.0000000000000084
 10
5541.85326200282
 20
-7009.236375315019
 30
-0.0000000000000011
 10
5541.850109370134
 20
-7009.226750365098
 30
-0.0000000000000011
 10
5541.844883956383
 20
-7009.216700881143
 30
0.0000000000000179
 10
5541.844260137943
 20
-7009.215558809827
 30
0.0000000000000179
 10
5541.843612893098
 20
-7009.214431748777
 30
0.0000000000000084
  0
SPLINE
  5
168A97
330
18
100
AcDbEntity
  8
姿図
100
AcDbSpline
210
0.0000000000001501
220
0.0000000000000755
230
-1.0
 70
     8
 71
     3
 72
    26
 73
    22
 74
     0
 42
0.0000000001
 43
0.0000000001
 40
0.0
 40
0.0
 40
0.0
 40
0.0
 40
0.128245973690629
 40
0.128245973690629
 40
0.1709107023387558
 40
0.1709107023387558
 40
0.1890943956851749
 40
0.1890943956851749
 40
0.2007783270636655
 40
0.2007783270636655
 40
0.2111470640880597
 40
0.2111470640880597
 40
0.2237033505467542
 40
0.2237033505467542
 40
0.2457537947997618
 40
0.2457537947997618
 40
0.2995509632558
 40
0.2995509632558
 40
0.4920237835540287
 40
0.4920237835540287
 40
0.7934266447193981
 40
0.7934266447193981
 40
0.7934266447193981
 40
0.7934266447193981
 10
5542.997390348304
 20
-7009.102639855803
 30
0.0000000000000179
 10
5543.000739946128
 20
-7009.10312486061
 30
0.0000000000000179
 10
5543.004635843074
 20
-7009.103032401857
 30
0.0000000000000179
 10
5543.008190586682
 20
-7009.099862124665
 30
0.0000000000000179
 10
5543.00907750311
 20
-7009.098698864045
 30
0.0000000000000179
 10
5543.009948308217
 20
-7009.096177022209
 30
0.0000000000000084
 10
5543.010187624443
 20
-7009.095228237017
 30
-0.0000000000000011
 10
5543.010426730896
 20
-7009.093275289996
 30
0.0000000000000179
 10
5543.01048095148
 20
-7009.092417804897
 30
0.0000000000000179
 10
5543.010477783741
 20
-7009.090598955428
 30
0.0000000000000179
 10
5543.010432372938
 20
-7009.089716142868
 30
0.0000000000000274
 10
5543.010247376222
 20
-7009.087718945685
 30
0.0000000000000274
 10
5543.010094557196
 20
-7009.086645082438
 30
-0.0000000000000011
 10
5543.009606724538
 20
-7009.083847731549
 30
0.0000000000000274
 10
5543.009202033892
 20
-7009.082137806519
 30
-0.0000000000000011
 10
5543.007828278714
 20
-7009.07700124635
 30
0.0000000000000084
 10
5543.00655388117
 20
-7009.07340557698
 30
0.0000000000000084
 10
5543.000911534881
 20
-7009.059058457501
 30
0.0000000000000179
 10
5542.994502645306
 20
-7009.047353967659
 30
0.0000000000000274
 10
5542.981375014232
 20
-7009.025136127991
 30
0.0000000000000084
 10
5542.971068331581
 20
-7009.009729226075
 30
0.0000000000000179
 10
5542.958193271363
 20
-7008.992549443516
 30
0.0000000000000179
  0
SPLINE
  5
168A98
330
18
100
AcDbEntity
  8
姿図
100
AcDbSpline
210
-0.0000000000001037
220
-0.0000000000001948
230
1.0
 70
     8
 71
     3
 72
    30
 73
    26
 74
     0
 42
0.0000000001
 43
0.0000000001
 40
16.78601875418834
 40
16.78601875418834
 40
16.78601875418834
 40
16.78601875418834
 40
16.8861738330952
 40
16.8861738330952
 40
16.92923784834355
 40
16.92923784834355
 40
16.97230186359191
 40
16.97230186359191
 40
16.98507120521156
 40
16.98507120521156
 40
16.99145587602139
 40
16.99145587602139
 40
16.99784054683122
 40
16.99784054683122
 40
17.00421918246185
 40
17.00421918246185
 40
17.01059781809247
 40
17.01059781809247
 40
17.02335508935372
 40
17.02335508935372
 40
17.06636536445934
 40
17.06636536445934
 40
17.10937563956496
 40
17.10937563956496
 40
17.1954912312313
 40
17.1954912312313
 40
17.1954912312313
 40
17.1954912312313
 10
5541.629351564532
 20
-7007.426659364909
 30
0.0000000000000179
 10
5541.624624491642
 20
-7007.426226307167
 30
-0.0000000000000011
 10
5541.619987465356
 20
-7007.426093855901
 30
0.0000000000000084
 10
5541.613575572566
 20
-7007.426987208951
 30
0.0000000000000369
 10
5541.611479309816
 20
-7007.427428086396
 30
0.0000000000000179
 10
5541.607465067009
 20
-7007.429051942686
 30
0.0000000000000179
 10
5541.60552924921
 20
-7007.430138812018
 30
0.0000000000000179
 10
5541.603589756967
 20
-7007.432929817106
 30
-0.0000000000000011
 10
5541.6031429118
 20
-7007.433746584566
 30
0.0000000000000179
 10
5541.602664564281
 20
-7007.435275458343
 30
-0.0000000000000011
 10
5541.602535292261
 20
-7007.435833694842
 30
0.0000000000000084
 10
5541.602367995752
 20
-7007.437043521467
 30
0.0000000000000369
 10
5541.60232942101
 20
-7007.437694410921
 30
0.0000000000000179
 10
5541.60235629179
 20
-7007.43906199548
 30
0.0000000000000084
 10
5541.602421463593
 20
-7007.43976898915
 30
0.0000000000000084
 10
5541.602640373326
 20
-7007.44118846066
 30
0.0000000000000084
 10
5541.602794657194
 20
-7007.441900828209
 30
-0.0000000000000011
 10
5541.603344361305
 20
-7007.44398856409
 30
-0.0000000000000106
 10
5541.603833862378
 20
-7007.445314350879
 30
-0.0000000000000011
 10
5541.605927941862
 20
-7007.450296551407
 30
-0.0000000000000011
 10
5541.607949159067
 20
-7007.45353162943
 30
-0.0000000000000011
 10
5541.612114972107
 20
-7007.459601647039
 30
0.0000000000000179
 10
5541.614273917329
 20
-7007.462357486514
 30
0.0000000000000084
 10
5541.62021846834
 20
-7007.469552461428
 30
0.0000000000000084
 10
5541.624276835168
 20
-7007.473900426647
 30
0.0000000000000084
 10
5541.628397391153
 20
-7007.478077825088
 30
0.0000000000000084
  0
SPLINE
  5
168A99
330
18
100
AcDbEntity
  8
姿図
100
AcDbSpline
210
-0.0000000000119289
220
0.0000000000021421
230
1.0
 70
     8
 71
     3
 72
    12
 73
     8
 74
     0
 42
0.0000000001
 43
0.0000000001
 40
2.214246753416004
 40
2.214246753416004
 40
2.214246753416004
 40
2.214246753416004
 40
2.27333766920167
 40
2.27333766920167
 40
2.651501823638108
 40
2.651501823638108
 40
2.971189770913845
 40
2.971189770913845
 40
2.971189770913845
 40
2.971189770913845
 10
5542.062921519036
 20
-7007.143585176397
 30
0.0000000000000084
 10
5542.061213903469
 20
-7007.149084971266
 30
0.0000000000000084
 10
5542.059557952256
 20
-7007.154650122348
 30
-0.0000000000000106
 10
5542.047717957108
 20
-7007.196122014104
 30
-0.0000000000000011
 10
5542.038487550865
 20
-7007.238662924838
 30
0.0000000000000179
 10
5542.026501222557
 20
-7007.319691135403
 30
0.0000000000000179
 10
5542.022937521871
 20
-7007.357807745129
 30
0.0000000000000084
 10
5542.021457332703
 20
-7007.393177842795
 30
0.0000000000000274
  0
SPLINE
  5
168A9A
330
18
100
AcDbEntity
  8
姿図
100
AcDbSpline
210
-0.0000000000000192
220
-0.000000000000011
230
1.0
 70
     8
 71
     3
 72
    12
 73
     8
 74
     0
 42
0.0000000001
 43
0.0000000001
 40
2.214246753415931
 40
2.214246753415931
 40
2.214246753415931
 40
2.214246753415931
 40
2.273337669201669
 40
2.273337669201669
 40
2.651501823638109
 40
2.651501823638109
 40
2.971189770913845
 40
2.971189770913845
 40
2.971189770913845
 40
2.971189770913845
 10
5518.552716211074
 20
-7000.21203269095
 30
0.0000000000000179
 10
5518.557662542275
 20
-7000.216080609316
 30
-0.0000000000000011
 10
5518.562439185777
 20
-7000.220246792321
 30
0.0000000000000084
 10
5518.596452482312
 20
-7000.251778664997
 30
0.0000000000000084
 10
5518.622122668229
 20
-7000.286949824117
 30
0.0000000000000084
 10
5518.653728175314
 20
-7000.359182997441
 30
0.0000000000000084
 10
5518.662195350361
 20
-7000.395101439749
 30
0.0000000000000084
 10
5518.664472980296
 20
-7000.430114054499
 30
0.0000000000000084
  0
SPLINE
  5
168A9B
330
18
100
AcDbEntity
  8
姿図
100
AcDbSpline
210
0.0000000000001332
220
0.0000000000001664
230
-1.0
 70
     8
 71
     3
 72
    14
 73
    10
 74
     0
 42
0.0000000001
 43
0.0000000001
 40
0.0518711334186413
 40
0.0518711334186413
 40
0.0518711334186413
 40
0.0518711334186413
 40
0.3761852694724612
 40
0.3761852694724612
 40
0.7523705389449225
 40
0.7523705389449225
 40
1.132719326167469
 40
1.132719326167469
 40
1.510190416961686
 40
1.510190416961686
 40
1.510190416961686
 40
1.510190416961686
 10
5518.530137053422
 20
-7000.333951511764
 30
0.0000000000000179
 10
5518.52838141658
 20
-7000.298873673305
 30
0.0000000000000179
 10
5518.520279860907
 20
-7000.262787642234
 30
-0.0000000000000011
 10
5518.489263744118
 20
-7000.191128153431
 30
0.0000000000000179
 10
5518.464067874923
 20
-7000.156572801737
 30
0.0000000000000084
 10
5518.405708752061
 20
-7000.102765044719
 30
0.0000000000000179
 10
5518.368545817612
 20
-7000.080059109994
 30
0.0000000000000084
 10
5518.287516118055
 20
-7000.051942620842
 30
0.0000000000000274
 10
5518.243704567965
 20
-7000.046395276974
 30
0.0000000000000274
 10
5518.202605159146
 20
-7000.048665859115
 30
0.0000000000000179
  0
SPLINE
  5
168A9C
330
18
100
AcDbEntity
  8
姿図
100
AcDbSpline
210
0.0000000000001207
220
-0.0000000000001101
230
1.0
 70
     8
 71
     3
 72
    14
 73
    10
 74
     0
 42
0.0000000001
 43
0.0000000001
 40
0.0516007629148517
 40
0.0516007629148517
 40
0.0516007629148517
 40
0.0516007629148517
 40
0.3775999287975693
 40
0.3775999287975693
 40
0.7551998575951387
 40
0.7551998575951387
 40
1.136339040160537
 40
1.136339040160537
 40
1.513620557812545
 40
1.513620557812545
 40
1.513620557812545
 40
1.513620557812545
 10
5512.232032704821
 20
-7006.097602018868
 30
0.0000000000000084
 10
5512.229960962248
 20
-7006.133220298379
 30
0.0000000000000179
 10
5512.222166412936
 20
-7006.171001883487
 30
0.0000000000000179
 10
5512.193312146031
 20
-7006.248641390462
 30
0.0000000000000179
 10
5512.170242392143
 20
-7006.287892731873
 30
0.0000000000000274
 10
5512.117312090043
 20
-7006.352427203231
 30
0.0000000000000179
 10
5512.08386199702
 20
-7006.381898850545
 30
0.0000000000000179
 10
5512.011504343643
 20
-7006.424840055252
 30
0.0000000000000084
 10
5511.97266054819
 20
-7006.438484196168
 30
0.0000000000000084
 10
5511.936387463824
 20
-7006.443973811473
 30
0.0000000000000084
  0
SPLINE
  5
168A9D
330
18
100
AcDbEntity
  8
姿図
100
AcDbSpline
210
-0.0000000000000425
220
-0.0000000000000533
230
-1.0
 70
     8
 71
     3
 72
    14
 73
    10
 74
     0
 42
0.0000000001
 43
0.0000000001
 40
1.526591127950938
 40
1.526591127950938
 40
1.526591127950938
 40
1.526591127950938
 40
1.903872645602956
 40
1.903872645602956
 40
2.285011828168356
 40
2.285011828168356
 40
2.662611756965921
 40
2.662611756965921
 40
2.988610922850348
 40
2.988610922850348
 40
2.988610922850348
 40
2.988610922850348
 10
5519.119491946097
 20
-7005.771785614495
 30
0.0000000000000084
 10
5519.078041757585
 20
-7005.773569270342
 30
0.0000000000000179
 10
5519.033882656668
 20
-7005.767692462812
 30
0.0000000000000084
 10
5518.952091909776
 20
-7005.739176321177
 30
0.0000000000000084
 10
5518.914532707874
 20
-7005.716349657252
 30
0.0000000000000084
 10
5518.855469711964
 20
-7005.662295413947
 30
0.0000000000000084
 10
5518.829955631395
 20
-7005.627590502308
 30
0.0000000000000084
 10
5518.79852339036
 20
-7005.555592550341
 30
0.0000000000000084
 10
5518.79031149112
 20
-7005.519308833716
 30
0.0000000000000084
 10
5518.788538067815
 20
-7005.484050381223
 30
0.0000000000000084
  0
SPLINE
  5
168A9E
330
18
100
AcDbEntity
  8
姿図
100
AcDbSpline
210
0.0000000000012675
220
-0.0000000000001012
230
1.0
 70
     8
 71
     3
 72
    16
 73
    12
 74
     0
 42
0.0000000001
 43
0.0000000001
 40
7.430778314876192
 40
7.430778314876192
 40
7.430778314876192
 40
7.430778314876192
 40
7.48439642458809
 40
7.48439642458809
 40
8.051682043090178
 40
8.051682043090178
 40
8.618967661592268
 40
8.618967661592268
 40
9.186253280094355
 40
9.186253280094355
 40
9.198233509684795
 40
9.198233509684795
 40
9.198233509684795
 40
9.198233509684795
 10
5501.796804013186
 20
-7008.475290440732
 30
0.0000000000000084
 10
5501.797437885798
 20
-7008.471326915972
 30
0.0000000000000084
 10
5501.798067499749
 20
-7008.467313688348
 30
-0.0000000000000011
 10
5501.805303239247
 20
-7008.420251761475
 30
0.0000000000000084
 10
5501.811377234581
 20
-7008.371571056819
 30
0.0000000000000179
 10
5501.821804299467
 20
-7008.265843879532
 30
0.0000000000000084
 10
5501.826163971687
 20
-7008.208708813796
 30
0.0000000000000179
 10
5501.832830324165
 20
-7008.090134716053
 30
-0.0000000000000011
 10
5501.835135634323
 20
-7008.028693285817
 30
0.0000000000000084
 10
5501.836468700623
 20
-7007.966421801461
 30
0.0000000000000179
 10
5501.836495872097
 20
-7007.965132308173
 30
0.0000000000000084
 10
5501.836522642665
 20
-7007.963841224851
 30
0.0000000000000084
  0
SPLINE
  5
168A9F
330
18
100
AcDbEntity
  8
姿図
100
AcDbSpline
 70
     4
 71
     2
 72
     6
 73
     3
 74
     0
 42
0.0000000001
 43
0.0000000001
 40
3.438957747159618
 40
3.438957747159618
 40
3.438957747159618
 40
27.9798144579688
 40
27.9798144579688
 40
27.9798144579688
 10
5540.758302259272
 20
-7012.231950350093
 30
0.0000000000000084
 41
1.000002949620377
 10
5540.675810410955
 20
-7008.267785931046
 30
0.0000000000000274
 41
1.000012270378905
 10
5540.593987214694
 20
-7004.336953951472
 30
0.0000000000000274
 41
1.000004411873194
  0
ELLIPSE
  5
168AA0
330
18
100
AcDbEntity
  8
姿図
100
AcDbEllipse
 10
5541.414860201292
 20
-6998.1538583934
 30
0.0000000000000013
 11
0.0601042818412189
 21
-0.5975910098000778
 31
0.0000000000000001
210
0.0
220
0.0000000000000002
230
1.0
 40
0.3266547503873754
 41
1.290961286430821
 42
2.861757613225796
  0
LINE
  5
168AA1
330
18
100
AcDbEntity
  8
姿図
100
AcDbLine
 10
5543.079665682596
 20
-6998.790661018524
 30
0.0000000000000013
 11
5542.276800380468
 21
-6998.86579240234
 31
0.0000000000000013
  0
ELLIPSE
  5
168AA2
330
18
100
AcDbEntity
  8
姿図
100
AcDbEllipse
 10
5541.686964619291
 20
-7001.00095420245
 30
0.0000000000000013
 11
0.0388432112209607
 21
0.0542626955743772
 31
0.0
210
0.0
220
0.0
230
1.0
 40
0.9083744652357184
 41
0.6674062465666986
 42
2.67181090378285
  0
ELLIPSE
  5
168AA3
330
18
100
AcDbEntity
  8
姿図
100
AcDbEllipse
 10
5541.686964619291
 20
-7000.35636712565
 30
0.0000000000000013
 11
0.0388432112209717
 21
0.0542626955743927
 31
0.0
210
0.0
220
0.0
230
1.0
 40
0.9083744652357184
 41
0.66740624656714
 42
2.671810903783259
  0
LINE
  5
168AA4
330
18
100
AcDbEntity
  8
姿図
100
AcDbLine
 10
5541.83804819225
 20
-7000.186229258267
 30
0.0000000000000013
 11
5541.630015848575
 21
-6999.744191454147
 31
0.0000000000000013
  0
LINE
  5
168AA5
330
18
100
AcDbEntity
  8
姿図
100
AcDbLine
 10
5541.83804819225
 20
-6999.541642181466
 30
0.0000000000000013
 11
5541.630015848575
 21
-6999.099604377346
 31
0.0000000000000013
  0
LINE
  5
168AA6
330
18
100
AcDbEntity
  8
姿図
100
AcDbLine
 10
5541.83804819225
 20
-6998.89705510466
 30
0.0000000000000013
 11
5541.619960933968
 21
-6998.433652101775
 31
0.0000000000000013
  0
ELLIPSE
  5
168AA7
330
18
100
AcDbEntity
  8
姿図
100
AcDbEllipse
 10
5541.686964619291
 20
-6999.711780048847
 30
0.0000000000000013
 11
0.0388432112209717
 21
0.0542626955743927
 31
0.0
210
0.0
220
0.0
230
1.0
 40
0.9083744652357184
 41
0.6674062465669842
 42
2.671810903783383
  0
ELLIPSE
  5
168AA8
330
18
100
AcDbEntity
  8
姿図
100
AcDbEllipse
 10
5541.686964619291
 20
-6999.067192972046
 30
0.0000000000000013
 11
0.0388432112209717
 21
0.0542626955743927
 31
0.0
210
0.0
220
0.0
230
1.0
 40
0.9083744652357184
 41
0.6674062465673602
 42
2.671810903782923
  0
LINE
  5
168AA9
330
18
100
AcDbEntity
  8
姿図
100
AcDbLine
 10
5541.83804819225
 20
-7000.830816335069
 30
0.0000000000000013
 11
5541.630015848575
 21
-7000.38877853095
 31
0.0000000000000013
  0
LINE
  5
168AAA
330
18
100
AcDbEntity
  8
姿図
100
AcDbLine
 10
5541.619960933968
 20
-6998.433652101775
 30
0.0000000000000013
 11
5541.619073458892
 21
-6998.300041671156
 31
0.0000000000000013
  0
LINE
  5
168AAB
330
18
100
AcDbEntity
  8
姿図
100
AcDbLine
 10
5541.686964619291
 20
-7000.936495494771
 30
0.0000000000000013
 11
5541.78109942153
 21
-7000.927686448051
 31
0.0000000000000013
  0
ELLIPSE
  5
168AAC
330
18
100
AcDbEntity
  8
姿図
100
AcDbEllipse
 10
5541.78109942153
 20
-7000.863227740367
 30
0.0000000000000013
 11
0.038843211220955
 21
0.05426269557438
 31
0.0
210
0.0000000000000001
220
0.0000000000000001
230
1.0
 40
0.9083744652357182
 41
3.808998900157019
 42
5.813403557372652
  0
LINE
  5
168AAD
330
18
100
AcDbEntity
  8
姿図
100
AcDbLine
 10
5541.686964619291
 20
-6999.647321341169
 30
0.0000000000000013
 11
5541.78109942153
 21
-6999.638512294447
 31
0.0000000000000013
  0
LINE
  5
168AAE
330
18
100
AcDbEntity
  8
姿図
100
AcDbLine
 10
5541.686964619291
 20
-7000.29190841797
 30
0.0000000000000013
 11
5541.78109942153
 21
-7000.283099371248
 31
0.0000000000000013
  0
LINE
  5
168AAF
330
18
100
AcDbEntity
  8
姿図
100
AcDbLine
 10
5541.686964619291
 20
-6999.002734264363
 30
0.0000000000000013
 11
5541.78109942153
 21
-6998.993925217643
 31
0.0000000000000013
  0
ELLIPSE
  5
168AB0
330
18
100
AcDbEntity
  8
姿図
100
AcDbEllipse
 10
5541.78109942153
 20
-6999.574053586766
 30
0.0000000000000013
 11
0.038843211220955
 21
0.05426269557438
 31
0.0
210
0.0000000000000001
220
0.0000000000000001
230
1.0
 40
0.9083744652357182
 41
3.808998900156833
 42
5.813403557372843
  0
ELLIPSE
  5
168AB1
330
18
100
AcDbEntity
  8
姿図
100
AcDbEllipse
 10
5541.78109942153
 20
-7000.218640663566
 30
0.0000000000000013
 11
0.038843211220955
 21
0.05426269557438
 31
0.0
210
0.0000000000000001
220
0.0000000000000001
230
1.0
 40
0.9083744652357182
 41
3.808998900156709
 42
5.813403557372572
  0
ELLIPSE
  5
168AB2
330
18
100
AcDbEntity
  8
姿図
100
AcDbEllipse
 10
5542.329055268205
 20
-6999.46411949813
 30
0.0000000000000013
 11
0.0518015552908906
 21
-0.5983679293381276
 31
0.0
210
0.0
220
0.0
230
0.9999999999999998
 40
0.3301839125655894
 41
3.14388787013195
 42
4.437113948144848
  0
ELLIPSE
  5
168AB3
330
18
100
AcDbEntity
  8
姿図
100
AcDbEllipse
 10
5541.78109942153
 20
-6998.929466509967
 30
0.0000000000000013
 11
0.038843211220955
 21
0.05426269557438
 31
0.0
210
0.0000000000000001
220
0.0000000000000001
230
1.0
 40
0.9083744652357182
 41
3.808998900157019
 42
5.813403557372702
  0
LINE
  5
168AB4
330
18
100
AcDbEntity
  8
姿図
100
AcDbLine
 10
5542.946056841983
 20
-7000.041674389557
 30
0.0000000000000013
 11
5543.154089185658
 21
-7000.483712193679
 31
0.0000000000000013
  0
LINE
  5
168AB5
330
18
100
AcDbEntity
  8
姿図
100
AcDbLine
 10
5543.857490406271
 20
-7000.342645295815
 30
0.0000000000000013
 11
5543.639403147994
 21
-6999.87924229293
 31
0.0000000000000013
  0
LINE
  5
168AB6
330
18
100
AcDbEntity
  8
姿図
100
AcDbLine
 10
5543.706406833316
 20
-7000.448324455515
 30
0.0000000000000013
 11
5543.800541635556
 21
-7000.439515408796
 31
0.0000000000000013
  0
ELLIPSE
  5
168AB7
330
18
100
AcDbEntity
  8
姿図
100
AcDbEllipse
 10
5543.706406833316
 20
-7000.512783163198
 30
0.0000000000000013
 11
0.0388432112209717
 21
0.0542626955743927
 31
0.0
210
0.0
220
0.0
230
1.0
 40
0.9083744652357184
 41
0.66740624656764
 42
2.671810903783141
  0
LINE
  5
168AB8
330
18
100
AcDbEntity
  8
姿図
100
AcDbLine
 10
5543.09714041494
 20
-7000.580582306658
 30
0.0000000000000013
 11
5543.003005612701
 21
-7000.589391353376
 31
0.0000000000000013
  0
ELLIPSE
  5
168AB9
330
18
100
AcDbEntity
  8
姿図
100
AcDbEllipse
 10
5543.003005612701
 20
-7000.653850061063
 30
0.0000000000000013
 11
0.038843211220967
 21
0.054262695574396
 31
0.0
210
0.0
220
0.0
230
1.0
 40
0.9083744652357179
 41
0.6674062465667575
 42
2.671810903783106
  0
ELLIPSE
  5
168ABA
330
18
100
AcDbEntity
  8
姿図
100
AcDbEllipse
 10
5543.097140414936
 20
-7000.516123598983
 30
0.0000000000000013
 11
0.0388432112209605
 21
0.0542626955743761
 31
0.0
210
0.0
220
0.0
230
0.9999999999999998
 40
0.9083744652357179
 41
3.808998900156756
 42
5.813403557372717
  0
ELLIPSE
  5
168ABB
330
18
100
AcDbEntity
  8
姿図
100
AcDbEllipse
 10
5543.800541635553
 20
-7000.375056701118
 30
0.0000000000000013
 11
0.038843211220955
 21
0.05426269557438
 31
0.0
210
0.0000000000000001
220
0.0000000000000001
230
1.0
 40
0.9083744652357182
 41
3.808998900156673
 42
5.813403557372901
  0
LINE
  5
168ABC
330
18
100
AcDbEntity
  8
姿図
100
AcDbLine
 10
5543.639403147994
 20
-6999.87924229293
 30
0.0000000000000013
 11
5543.638515672913
 21
-6999.745631862303
 31
0.0000000000000013
  0
LINE
  5
168ABD
330
18
100
AcDbEntity
  8
姿図
100
AcDbLine
 10
5542.936001927376
 20
-6999.375722113993
 30
0.0000000000000013
 11
5543.154089185658
 21
-6999.839125116873
 31
0.0000000000000013
  0
LINE
  5
168ABE
330
18
100
AcDbEntity
  8
姿図
100
AcDbLine
 10
5543.09714041494
 20
-6999.935995229856
 30
0.0000000000000013
 11
5543.003005612701
 21
-6999.944804276577
 31
0.0000000000000013
  0
LINE
  5
168ABF
330
18
100
AcDbEntity
  8
姿図
100
AcDbLine
 10
5542.935114452299
 20
-6999.242111683367
 30
0.0000000000000013
 11
5542.936001927376
 21
-6999.375722113993
 31
0.0000000000000013
  0
LINE
  5
168AC0
330
18
100
AcDbEntity
  8
姿図
100
AcDbLine
 10
5543.430451446136
 20
-6999.019680585518
 30
0.0000000000000013
 11
5543.135476740713
 21
-6998.808526962095
 31
0.0000000000000013
  0
LINE
  5
168AC1
330
18
100
AcDbEntity
  8
姿図
100
AcDbLine
 10
5543.639403147994
 20
-6999.87924229293
 30
0.0000000000000013
 11
5542.936001927376
 21
-6999.375722113993
 31
0.0000000000000013
  0
ELLIPSE
  5
168AC2
330
18
100
AcDbEntity
  8
姿図
100
AcDbEllipse
 10
5543.434302415318
 20
-6999.599448584548
 30
0.0000000000000013
 11
0.0601042818412189
 21
-0.5975910098000778
 31
0.0000000000000001
210
0.0
220
0.0000000000000002
230
1.0
 40
0.3266547503873754
 41
1.290961286430829
 42
2.861757613225647
  0
ELLIPSE
  5
168AC3
330
18
100
AcDbEntity
  8
姿図
100
AcDbEllipse
 10
5543.003005612701
 20
-7000.009262984261
 30
0.0000000000000013
 11
0.038843211220967
 21
0.054262695574396
 31
0.0
210
0.0
220
0.0
230
1.0
 40
0.9083744652357179
 41
0.6674062465679878
 42
2.671810903783201
  0
ELLIPSE
  5
168AC4
330
18
100
AcDbEntity
  8
姿図
100
AcDbEllipse
 10
5543.097140414936
 20
-6999.871536522177
 30
0.0000000000000013
 11
0.0388432112209605
 21
0.0542626955743761
 31
0.0
210
0.0
220
0.0
230
0.9999999999999998
 40
0.9083744652357179
 41
3.808998900156947
 42
5.813403557372958
  0
ELLIPSE
  5
168AC5
330
18
100
AcDbEntity
  8
姿図
100
AcDbEllipse
 10
5543.139327709898
 20
-6999.388294961121
 30
0.0000000000000013
 11
0.0601042818412189
 21
-0.5975910098000778
 31
0.0000000000000001
210
0.0
220
0.0000000000000002
230
1.0
 40
0.3266547503873754
 41
2.861757613225714
 42
4.432553940020625
  0
LINE
  5
168AC6
330
18
100
AcDbEntity
  8
姿図
100
AcDbLine
 10
5543.857490406271
 20
-7000.987232372619
 30
0.0000000000000013
 11
5543.649458062597
 21
-7000.545194568498
 31
0.0000000000000013
  0
LINE
  5
168AC7
330
18
100
AcDbEntity
  8
姿図
100
AcDbLine
 10
5541.41100923211
 20
-6997.57409039437
 30
0.0000000000000013
 11
5541.11603452669
 21
-6997.362936770944
 31
0.0000000000000013
  0
ELLIPSE
  5
168AC8
330
18
100
AcDbEntity
  8
姿図
100
AcDbEllipse
 10
5540.309613054184
 20
-6998.018529306975
 30
0.0000000000000013
 11
0.0518015552908906
 21
-0.5983679293381276
 31
0.0
210
0.0
220
0.0
230
0.9999999999999998
 40
0.3301839125655894
 41
3.143887870131957
 42
4.437113948144826
  0
ELLIPSE
  5
168AC9
330
18
100
AcDbEntity
  8
姿図
100
AcDbEllipse
 10
5540.983563398675
 20
-7000.497434023509
 30
0.0000000000000013
 11
0.0388432112209556
 21
0.0542626955743808
 31
0.0
210
0.0
220
0.0
230
1.0
 40
0.9083744652357193
 41
0.6674062465669472
 42
2.671810903782859
  0
LINE
  5
168ACA
330
18
100
AcDbEntity
  8
姿図
100
AcDbLine
 10
5541.077698200916
 20
-7000.42416626911
 30
0.0000000000000013
 11
5540.983563398676
 21
-7000.432975315833
 31
0.0000000000000013
  0
LINE
  5
168ACB
330
18
100
AcDbEntity
  8
姿図
100
AcDbLine
 10
5541.077698200916
 20
-6998.490405038705
 30
0.0000000000000013
 11
5540.983563398676
 21
-6998.499214085424
 31
0.0000000000000013
  0
LINE
  5
168ACC
330
18
100
AcDbEntity
  8
姿図
100
AcDbLine
 10
5540.915672238273
 20
-6997.796521492211
 30
0.0000000000000013
 11
5540.916559713354
 21
-6997.930131922839
 31
0.0000000000000013
  0
LINE
  5
168ACD
330
18
100
AcDbEntity
  8
姿図
100
AcDbLine
 10
5541.077698200916
 20
-6999.779579192304
 30
0.0000000000000013
 11
5540.983563398676
 21
-6999.788388239029
 31
0.0000000000000013
  0
LINE
  5
168ACE
330
18
100
AcDbEntity
  8
姿図
100
AcDbLine
 10
5541.077698200916
 20
-6999.134992115504
 30
0.0000000000000013
 11
5540.983563398676
 21
-6999.143801162223
 31
0.0000000000000013
  0
ELLIPSE
  5
168ACF
330
18
100
AcDbEntity
  8
姿図
100
AcDbEllipse
 10
5540.983563398675
 20
-6999.852846946708
 30
0.0000000000000013
 11
0.0388432112209667
 21
0.0542626955743963
 31
0.0
210
0.0
220
0.0
230
0.9999999999999998
 40
0.9083744652357189
 41
0.6674062465670007
 42
2.671810903783069
  0
ELLIPSE
  5
168AD0
330
18
100
AcDbEntity
  8
姿図
100
AcDbEllipse
 10
5540.983563398675
 20
-6999.208259869909
 30
0.0000000000000013
 11
0.0388432112209667
 21
0.0542626955743963
 31
0.0
210
0.0
220
0.0
230
0.9999999999999998
 40
0.9083744652357189
 41
0.6674062465671249
 42
2.671810903782978
  0
ELLIPSE
  5
168AD1
330
18
100
AcDbEntity
  8
姿図
100
AcDbEllipse
 10
5540.983563398675
 20
-6998.563672793108
 30
0.0000000000000013
 11
0.0388432112209667
 21
0.0542626955743963
 31
0.0
210
0.0
220
0.0
230
0.9999999999999998
 40
0.9083744652357189
 41
0.6674062465673205
 42
2.671810903783248
  0
LINE
  5
168AD2
330
18
100
AcDbEntity
  8
姿図
100
AcDbLine
 10
5541.060223468573
 20
-6997.34507082737
 30
0.0000000000000013
 11
5540.257358166446
 21
-6997.420202211187
 31
0.0000000000000013
  0
ELLIPSE
  5
168AD3
330
18
100
AcDbEntity
  8
姿図
100
AcDbEllipse
 10
5541.119885495871
 20
-6997.942704769972
 30
0.0000000000000013
 11
0.0601042818412189
 21
-0.5975910098000778
 31
0.0000000000000001
210
0.0
220
0.0000000000000002
230
1.0
 40
0.3266547503873754
 41
2.861757613225733
 42
4.432553940020583
  0
LINE
  5
168AD4
330
18
100
AcDbEntity
  8
姿図
100
AcDbLine
 10
5540.926614627957
 20
-6999.885258352009
 30
0.0000000000000013
 11
5541.134646971634
 21
-7000.327296156129
 31
0.0000000000000013
  0
ELLIPSE
  5
168AD5
330
18
100
AcDbEntity
  8
姿図
100
AcDbEllipse
 10
5541.077698200916
 20
-7000.359707561428
 30
0.0000000000000013
 11
0.0388432112209601
 21
0.0542626955743764
 31
0.0
210
0.0
220
0.0
230
1.0
 40
0.9083744652357191
 41
3.808998900156817
 42
5.813403557372728
  0
LINE
  5
168AD6
330
18
100
AcDbEntity
  8
姿図
100
AcDbLine
 10
5541.619960933968
 20
-6998.433652101775
 30
0.0000000000000013
 11
5540.916559713354
 21
-6997.930131922839
 31
0.0000000000000013
  0
LINE
  5
168AD7
330
18
100
AcDbEntity
  8
姿図
100
AcDbLine
 10
5540.916559713354
 20
-6997.930131922839
 30
0.0000000000000013
 11
5541.134646971634
 21
-6998.393534925718
 31
0.0000000000000013
  0
LINE
  5
168AD8
330
18
100
AcDbEntity
  8
姿図
100
AcDbLine
 10
5540.926614627957
 20
-6999.240671275207
 30
0.0000000000000013
 11
5541.134646971634
 21
-6999.682709079324
 31
0.0000000000000013
  0
LINE
  5
168AD9
330
18
100
AcDbEntity
  8
姿図
100
AcDbLine
 10
5540.926614627957
 20
-6998.596084198403
 30
0.0000000000000013
 11
5541.134646971634
 21
-6999.038122002524
 31
0.0000000000000013
  0
ELLIPSE
  5
168ADA
330
18
100
AcDbEntity
  8
姿図
100
AcDbEllipse
 10
5541.077698200916
 20
-6999.715120484629
 30
0.0000000000000013
 11
0.0388432112209601
 21
0.0542626955743764
 31
0.0
210
0.0
220
0.0
230
1.0
 40
0.9083744652357191
 41
3.808998900156848
 42
5.813403557372544
  0
ELLIPSE
  5
168ADB
330
18
100
AcDbEntity
  8
姿図
100
AcDbEllipse
 10
5541.077698200916
 20
-6999.070533407824
 30
0.0000000000000013
 11
0.0388432112209601
 21
0.0542626955743764
 31
0.0
210
0.0
220
0.0
230
1.0
 40
0.9083744652357191
 41
3.808998900156623
 42
5.813403557372816
  0
ELLIPSE
  5
168ADC
330
18
100
AcDbEntity
  8
姿図
100
AcDbEllipse
 10
5541.077698200916
 20
-6998.425946331022
 30
0.0000000000000013
 11
0.0388432112209601
 21
0.0542626955743764
 31
0.0
210
0.0
220
0.0
230
1.0
 40
0.9083744652357191
 41
3.808998900157183
 42
5.813403557372865
  0
LINE
  5
168ADD
330
18
100
AcDbEntity
  8
姿図
100
AcDbLine
 10
5540.926614627957
 20
-7000.529845428808
 30
0.0000000000000013
 11
5541.134646971634
 21
-7000.971883232931
 31
0.0000000000000013
  0
LINE
  5
168ADE
330
18
100
AcDbEntity
  8
姿図
100
AcDbLine
 10
5541.686964619291
 20
-7001.58108257157
 30
0.0000000000000013
 11
5541.78109942153
 21
-7001.572273524854
 31
0.0000000000000013
  0
LINE
  5
168ADF
330
18
100
AcDbEntity
  8
姿図
100
AcDbLine
 10
5543.857490406271
 20
-7001.631819449419
 30
0.0000000000000013
 11
5543.649458062597
 21
-7001.1897816453
 31
0.0000000000000013
  0
LINE
  5
168AE0
330
18
100
AcDbEntity
  8
姿図
100
AcDbLine
 10
5542.946056841983
 20
-7001.330848543162
 30
0.0000000000000013
 11
5543.154089185658
 21
-7001.772886347282
 31
0.0000000000000013
  0
LINE
  5
168AE1
330
18
100
AcDbEntity
  8
姿図
100
AcDbLine
 10
5540.926614627957
 20
-7001.174432505613
 30
0.0000000000000013
 11
5541.134646971634
 21
-7001.61647030973
 31
0.0000000000000013
  0
LINE
  5
168AE2
330
18
100
AcDbEntity
  8
姿図
100
AcDbLine
 10
5541.83804819225
 20
-7008.5658612567
 30
0.0000000000000013
 11
5541.644279187507
 21
-7008.154130927419
 31
0.0000000000000013
  0
LINE
  5
168AE3
330
18
100
AcDbEntity
  8
姿図
100
AcDbLine
 10
5543.857490406271
 20
-7008.722277294246
 30
0.0000000000000013
 11
5543.649458062597
 21
-7008.28023949013
 31
0.0000000000000013
  0
LINE
  5
168AE4
330
18
100
AcDbEntity
  8
姿図
100
AcDbLine
 10
5542.946490335673
 20
-7008.422227497644
 30
0.0000000000000013
 11
5543.154089185658
 21
-7008.863344192109
 31
0.0000000000000013
  0
ELLIPSE
  5
168AE5
330
18
100
AcDbEntity
  8
姿図
100
AcDbEllipse
 10
5524.461223518896
 20
-6761.066235259504
 30
0.0000000000000013
 11
-4.569929460419698
 21
-463.1211597134612
 31
-0.0000000000000257
210
0.0
220
-0.0000000000000001
230
1.0
 40
0.0509529088182855
 41
1.005428428192962
 42
1.010474847289325
  0
LINE
  5
168AE6
330
18
100
AcDbEntity
  8
姿図
100
AcDbLine
 10
5543.103171044875
 20
-7010.202909294839
 30
0.0000000000000013
 11
5541.900581861241
 21
-7009.342052214714
 31
0.0000000000000013
  0
ELLIPSE
  5
168AE7
330
18
100
AcDbEntity
  8
姿図
100
AcDbEllipse
 10
5523.434876345749
 20
-6969.179283256536
 30
0.0000000000000013
 11
-19.83658726056132
 21
40.56437036753361
 31
-0.0000000000000013
210
0.0
220
0.0
230
1.0
 40
0.0898112888334004
 41
2.866072935780158
 42
2.880426324101852
  0
ELLIPSE
  5
168AE8
330
18
100
AcDbEntity
  8
姿図
100
AcDbEllipse
 10
5541.077698200916
 20
-7008.739339559865
 30
0.0000000000000013
 11
0.0388432112209601
 21
0.0542626955743764
 31
0.0
210
0.0
220
0.0
230
1.0
 40
0.9083744652357191
 41
5.379795226951903
 42
5.813403557372927
  0
ELLIPSE
  5
168AE9
330
18
100
AcDbEntity
  8
姿図
100
AcDbEllipse
 10
5541.78109942153
 20
-7008.598272662
 30
0.0000000000000013
 11
0.0388432112209525
 21
0.0542626955743766
 31
0.0
210
0.0
220
0.0
230
1.0
 40
0.9083744652357188
 41
3.808998900156732
 42
5.813403557372703
  0
LINE
  5
168AEA
330
18
100
AcDbEntity
  8
姿図
100
AcDbLine
 10
5541.686964619291
 20
-7008.671540416401
 30
0.0000000000000013
 11
5541.78109942153
 21
-7008.662731369678
 31
0.0000000000000013
  0
LINE
  5
168AEB
330
18
100
AcDbEntity
  8
姿図
100
AcDbLine
 10
5541.65810894433
 20
-7008.828104187547
 30
0.0000000000000013
 11
5541.655140101894
 21
-7008.683421505828
 31
0.0000000000000013
  0
LINE
  5
168AEC
330
18
100
AcDbEntity
  8
姿図
100
AcDbLine
 10
5541.806672013497
 20
-7009.14377861805
 30
0.0000000000000013
 11
5541.658108947016
 21
-7008.828104187237
 31
0.0000000000000013
  0
ELLIPSE
  5
168AED
330
18
100
AcDbEntity
  8
姿図
100
AcDbEllipse
 10
5541.900581861241
 20
-7009.180905445517
 30
0.0000000000000013
 11
-0.0155440159775489
 21
0.1661056997765384
 31
0.0
210
0.0
220
0.0000000000000001
230
0.9999999999999998
 40
0.3284334526200731
 41
1.936727186806236
 42
2.864022404808019
  0
ELLIPSE
  5
168AEE
330
18
100
AcDbEntity
  8
姿図
100
AcDbEllipse
 10
5541.686964619291
 20
-7008.735999124079
 30
0.0000000000000013
 11
0.0388432112209607
 21
0.0542626955743772
 31
0.0
210
0.0
220
0.0
230
1.0
 40
0.9083744652357184
 41
0.6674062465667716
 42
1.199235524511625
  0
ELLIPSE
  5
168AEF
330
18
100
AcDbEntity
  8
姿図
100
AcDbEllipse
 10
5541.863397918384
 20
-7009.184385084097
 30
0.0000000000000013
 11
0.0878103639779121
 21
-0.1588491864505247
 31
0.0
210
0.0
220
0.0
230
0.9999999999999998
 40
0.1762382375576922
 41
4.358020013766092
 42
4.804663612440179
  0
LINE
  5
168AF0
330
18
100
AcDbEntity
  8
姿図
100
AcDbLine
 10
5543.857490406271
 20
-7009.366864371052
 30
0.0000000000000013
 11
5543.649458062597
 21
-7008.924826566934
 31
0.0000000000000013
  0
LINE
  5
168AF1
330
18
100
AcDbEntity
  8
姿図
100
AcDbLine
 10
5543.857490406271
 20
-7010.656038524658
 30
0.0000000000000013
 11
5543.649458062597
 21
-7010.214000720535
 31
0.0000000000000013
  0
LINE
  5
168AF2
330
18
100
AcDbEntity
  8
姿図
100
AcDbLine
 10
5543.857490406271
 20
-7010.011451447856
 30
0.0000000000000013
 11
5543.649458062597
 21
-7009.569413643735
 31
0.0000000000000013
  0
ELLIPSE
  5
168AF3
330
18
100
AcDbEntity
  8
姿図
100
AcDbEllipse
 10
5543.706406833316
 20
-7009.537002238435
 30
0.0000000000000013
 11
0.0388432112209607
 21
0.0542626955743772
 31
0.0
210
0.0
220
0.0
230
1.0
 40
0.9083744652357184
 41
0.6674062465671117
 42
2.671810903782998
  0
ELLIPSE
  5
168AF4
330
18
100
AcDbEntity
  8
姿図
100
AcDbEllipse
 10
5543.706406833316
 20
-7010.181589315235
 30
0.0000000000000013
 11
0.0388432112209607
 21
0.0542626955743772
 31
0.0
210
0.0
220
0.0
230
1.0
 40
0.9083744652357184
 41
0.6674062465671139
 42
2.671810903782835
  0
ELLIPSE
  5
168AF5
330
18
100
AcDbEntity
  8
姿図
100
AcDbEllipse
 10
5543.706406833316
 20
-7008.892415161628
 30
0.0000000000000013
 11
0.0388432112209607
 21
0.0542626955743772
 31
0.0
210
0.0
220
0.0
230
1.0
 40
0.9083744652357184
 41
0.6674062465672714
 42
2.671810903782923
  0
LINE
  5
168AF6
330
18
100
AcDbEntity
  8
姿図
100
AcDbLine
 10
5542.960320180917
 20
-7009.096200939635
 30
0.0000000000000013
 11
5543.154089185658
 21
-7009.50793126891
 31
0.0000000000000013
  0
LINE
  5
168AF7
330
18
100
AcDbEntity
  8
姿図
100
AcDbLine
 10
5542.971181095303
 20
-7009.625491518043
 30
0.0000000000000013
 11
5542.974149937741
 21
-7009.770174199761
 31
0.0000000000000013
  0
LINE
  5
168AF8
330
18
100
AcDbEntity
  8
姿図
100
AcDbLine
 10
5543.09714041494
 20
-7009.604801381891
 30
0.0000000000000013
 11
5543.003005612701
 21
-7009.613610428613
 31
0.0000000000000013
  0
LINE
  5
168AF9
330
18
100
AcDbEntity
  8
姿図
100
AcDbLine
 10
5542.958193270844
 20
-7008.992549443577
 30
0.0000000000000013
 11
5542.960320178764
 21
-7009.096200939882
 31
0.0000000000000013
  0
LINE
  5
168AFA
330
18
100
AcDbEntity
  8
姿図
100
AcDbLine
 10
5543.09714041494
 20
-7008.960214305091
 30
0.0000000000000013
 11
5543.003005612701
 21
-7008.969023351813
 31
0.0000000000000013
  0
LINE
  5
168AFB
330
18
100
AcDbEntity
  8
姿図
100
AcDbLine
 10
5542.974149940423
 20
-7009.77017419945
 30
0.0000000000000013
 11
5543.122713006905
 21
-7010.085848630265
 31
0.0000000000000013
  0
ELLIPSE
  5
168AFC
330
18
100
AcDbEntity
  8
姿図
100
AcDbEllipse
 10
5543.003005612701
 20
-7009.678069136298
 30
0.0000000000000013
 11
0.038843211220956
 21
0.0542626955743806
 31
0.0
210
0.0
220
0.0
230
1.0
 40
0.9083744652357182
 41
0.6674062465669202
 42
1.199235524648299
  0
ELLIPSE
  5
168AFD
330
18
100
AcDbEntity
  8
姿図
100
AcDbEllipse
 10
5543.097140414936
 20
-7009.540342674215
 30
0.0000000000000013
 11
0.038843211220958
 21
0.0542626955743726
 31
0.0
210
-0.0000000000000001
220
-0.0000000000000001
230
1.0
 40
0.9083744652357179
 41
3.808998900156815
 42
5.813403557372784
  0
ELLIPSE
  5
168AFE
330
18
100
AcDbEntity
  8
姿図
100
AcDbEllipse
 10
5543.103171044875
 20
-7010.041762525638
 30
0.0000000000000013
 11
-0.0155440159775489
 21
0.1661056997765384
 31
0.0
210
0.0
220
0.0000000000000001
230
0.9999999999999998
 40
0.3284334526200731
 41
2.864022404808038
 42
3.791317622809779
  0
ELLIPSE
  5
168AFF
330
18
100
AcDbEntity
  8
姿図
100
AcDbEllipse
 10
5543.065987102015
 20
-7010.045242164219
 30
0.0000000000000013
 11
0.0878103639779121
 21
-0.1588491864505247
 31
0.0
210
0.0
220
0.0
230
0.9999999999999998
 40
0.1762382375576922
 41
0.7697837615025533
 42
1.216427360176594
  0
ELLIPSE
  5
168B00
330
18
100
AcDbEntity
  8
姿図
100
AcDbEllipse
 10
5523.434876345749
 20
-6969.179283256536
 30
0.0000000000000013
 11
-19.83658726056132
 21
40.56437036753361
 31
-0.0000000000000013
210
0.0
220
0.0
230
1.0
 40
0.0898112888334004
 41
3.072805797846053
 42
3.087159186167752
  0
ELLIPSE
  5
168B01
330
18
100
AcDbEntity
  8
姿図
100
AcDbEllipse
 10
5543.003005612701
 20
-7009.033482059489
 30
0.0000000000000013
 11
0.038843211220956
 21
0.0542626955743806
 31
0.0
210
0.0
220
0.0
230
1.0
 40
0.9083744652357182
 41
0.6674062465669227
 42
1.462696070731774
  0
ELLIPSE
  5
168B02
330
18
100
AcDbEntity
  8
姿図
100
AcDbEllipse
 10
5543.097140414936
 20
-7008.895755597409
 30
0.0000000000000013
 11
0.038843211220958
 21
0.0542626955743726
 31
0.0
210
-0.0000000000000001
220
-0.0000000000000001
230
1.0
 40
0.9083744652357179
 41
3.808998900157096
 42
5.813403557372832
  0
ELLIPSE
  5
168B03
330
18
100
AcDbEntity
  8
姿図
100
AcDbEllipse
 10
5523.434280386968
 20
-6968.533429855916
 30
0.0000000000000013
 11
-19.82281215858677
 21
40.53620129132076
 31
0.0000000000000025
210
0.0
220
0.0
230
1.0
 40
0.0898112888334004
 41
3.072872848347417
 42
3.080408125087991
  0
LINE
  5
168B04
330
18
100
AcDbEntity
  8
姿図
100
AcDbLine
 10
5543.706406833316
 20
-7009.472543530751
 30
0.0000000000000013
 11
5543.800541635556
 21
-7009.463734484029
 31
0.0000000000000013
  0
LINE
  5
168B05
330
18
100
AcDbEntity
  8
姿図
100
AcDbLine
 10
5543.706406833316
 20
-7008.82795645395
 30
0.0000000000000013
 11
5543.800541635556
 21
-7008.819147407229
 31
0.0000000000000013
  0
LINE
  5
168B06
330
18
100
AcDbEntity
  8
姿図
100
AcDbLine
 10
5543.706406833316
 20
-7010.11713060755
 30
0.0000000000000013
 11
5543.800541635556
 21
-7010.108321560831
 31
0.0000000000000013
  0
ELLIPSE
  5
168B07
330
18
100
AcDbEntity
  8
姿図
100
AcDbEllipse
 10
5543.800541635553
 20
-7009.399275776353
 30
0.0000000000000013
 11
0.0388432112209525
 21
0.0542626955743766
 31
0.0
210
0.0
220
0.0
230
1.0
 40
0.9083744652357188
 41
3.808998900156633
 42
5.813403557372652
  0
ELLIPSE
  5
168B08
330
18
100
AcDbEntity
  8
姿図
100
AcDbEllipse
 10
5543.800541635553
 20
-7010.043862853155
 30
0.0000000000000013
 11
0.0388432112209525
 21
0.0542626955743766
 31
0.0
210
0.0
220
0.0
230
1.0
 40
0.9083744652357188
 41
3.808998900156506
 42
5.813403557372812
  0
ELLIPSE
  5
168B09
330
18
100
AcDbEntity
  8
姿図
100
AcDbEllipse
 10
5543.800541635553
 20
-7010.688449929955
 30
0.0000000000000013
 11
0.038843211220955
 21
0.05426269557438
 31
0.0
210
0.0000000000000001
220
0.0000000000000001
230
1.0
 40
0.9083744652357182
 41
5.379795226951761
 42
5.813403557372784
  0
ELLIPSE
  5
168B0A
330
18
100
AcDbEntity
  8
姿図
100
AcDbEllipse
 10
5543.800541635553
 20
-7008.754688699553
 30
0.0000000000000013
 11
0.0388432112209525
 21
0.0542626955743766
 31
0.0
210
0.0
220
0.0
230
1.0
 40
0.9083744652357188
 41
3.808998900156413
 42
5.813403557372718
  0
LINE
  5
168B0B
330
18
100
AcDbEntity
  8
姿図
100
AcDbLine
 10
5541.83804819225
 20
-7004.05375171908
 30
0.0000000000000013
 11
5541.630015848575
 21
-7003.611713914962
 31
0.0000000000000013
  0
LINE
  5
168B0C
330
18
100
AcDbEntity
  8
姿図
100
AcDbLine
 10
5541.83804819225
 20
-7002.119990488679
 30
0.0000000000000013
 11
5541.630015848575
 21
-7001.677952684556
 31
0.0000000000000013
  0
LINE
  5
168B0D
330
18
100
AcDbEntity
  8
姿図
100
AcDbLine
 10
5541.83804819225
 20
-7002.764577565478
 30
0.0000000000000013
 11
5541.630015848575
 21
-7002.322539761358
 31
0.0000000000000013
  0
LINE
  5
168B0E
330
18
100
AcDbEntity
  8
姿図
100
AcDbLine
 10
5541.83804819225
 20
-7003.409164642278
 30
0.0000000000000013
 11
5541.630015848575
 21
-7002.967126838157
 31
0.0000000000000013
  0
LINE
  5
168B0F
330
18
100
AcDbEntity
  8
姿図
100
AcDbLine
 10
5541.83804819225
 20
-7007.921274179897
 30
0.0000000000000013
 11
5541.630449342263
 21
-7007.480157485428
 31
0.0000000000000013
  0
LINE
  5
168B10
330
18
100
AcDbEntity
  8
姿図
100
AcDbLine
 10
5541.83804819225
 20
-7005.987512949488
 30
0.0000000000000013
 11
5541.630015848575
 21
-7005.545475145367
 31
0.0000000000000013
  0
LINE
  5
168B11
330
18
100
AcDbEntity
  8
姿図
100
AcDbLine
 10
5541.83804819225
 20
-7006.632100026291
 30
0.0000000000000013
 11
5541.630015848575
 21
-7006.190062222174
 31
0.0000000000000013
  0
LINE
  5
168B12
330
18
100
AcDbEntity
  8
姿図
100
AcDbLine
 10
5541.83804819225
 20
-7007.276687103095
 30
0.0000000000000013
 11
5541.630015848575
 21
-7006.834649298975
 31
0.0000000000000013
  0
LINE
  5
168B13
330
18
100
AcDbEntity
  8
姿図
100
AcDbLine
 10
5541.83804819225
 20
-7005.342925872688
 30
0.0000000000000013
 11
5541.630015848575
 21
-7004.900888068568
 31
0.0000000000000013
  0
LINE
  5
168B14
330
18
100
AcDbEntity
  8
姿図
100
AcDbLine
 10
5541.83804819225
 20
-7004.698338795886
 30
0.0000000000000013
 11
5541.630015848575
 21
-7004.256300991767
 31
0.0000000000000013
  0
ELLIPSE
  5
168B15
330
18
100
AcDbEntity
  8
姿図
100
AcDbEllipse
 10
5541.686964619291
 20
-7007.446824970479
 30
0.0000000000000013
 11
0.0388432112209607
 21
0.0542626955743772
 31
0.0
210
0.0
220
0.0
230
1.0
 40
0.9083744652357184
 41
0.6674062465669874
 42
1.830516517602441
  0
ELLIPSE
  5
168B16
330
18
100
AcDbEntity
  8
姿図
100
AcDbEllipse
 10
5541.686964619291
 20
-7008.09141204728
 30
0.0000000000000013
 11
0.0388432112209607
 21
0.0542626955743772
 31
0.0
210
0.0
220
0.0
230
1.0
 40
0.9083744652357184
 41
0.6674062465667716
 42
1.462696070646689
  0
ELLIPSE
  5
168B17
330
18
100
AcDbEntity
  8
姿図
100
AcDbEllipse
 10
5541.686964619291
 20
-7003.579302509665
 30
0.0000000000000013
 11
0.0388432112209607
 21
0.0542626955743772
 31
0.0
210
0.0
220
0.0
230
1.0
 40
0.9083744652357184
 41
0.6674062465669874
 42
2.671810903782851
  0
ELLIPSE
  5
168B18
330
18
100
AcDbEntity
  8
姿図
100
AcDbEllipse
 10
5541.686964619291
 20
-7005.513063740071
 30
0.0000000000000013
 11
0.0388432112209607
 21
0.0542626955743772
 31
0.0
210
0.0
220
0.0
230
1.0
 40
0.9083744652357184
 41
0.6674062465668904
 42
2.671810903783141
  0
ELLIPSE
  5
168B19
330
18
100
AcDbEntity
  8
姿図
100
AcDbEllipse
 10
5541.686964619291
 20
-7006.15765081687
 30
0.0000000000000013
 11
0.0388432112209607
 21
0.0542626955743772
 31
0.0
210
0.0
220
0.0
230
1.0
 40
0.9083744652357184
 41
0.6674062465668275
 42
2.671810903782998
  0
ELLIPSE
  5
168B1A
330
18
100
AcDbEntity
  8
姿図
100
AcDbEllipse
 10
5541.686964619291
 20
-7006.802237893677
 30
0.0000000000000013
 11
0.0388432112209607
 21
0.0542626955743772
 31
0.0
210
0.0
220
0.0
230
1.0
 40
0.9083744652357184
 41
0.6674062465667716
 42
2.671810903782775
  0
ELLIPSE
  5
168B1B
330
18
100
AcDbEntity
  8
姿図
100
AcDbEllipse
 10
5541.686964619291
 20
-7004.223889586469
 30
0.0000000000000013
 11
0.0388432112209607
 21
0.0542626955743772
 31
0.0
210
0.0
220
0.0
230
1.0
 40
0.9083744652357184
 41
0.6674062465671117
 42
2.671810903783074
  0
ELLIPSE
  5
168B1C
330
18
100
AcDbEntity
  8
姿図
100
AcDbEllipse
 10
5541.686964619291
 20
-7004.868476663268
 30
0.0000000000000013
 11
0.0388432112209607
 21
0.0542626955743772
 31
0.0
210
0.0
220
0.0
230
1.0
 40
0.9083744652357184
 41
0.6674062465663877
 42
2.671810903782819
  0
ELLIPSE
  5
168B1D
330
18
100
AcDbEntity
  8
姿図
100
AcDbEllipse
 10
5541.686964619291
 20
-7001.645541279256
 30
0.0000000000000013
 11
0.0388432112209607
 21
0.0542626955743772
 31
0.0
210
0.0
220
0.0
230
1.0
 40
0.9083744652357184
 41
0.6674062465670556
 42
2.671810903782918
  0
ELLIPSE
  5
168B1E
330
18
100
AcDbEntity
  8
姿図
100
AcDbEllipse
 10
5541.686964619291
 20
-7002.29012835606
 30
0.0000000000000013
 11
0.0388432112209607
 21
0.0542626955743772
 31
0.0
210
0.0
220
0.0
230
1.0
 40
0.9083744652357184
 41
0.6674062465668229
 42
2.671810903782974
  0
ELLIPSE
  5
168B1F
330
18
100
AcDbEntity
  8
姿図
100
AcDbEllipse
 10
5541.686964619291
 20
-7002.934715432863
 30
0.0000000000000013
 11
0.0388432112209607
 21
0.0542626955743772
 31
0.0
210
0.0
220
0.0
230
1.0
 40
0.9083744652357184
 41
0.6674062465671117
 42
2.671810903783023
  0
LINE
  5
168B20
330
18
100
AcDbEntity
  8
姿図
100
AcDbLine
 10
5541.630449340642
 20
-7007.480157485616
 30
0.0000000000000013
 11
5541.629351563567
 21
-7007.426659364966
 31
0.0000000000000013
  0
LINE
  5
168B21
330
18
100
AcDbEntity
  8
姿図
100
AcDbLine
 10
5541.644279185355
 20
-7008.154130927668
 30
0.0000000000000013
 11
5541.642152277434
 21
-7008.050479431364
 31
0.0000000000000013
  0
ELLIPSE
  5
168B22
330
18
100
AcDbEntity
  8
姿図
100
AcDbEllipse
 10
5523.433684428189
 20
-6967.8875764553
 30
0.0000000000000013
 11
-19.80903705661221
 21
40.50803221510785
 31
-0.0000000000000025
210
0.0
220
0.0
230
0.9999999999999998
 40
0.0898112888334005
 41
2.880054474313593
 42
2.880292129410968
  0
ELLIPSE
  5
168B23
330
18
100
AcDbEntity
  8
姿図
100
AcDbEllipse
 10
5523.434280386968
 20
-6968.533429855916
 30
0.0000000000000013
 11
-19.82281215858677
 21
40.53620129132076
 31
0.0000000000000025
210
0.0
220
0.0
230
1.0
 40
0.0898112888334004
 41
2.872823996859903
 42
2.880359273600473
  0
LINE
  5
168B24
330
18
100
AcDbEntity
  8
姿図
100
AcDbLine
 10
5541.686964619291
 20
-7003.514843801983
 30
0.0000000000000013
 11
5541.78109942153
 21
-7003.506034755263
 31
0.0000000000000013
  0
LINE
  5
168B25
330
18
100
AcDbEntity
  8
姿図
100
AcDbLine
 10
5541.686964619291
 20
-7004.159430878785
 30
0.0000000000000013
 11
5541.78109942153
 21
-7004.150621832065
 31
0.0000000000000013
  0
LINE
  5
168B26
330
18
100
AcDbEntity
  8
姿図
100
AcDbLine
 10
5541.686964619291
 20
-7002.225669648378
 30
0.0000000000000013
 11
5541.78109942153
 21
-7002.216860601653
 31
0.0000000000000013
  0
LINE
  5
168B27
330
18
100
AcDbEntity
  8
姿図
100
AcDbLine
 10
5541.686964619291
 20
-7002.87025672518
 30
0.0000000000000013
 11
5541.78109942153
 21
-7002.861447678457
 31
0.0000000000000013
  0
LINE
  5
168B28
330
18
100
AcDbEntity
  8
姿図
100
AcDbLine
 10
5541.686964619291
 20
-7007.382366262795
 30
0.0000000000000013
 11
5541.78109942153
 21
-7007.373557216076
 31
0.0000000000000013
  0
LINE
  5
168B29
330
18
100
AcDbEntity
  8
姿図
100
AcDbLine
 10
5541.686964619291
 20
-7008.026953339596
 30
0.0000000000000013
 11
5541.78109942153
 21
-7008.018144292877
 31
0.0000000000000013
  0
LINE
  5
168B2A
330
18
100
AcDbEntity
  8
姿図
100
AcDbLine
 10
5541.686964619291
 20
-7005.448605032391
 30
0.0000000000000013
 11
5541.78109942153
 21
-7005.439795985664
 31
0.0000000000000013
  0
LINE
  5
168B2B
330
18
100
AcDbEntity
  8
姿図
100
AcDbLine
 10
5541.686964619291
 20
-7006.093192109195
 30
0.0000000000000013
 11
5541.78109942153
 21
-7006.084383062471
 31
0.0000000000000013
  0
LINE
  5
168B2C
330
18
100
AcDbEntity
  8
姿図
100
AcDbLine
 10
5541.686964619291
 20
-7006.737779185994
 30
0.0000000000000013
 11
5541.78109942153
 21
-7006.728970139275
 31
0.0000000000000013
  0
LINE
  5
168B2D
330
18
100
AcDbEntity
  8
姿図
100
AcDbLine
 10
5541.752099627043
 20
-7006.087096836107
 30
0.0000000000000013
 11
5541.761816720495
 21
-7006.445524568087
 31
0.0000000000000013
  0
LINE
  5
168B2E
330
18
100
AcDbEntity
  8
姿図
100
AcDbLine
 10
5541.686964619291
 20
-7004.804017955587
 30
0.0000000000000013
 11
5541.78109942153
 21
-7004.795208908865
 31
0.0000000000000013
  0
ELLIPSE
  5
168B2F
330
18
100
AcDbEntity
  8
姿図
100
AcDbEllipse
 10
5541.78109942153
 20
-7007.309098508398
 30
0.0000000000000013
 11
0.0388432112209525
 21
0.0542626955743766
 31
0.0
210
0.0
220
0.0
230
1.0
 40
0.9083744652357188
 41
3.808998900156663
 42
5.813403557372634
  0
ELLIPSE
  5
168B30
330
18
100
AcDbEntity
  8
姿図
100
AcDbEllipse
 10
5541.78109942153
 20
-7007.953685585199
 30
0.0000000000000013
 11
0.0388432112209525
 21
0.0542626955743766
 31
0.0
210
0.0
220
0.0
230
1.0
 40
0.9083744652357188
 41
3.808998900156701
 42
5.813403557372721
  0
ELLIPSE
  5
168B31
330
18
100
AcDbEntity
  8
姿図
100
AcDbEllipse
 10
5541.78109942153
 20
-7003.441576047584
 30
0.0000000000000013
 11
0.0388432112209539
 21
0.0542626955743783
 31
0.0
210
0.0
220
0.0
230
1.0
 40
0.9083744652357182
 41
3.808998900156943
 42
5.813403557372684
  0
ELLIPSE
  5
168B32
330
18
100
AcDbEntity
  8
姿図
100
AcDbEllipse
 10
5541.78109942153
 20
-7005.375337277988
 30
0.0000000000000013
 11
0.0388432112209539
 21
0.0542626955743783
 31
0.0
210
0.0
220
0.0
230
1.0
 40
0.9083744652357182
 41
3.808998900156664
 42
5.813403557372684
  0
ELLIPSE
  5
168B33
330
18
100
AcDbEntity
  8
姿図
100
AcDbEllipse
 10
5522.576676645996
 20
-7005.932466681115
 30
0.0000000000000013
 11
-19.17075898940471
 21
-0.0000000000003634
 31
-0.0000000000000011
210
-0.0000000000000001
220
0.0
230
0.9999999999999998
 40
0.258819045102515
 41
3.173482583937681
 42
3.237425862011138
  0
ELLIPSE
  5
168B34
330
18
100
AcDbEntity
  8
姿図
100
AcDbEllipse
 10
5522.576676645996
 20
-7006.480365696399
 30
0.0000000000000013
 11
-19.18561234589598
 21
-0.0000000000003653
 31
-0.0000000000000011
210
-0.0000000000000001
220
0.0
230
1.0
 40
0.258819045102515
 41
3.048817195001321
 42
3.090682397459626
  0
ELLIPSE
  5
168B35
330
18
100
AcDbEntity
  8
姿図
100
AcDbEllipse
 10
5522.576676645996
 20
-7006.480365696399
 30
0.0000000000000013
 11
-19.18561234589598
 21
-0.0000000000003653
 31
-0.0000000000000011
210
-0.0000000000000001
220
0.0
230
1.0
 40
0.258819045102515
 41
3.143468445217584
 42
3.219953961483734
  0
ELLIPSE
  5
168B36
330
18
100
AcDbEntity
  8
姿図
100
AcDbEllipse
 10
5542.096448583741
 20
-7007.326931875218
 30
0.0000000000000013
 11
-0.0227910651106291
 21
-0.3329635378327955
 31
0.0
210
0.0
220
0.0000000000000001
230
0.9999999999999998
 40
0.163803715364946
 41
3.940366134145706
 42
4.140498290499586
  0
ELLIPSE
  5
168B37
330
18
100
AcDbEntity
  8
姿図
100
AcDbEllipse
 10
5541.78109942153
 20
-7006.019924354794
 30
0.0000000000000013
 11
0.0388432112209539
 21
0.0542626955743783
 31
0.0
210
0.0
220
0.0
230
1.0
 40
0.9083744652357182
 41
3.808998900156953
 42
5.813403557372612
  0
ELLIPSE
  5
168B38
330
18
100
AcDbEntity
  8
姿図
100
AcDbEllipse
 10
5541.78109942153
 20
-7006.664511431596
 30
0.0000000000000013
 11
0.0388432112209539
 21
0.0542626955743783
 31
0.0
210
0.0
220
0.0
230
1.0
 40
0.9083744652357182
 41
3.808998900157146
 42
5.813403557372802
  0
ELLIPSE
  5
168B39
330
18
100
AcDbEntity
  8
姿図
100
AcDbEllipse
 10
5541.78109942153
 20
-7004.086163124383
 30
0.0000000000000013
 11
0.0388432112209539
 21
0.0542626955743783
 31
0.0
210
0.0
220
0.0
230
1.0
 40
0.9083744652357182
 41
3.808998900156943
 42
5.813403557372684
  0
ELLIPSE
  5
168B3A
330
18
100
AcDbEntity
  8
姿図
100
AcDbEllipse
 10
5541.78109942153
 20
-7004.730750201185
 30
0.0000000000000013
 11
0.0388432112209539
 21
0.0542626955743783
 31
0.0
210
0.0
220
0.0
230
1.0
 40
0.9083744652357182
 41
3.808998900157136
 42
5.813403557372877
  0
ELLIPSE
  5
168B3B
330
18
100
AcDbEntity
  8
姿図
100
AcDbEllipse
 10
5541.78109942153
 20
-7002.152401893976
 30
0.0000000000000013
 11
0.0388432112209539
 21
0.0542626955743783
 31
0.0
210
0.0
220
0.0
230
1.0
 40
0.9083744652357182
 41
3.808998900156943
 42
5.813403557372634
  0
ELLIPSE
  5
168B3C
330
18
100
AcDbEntity
  8
姿図
100
AcDbEllipse
 10
5541.78109942153
 20
-7002.796988970778
 30
0.0000000000000013
 11
0.0388432112209539
 21
0.0542626955743783
 31
0.0
210
0.0
220
0.0
230
1.0
 40
0.9083744652357182
 41
3.808998900157068
 42
5.813403557372807
  0
LINE
  5
168B3D
330
18
100
AcDbEntity
  8
姿図
100
AcDbLine
 10
5543.857490406271
 20
-7003.565580679827
 30
0.0000000000000013
 11
5543.649458062597
 21
-7003.123542875709
 31
0.0000000000000013
  0
LINE
  5
168B3E
330
18
100
AcDbEntity
  8
姿図
100
AcDbLine
 10
5543.857490406271
 20
-7004.210167756632
 30
0.0000000000000013
 11
5543.649458062597
 21
-7003.768129952511
 31
0.0000000000000013
  0
LINE
  5
168B3F
330
18
100
AcDbEntity
  8
姿図
100
AcDbLine
 10
5543.857490406271
 20
-7002.27640652622
 30
0.0000000000000013
 11
5543.649458062597
 21
-7001.834368722104
 31
0.0000000000000013
  0
LINE
  5
168B40
330
18
100
AcDbEntity
  8
姿図
100
AcDbLine
 10
5543.857490406271
 20
-7002.920993603023
 30
0.0000000000000013
 11
5543.649458062597
 21
-7002.478955798906
 31
0.0000000000000013
  0
LINE
  5
168B41
330
18
100
AcDbEntity
  8
姿図
100
AcDbLine
 10
5543.857490406271
 20
-7007.433103140645
 30
0.0000000000000013
 11
5543.649458062597
 21
-7006.991065336523
 31
0.0000000000000013
  0
LINE
  5
168B42
330
18
100
AcDbEntity
  8
姿図
100
AcDbLine
 10
5543.857490406271
 20
-7008.077690217444
 30
0.0000000000000013
 11
5543.649458062597
 21
-7007.635652413324
 31
0.0000000000000013
  0
LINE
  5
168B43
330
18
100
AcDbEntity
  8
姿図
100
AcDbLine
 10
5543.857490406271
 20
-7005.499341910233
 30
0.0000000000000013
 11
5543.649458062597
 21
-7005.057304106114
 31
0.0000000000000013
  0
LINE
  5
168B44
330
18
100
AcDbEntity
  8
姿図
100
AcDbLine
 10
5543.857490406271
 20
-7006.143928987033
 30
0.0000000000000013
 11
5543.649458062597
 21
-7005.701891182916
 31
0.0000000000000013
  0
LINE
  5
168B45
330
18
100
AcDbEntity
  8
姿図
100
AcDbLine
 10
5543.857490406271
 20
-7006.788516063841
 30
0.0000000000000013
 11
5543.649458062597
 21
-7006.346478259722
 31
0.0000000000000013
  0
LINE
  5
168B46
330
18
100
AcDbEntity
  8
姿図
100
AcDbLine
 10
5543.857490406271
 20
-7004.854754833434
 30
0.0000000000000013
 11
5543.649458062597
 21
-7004.41271702931
 31
0.0000000000000013
  0
ELLIPSE
  5
168B47
330
18
100
AcDbEntity
  8
姿図
100
AcDbEllipse
 10
5543.706406833316
 20
-7007.603241008023
 30
0.0000000000000013
 11
0.0388432112209607
 21
0.0542626955743772
 31
0.0
210
0.0
220
0.0
230
1.0
 40
0.9083744652357184
 41
0.6674062465674321
 42
2.671810903783085
  0
ELLIPSE
  5
168B48
330
18
100
AcDbEntity
  8
姿図
100
AcDbEllipse
 10
5543.706406833316
 20
-7008.247828084826
 30
0.0000000000000013
 11
0.0388432112209607
 21
0.0542626955743772
 31
0.0
210
0.0
220
0.0
230
1.0
 40
0.9083744652357184
 41
0.6674062465669874
 42
2.671810903782875
  0
ELLIPSE
  5
168B49
330
18
100
AcDbEntity
  8
姿図
100
AcDbEllipse
 10
5543.706406833316
 20
-7005.669479777622
 30
0.0000000000000013
 11
0.0388432112209607
 21
0.0542626955743772
 31
0.0
210
0.0
220
0.0
230
1.0
 40
0.9083744652357184
 41
0.6674062465671117
 42
2.671810903782998
  0
ELLIPSE
  5
168B4A
330
18
100
AcDbEntity
  8
姿図
100
AcDbEllipse
 10
5543.706406833316
 20
-7006.314066854423
 30
0.0000000000000013
 11
0.0388432112209607
 21
0.0542626955743772
 31
0.0
210
0.0
220
0.0
230
1.0
 40
0.9083744652357184
 41
0.6674062465669561
 42
2.671810903782844
  0
ELLIPSE
  5
168B4B
330
18
100
AcDbEntity
  8
姿図
100
AcDbEllipse
 10
5543.706406833316
 20
-7006.958653931222
 30
0.0000000000000013
 11
0.0388432112209607
 21
0.0542626955743772
 31
0.0
210
0.0
220
0.0
230
1.0
 40
0.9083744652357184
 41
0.6674062465670799
 42
2.671810903782968
  0
ELLIPSE
  5
168B4C
330
18
100
AcDbEntity
  8
姿図
100
AcDbEllipse
 10
5543.706406833316
 20
-7003.735718547211
 30
0.0000000000000013
 11
0.0388432112209607
 21
0.0542626955743772
 31
0.0
210
0.0
220
0.0
230
1.0
 40
0.9083744652357184
 41
0.6674062465670799
 42
2.671810903783017
  0
ELLIPSE
  5
168B4D
330
18
100
AcDbEntity
  8
姿図
100
AcDbEllipse
 10
5543.706406833316
 20
-7004.380305624012
 30
0.0000000000000013
 11
0.0388432112209607
 21
0.0542626955743772
 31
0.0
210
0.0
220
0.0
230
1.0
 40
0.9083744652357184
 41
0.667406246567148
 42
2.671810903783085
  0
ELLIPSE
  5
168B4E
330
18
100
AcDbEntity
  8
姿図
100
AcDbEllipse
 10
5543.706406833316
 20
-7005.024892700816
 30
0.0000000000000013
 11
0.0388432112209607
 21
0.0542626955743772
 31
0.0
210
0.0
220
0.0
230
1.0
 40
0.9083744652357184
 41
0.6674062465669874
 42
2.671810903782923
  0
ELLIPSE
  5
168B4F
330
18
100
AcDbEntity
  8
姿図
100
AcDbEllipse
 10
5543.706406833316
 20
-7001.8019573168
 30
0.0000000000000013
 11
0.0388432112209717
 21
0.0542626955743927
 31
0.0
210
0.0
220
0.0
230
1.0
 40
0.9083744652357184
 41
0.6674062465670405
 42
2.671810903783109
  0
ELLIPSE
  5
168B50
330
18
100
AcDbEntity
  8
姿図
100
AcDbEllipse
 10
5543.706406833316
 20
-7002.446544393603
 30
0.0000000000000013
 11
0.0388432112209607
 21
0.0542626955743772
 31
0.0
210
0.0
220
0.0
230
1.0
 40
0.9083744652357184
 41
0.667406246567148
 42
2.671810903783036
  0
ELLIPSE
  5
168B51
330
18
100
AcDbEntity
  8
姿図
100
AcDbEllipse
 10
5543.706406833316
 20
-7003.091131470412
 30
0.0000000000000013
 11
0.0388432112209607
 21
0.0542626955743772
 31
0.0
210
0.0
220
0.0
230
1.0
 40
0.9083744652357184
 41
0.6674062465670242
 42
2.671810903782961
  0
LINE
  5
168B52
330
18
100
AcDbEntity
  8
姿図
100
AcDbLine
 10
5542.946056841983
 20
-7003.264609773573
 30
0.0000000000000013
 11
5543.154089185658
 21
-7003.706647577685
 31
0.0000000000000013
  0
LINE
  5
168B53
330
18
100
AcDbEntity
  8
姿図
100
AcDbLine
 10
5543.09714041494
 20
-7003.803517690672
 30
0.0000000000000013
 11
5543.003005612701
 21
-7003.812326737389
 31
0.0000000000000013
  0
LINE
  5
168B54
330
18
100
AcDbEntity
  8
姿図
100
AcDbLine
 10
5543.09714041494
 20
-7003.158930613868
 30
0.0000000000000013
 11
5543.003005612701
 21
-7003.16773966059
 31
0.0000000000000013
  0
LINE
  5
168B55
330
18
100
AcDbEntity
  8
姿図
100
AcDbLine
 10
5542.946056841983
 20
-7002.620022696767
 30
0.0000000000000013
 11
5543.154089185658
 21
-7003.062060500885
 31
0.0000000000000013
  0
LINE
  5
168B56
330
18
100
AcDbEntity
  8
姿図
100
AcDbLine
 10
5543.09714041494
 20
-7002.514343537065
 30
0.0000000000000013
 11
5543.003005612701
 21
-7002.523152583788
 31
0.0000000000000013
  0
LINE
  5
168B57
330
18
100
AcDbEntity
  8
姿図
100
AcDbLine
 10
5542.946056841983
 20
-7001.975435619964
 30
0.0000000000000013
 11
5543.154089185658
 21
-7002.417473424085
 31
0.0000000000000013
  0
LINE
  5
168B58
330
18
100
AcDbEntity
  8
姿図
100
AcDbLine
 10
5543.09714041494
 20
-7001.869756460263
 30
0.0000000000000013
 11
5543.003005612701
 21
-7001.878565506982
 31
0.0000000000000013
  0
LINE
  5
168B59
330
18
100
AcDbEntity
  8
姿図
100
AcDbLine
 10
5542.946056841983
 20
-7007.132132234385
 30
0.0000000000000013
 11
5543.154089185658
 21
-7007.574170038502
 31
0.0000000000000013
  0
LINE
  5
168B5A
330
18
100
AcDbEntity
  8
姿図
100
AcDbLine
 10
5542.945392556978
 20
-7008.368729377179
 30
0.0000000000000013
 11
5542.946490334052
 21
-7008.422227497828
 31
0.0000000000000013
  0
LINE
  5
168B5B
330
18
100
AcDbEntity
  8
姿図
100
AcDbLine
 10
5543.09714041494
 20
-7008.315627228282
 30
0.0000000000000013
 11
5543.003005612701
 21
-7008.324436275012
 31
0.0000000000000013
  0
LINE
  5
168B5C
330
18
100
AcDbEntity
  8
姿図
100
AcDbLine
 10
5542.946056841983
 20
-7007.776719311187
 30
0.0000000000000013
 11
5543.154089185658
 21
-7008.218757115307
 31
0.0000000000000013
  0
LINE
  5
168B5D
330
18
100
AcDbEntity
  8
姿図
100
AcDbLine
 10
5543.09714041494
 20
-7007.671040151482
 30
0.0000000000000013
 11
5543.003005612701
 21
-7007.679849198206
 31
0.0000000000000013
  0
LINE
  5
168B5E
330
18
100
AcDbEntity
  8
姿図
100
AcDbLine
 10
5542.946056841983
 20
-7005.198371003975
 30
0.0000000000000013
 11
5543.154089185658
 21
-7005.640408808095
 31
0.0000000000000013
  0
LINE
  5
168B5F
330
18
100
AcDbEntity
  8
姿図
100
AcDbLine
 10
5543.09714041494
 20
-7007.026453074683
 30
0.0000000000000013
 11
5543.003005612701
 21
-7007.035262121402
 31
0.0000000000000013
  0
LINE
  5
168B60
330
18
100
AcDbEntity
  8
姿図
100
AcDbLine
 10
5542.946056841983
 20
-7006.487545157582
 30
0.0000000000000013
 11
5543.154089185658
 21
-7006.929582961697
 31
0.0000000000000013
  0
LINE
  5
168B61
330
18
100
AcDbEntity
  8
姿図
100
AcDbLine
 10
5543.09714041494
 20
-7006.381865997882
 30
0.0000000000000013
 11
5543.003005612701
 21
-7006.390675044603
 31
0.0000000000000013
  0
LINE
  5
168B62
330
18
100
AcDbEntity
  8
姿図
100
AcDbLine
 10
5542.946056841983
 20
-7005.842958080781
 30
0.0000000000000013
 11
5543.154089185658
 21
-7006.284995884897
 31
0.0000000000000013
  0
LINE
  5
168B63
330
18
100
AcDbEntity
  8
姿図
100
AcDbLine
 10
5543.09714041494
 20
-7005.73727892108
 30
0.0000000000000013
 11
5543.003005612701
 21
-7005.746087967802
 31
0.0000000000000013
  0
LINE
  5
168B64
330
18
100
AcDbEntity
  8
姿図
100
AcDbLine
 10
5543.09714041494
 20
-7005.092691844275
 30
0.0000000000000013
 11
5543.003005612701
 21
-7005.101500890994
 31
0.0000000000000013
  0
LINE
  5
168B65
330
18
100
AcDbEntity
  8
姿図
100
AcDbLine
 10
5542.946056841983
 20
-7004.553783927177
 30
0.0000000000000013
 11
5543.154089185658
 21
-7004.995821731295
 31
0.0000000000000013
  0
LINE
  5
168B66
330
18
100
AcDbEntity
  8
姿図
100
AcDbLine
 10
5543.09714041494
 20
-7004.448104767472
 30
0.0000000000000013
 11
5543.003005612701
 21
-7004.456913814194
 31
0.0000000000000013
  0
LINE
  5
168B67
330
18
100
AcDbEntity
  8
姿図
100
AcDbLine
 10
5542.946056841983
 20
-7003.909196850374
 30
0.0000000000000013
 11
5543.154089185658
 21
-7004.35123465449
 31
0.0000000000000013
  0
ELLIPSE
  5
168B68
330
18
100
AcDbEntity
  8
姿図
100
AcDbEllipse
 10
5543.003005612701
 20
-7008.388894982688
 30
0.0000000000000013
 11
0.038843211220956
 21
0.0542626955743806
 31
0.0
210
0.0
220
0.0
230
1.0
 40
0.9083744652357182
 41
0.6674062465666387
 42
1.830516517601721
  0
ELLIPSE
  5
168B69
330
18
100
AcDbEntity
  8
姿図
100
AcDbEllipse
 10
5543.097140414936
 20
-7008.251168520608
 30
0.0000000000000013
 11
0.038843211220958
 21
0.0542626955743726
 31
0.0
210
-0.0000000000000001
220
-0.0000000000000001
230
1.0
 40
0.9083744652357179
 41
3.808998900156778
 42
5.813403557372748
  0
ELLIPSE
  5
168B6A
330
18
100
AcDbEntity
  8
姿図
100
AcDbEllipse
 10
5543.003005612701
 20
-7007.744307905888
 30
0.0000000000000013
 11
0.038843211220956
 21
0.0542626955743806
 31
0.0
210
0.0
220
0.0
230
1.0
 40
0.9083744652357182
 41
0.6674062465669787
 42
2.671810903782914
  0
ELLIPSE
  5
168B6B
330
18
100
AcDbEntity
  8
姿図
100
AcDbEllipse
 10
5543.097140414936
 20
-7007.606581443802
 30
0.0000000000000013
 11
0.0388432112209593
 21
0.0542626955743744
 31
0.0
210
0.0
220
0.0
230
0.9999999999999998
 40
0.9083744652357179
 41
3.80899890015719
 42
5.813403557373379
  0
ELLIPSE
  5
168B6C
330
18
100
AcDbEntity
  8
姿図
100
AcDbEllipse
 10
5523.433684428189
 20
-6967.8875764553
 30
0.0000000000000013
 11
-19.80903705661221
 21
40.50803221510785
 31
-0.0000000000000025
210
0.0
220
0.0
230
0.9999999999999998
 40
0.0898112888334005
 41
3.072939992536941
 42
3.073177647634316
  0
ELLIPSE
  5
168B6D
330
18
100
AcDbEntity
  8
姿図
100
AcDbEllipse
 10
5543.003005612701
 20
-7007.099720829088
 30
0.0000000000000013
 11
0.038843211220956
 21
0.0542626955743806
 31
0.0
210
0.0
220
0.0
230
1.0
 40
0.9083744652357182
 41
0.6674062465666699
 42
2.67181090378284
  0
ELLIPSE
  5
168B6E
330
18
100
AcDbEntity
  8
姿図
100
AcDbEllipse
 10
5543.097140414936
 20
-7006.961994367
 30
0.0000000000000013
 11
0.0388432112209593
 21
0.0542626955743744
 31
0.0
210
0.0
220
0.0
230
0.9999999999999998
 40
0.9083744652357179
 41
3.808998900156781
 42
5.813403557372797
  0
ELLIPSE
  5
168B6F
330
18
100
AcDbEntity
  8
姿図
100
AcDbEllipse
 10
5543.003005612701
 20
-7006.455133752286
 30
0.0000000000000013
 11
0.038843211220956
 21
0.0542626955743806
 31
0.0
210
0.0
220
0.0
230
1.0
 40
0.9083744652357182
 41
0.6674062465669538
 42
2.67181090378289
  0
ELLIPSE
  5
168B70
330
18
100
AcDbEntity
  8
姿図
100
AcDbEllipse
 10
5543.097140414936
 20
-7006.3174072902
 30
0.0000000000000013
 11
0.0388432112209593
 21
0.0542626955743744
 31
0.0
210
0.0
220
0.0
230
0.9999999999999998
 40
0.9083744652357179
 41
3.808998900157066
 42
5.813403557373013
  0
ELLIPSE
  5
168B71
330
18
100
AcDbEntity
  8
姿図
100
AcDbEllipse
 10
5543.003005612701
 20
-7005.810546675481
 30
0.0000000000000013
 11
0.038843211220956
 21
0.0542626955743806
 31
0.0
210
0.0
220
0.0
230
1.0
 40
0.9083744652357182
 41
0.6674062465669787
 42
2.671810903782914
  0
ELLIPSE
  5
168B72
330
18
100
AcDbEntity
  8
姿図
100
AcDbEllipse
 10
5543.097140414936
 20
-7005.672820213397
 30
0.0000000000000013
 11
0.0388432112209593
 21
0.0542626955743744
 31
0.0
210
0.0
220
0.0
230
0.9999999999999998
 40
0.9083744652357179
 41
3.808998900156781
 42
5.813403557372797
  0
ELLIPSE
  5
168B73
330
18
100
AcDbEntity
  8
姿図
100
AcDbEllipse
 10
5543.003005612701
 20
-7005.165959598679
 30
0.0000000000000013
 11
0.038843211220956
 21
0.0542626955743806
 31
0.0
210
0.0
220
0.0
230
1.0
 40
0.9083744652357182
 41
0.6674062465668865
 42
2.671810903783139
  0
ELLIPSE
  5
168B74
330
18
100
AcDbEntity
  8
姿図
100
AcDbEllipse
 10
5543.097140414936
 20
-7005.028233136595
 30
0.0000000000000013
 11
0.0388432112209593
 21
0.0542626955743744
 31
0.0
210
0.0
220
0.0
230
0.9999999999999998
 40
0.9083744652357179
 41
3.808998900157258
 42
5.813403557372989
  0
ELLIPSE
  5
168B75
330
18
100
AcDbEntity
  8
姿図
100
AcDbEllipse
 10
5543.003005612701
 20
-7004.521372521875
 30
0.0000000000000013
 11
0.038843211220956
 21
0.0542626955743806
 31
0.0
210
0.0
220
0.0
230
1.0
 40
0.9083744652357182
 41
0.6674062465670783
 42
2.671810903783331
  0
ELLIPSE
  5
168B76
330
18
100
AcDbEntity
  8
姿図
100
AcDbEllipse
 10
5543.097140414936
 20
-7004.383646059794
 30
0.0000000000000013
 11
0.0388432112209593
 21
0.0542626955743744
 31
0.0
210
0.0
220
0.0
230
0.9999999999999998
 40
0.9083744652357179
 41
3.808998900157066
 42
5.813403557372797
  0
ELLIPSE
  5
168B77
330
18
100
AcDbEntity
  8
姿図
100
AcDbEllipse
 10
5543.003005612701
 20
-7003.876785445074
 30
0.0000000000000013
 11
0.038843211220956
 21
0.0542626955743806
 31
0.0
210
0.0
220
0.0
230
1.0
 40
0.9083744652357182
 41
0.6674062465670099
 42
2.671810903783261
  0
ELLIPSE
  5
168B78
330
18
100
AcDbEntity
  8
姿図
100
AcDbEllipse
 10
5543.097140414936
 20
-7003.739058982993
 30
0.0000000000000013
 11
0.0388432112209593
 21
0.0542626955743744
 31
0.0
210
0.0
220
0.0
230
0.9999999999999998
 40
0.9083744652357179
 41
3.808998900156622
 42
5.81340355737292
  0
ELLIPSE
  5
168B79
330
18
100
AcDbEntity
  8
姿図
100
AcDbEllipse
 10
5543.003005612701
 20
-7003.23219836827
 30
0.0000000000000013
 11
0.038843211220956
 21
0.0542626955743806
 31
0.0
210
0.0
220
0.0
230
1.0
 40
0.9083744652357182
 41
0.6674062465666947
 42
2.671810903783231
  0
ELLIPSE
  5
168B7A
330
18
100
AcDbEntity
  8
姿図
100
AcDbEllipse
 10
5543.097140414936
 20
-7003.094471906185
 30
0.0000000000000013
 11
0.0388432112209593
 21
0.0542626955743744
 31
0.0
210
0.0
220
0.0
230
0.9999999999999998
 40
0.9083744652357179
 41
3.808998900156781
 42
5.813403557372797
  0
ELLIPSE
  5
168B7B
330
18
100
AcDbEntity
  8
姿図
100
AcDbEllipse
 10
5543.003005612701
 20
-7002.587611291469
 30
0.0000000000000013
 11
0.038843211220956
 21
0.0542626955743806
 31
0.0
210
0.0
220
0.0
230
1.0
 40
0.9083744652357182
 41
0.6674062465668554
 42
2.671810903783082
  0
ELLIPSE
  5
168B7C
330
18
100
AcDbEntity
  8
姿図
100
AcDbEllipse
 10
5543.097140414936
 20
-7002.449884829383
 30
0.0000000000000013
 11
0.0388432112209593
 21
0.0542626955743744
 31
0.0
210
0.0
220
0.0
230
0.9999999999999998
 40
0.9083744652357179
 41
3.808998900156776
 42
5.813403557372797
  0
ELLIPSE
  5
168B7D
330
18
100
AcDbEntity
  8
姿図
100
AcDbEllipse
 10
5543.003005612701
 20
-7001.943024214665
 30
0.0000000000000013
 11
0.038843211220956
 21
0.0542626955743806
 31
0.0
210
0.0
220
0.0
230
1.0
 40
0.9083744652357182
 41
0.6674062465666902
 42
2.67181090378289
  0
ELLIPSE
  5
168B7E
330
18
100
AcDbEntity
  8
姿図
100
AcDbEllipse
 10
5543.097140414936
 20
-7001.805297752582
 30
0.0000000000000013
 11
0.0388432112209605
 21
0.0542626955743761
 31
0.0
210
0.0
220
0.0
230
0.9999999999999998
 40
0.9083744652357179
 41
3.808998900156911
 42
5.813403557372871
  0
LINE
  5
168B7F
330
18
100
AcDbEntity
  8
姿図
100
AcDbLine
 10
5543.706406833316
 20
-7003.671259839531
 30
0.0000000000000013
 11
5543.800541635556
 21
-7003.662450792806
 31
0.0000000000000013
  0
LINE
  5
168B80
330
18
100
AcDbEntity
  8
姿図
100
AcDbLine
 10
5543.706406833316
 20
-7001.737498609124
 30
0.0000000000000013
 11
5543.800541635556
 21
-7001.728689562401
 31
0.0000000000000013
  0
LINE
  5
168B81
330
18
100
AcDbEntity
  8
姿図
100
AcDbLine
 10
5543.706406833316
 20
-7002.382085685927
 30
0.0000000000000013
 11
5543.800541635556
 21
-7002.373276639207
 31
0.0000000000000013
  0
LINE
  5
168B82
330
18
100
AcDbEntity
  8
姿図
100
AcDbLine
 10
5543.706406833316
 20
-7003.026672762726
 30
0.0000000000000013
 11
5543.800541635556
 21
-7003.017863716005
 31
0.0000000000000013
  0
LINE
  5
168B83
330
18
100
AcDbEntity
  8
姿図
100
AcDbLine
 10
5543.706406833316
 20
-7007.538782300347
 30
0.0000000000000013
 11
5543.800541635556
 21
-7007.529973253624
 31
0.0000000000000013
  0
LINE
  5
168B84
330
18
100
AcDbEntity
  8
姿図
100
AcDbLine
 10
5543.706406833316
 20
-7008.183369377149
 30
0.0000000000000013
 11
5543.800541635556
 21
-7008.17456033043
 31
0.0000000000000013
  0
LINE
  5
168B85
330
18
100
AcDbEntity
  8
姿図
100
AcDbLine
 10
5543.706406833316
 20
-7005.605021069936
 30
0.0000000000000013
 11
5543.800541635556
 21
-7005.596212023217
 31
0.0000000000000013
  0
LINE
  5
168B86
330
18
100
AcDbEntity
  8
姿図
100
AcDbLine
 10
5543.706406833316
 20
-7006.249608146738
 30
0.0000000000000013
 11
5543.800541635556
 21
-7006.240799100019
 31
0.0000000000000013
  0
LINE
  5
168B87
330
18
100
AcDbEntity
  8
姿図
100
AcDbLine
 10
5543.706406833316
 20
-7006.894195223543
 30
0.0000000000000013
 11
5543.800541635556
 21
-7006.885386176818
 31
0.0000000000000013
  0
LINE
  5
168B88
330
18
100
AcDbEntity
  8
姿図
100
AcDbLine
 10
5543.706406833316
 20
-7004.315846916333
 30
0.0000000000000013
 11
5543.800541635556
 21
-7004.307037869613
 31
0.0000000000000013
  0
LINE
  5
168B89
330
18
100
AcDbEntity
  8
姿図
100
AcDbLine
 10
5543.706406833316
 20
-7004.960433993137
 30
0.0000000000000013
 11
5543.800541635556
 21
-7004.951624946414
 31
0.0000000000000013
  0
ELLIPSE
  5
168B8A
330
18
100
AcDbEntity
  8
姿図
100
AcDbEllipse
 10
5543.800541635553
 20
-7007.465514545945
 30
0.0000000000000013
 11
0.0388432112209539
 21
0.0542626955743783
 31
0.0
210
0.0
220
0.0
230
1.0
 40
0.9083744652357182
 41
3.808998900157078
 42
5.813403557373098
  0
ELLIPSE
  5
168B8B
330
18
100
AcDbEntity
  8
姿図
100
AcDbEllipse
 10
5543.800541635553
 20
-7008.110101622744
 30
0.0000000000000013
 11
0.0388432112209539
 21
0.0542626955743783
 31
0.0
210
0.0
220
0.0
230
1.0
 40
0.9083744652357182
 41
3.808998900156705
 42
5.813403557372962
  0
ELLIPSE
  5
168B8C
330
18
100
AcDbEntity
  8
姿図
100
AcDbEllipse
 10
5543.800541635553
 20
-7005.531753315533
 30
0.0000000000000013
 11
0.0388432112209539
 21
0.0542626955743783
 31
0.0
210
0.0
220
0.0
230
1.0
 40
0.9083744652357182
 41
3.808998900156737
 42
5.813403557372994
  0
ELLIPSE
  5
168B8D
330
18
100
AcDbEntity
  8
姿図
100
AcDbEllipse
 10
5543.800541635553
 20
-7006.176340392333
 30
0.0000000000000013
 11
0.0388432112209539
 21
0.0542626955743783
 31
0.0
210
0.0
220
0.0
230
1.0
 40
0.9083744652357182
 41
3.808998900157021
 42
5.813403557372752
  0
ELLIPSE
  5
168B8E
330
18
100
AcDbEntity
  8
姿図
100
AcDbEllipse
 10
5543.800541635553
 20
-7006.820927469144
 30
0.0000000000000013
 11
0.0388432112209539
 21
0.0542626955743783
 31
0.0
210
0.0
220
0.0
230
1.0
 40
0.9083744652357182
 41
3.808998900156638
 42
5.813403557372579
  0
ELLIPSE
  5
168B8F
330
18
100
AcDbEntity
  8
姿図
100
AcDbEllipse
 10
5543.800541635553
 20
-7003.59799208513
 30
0.0000000000000013
 11
0.0388432112209539
 21
0.0542626955743783
 31
0.0
210
0.0
220
0.0
230
1.0
 40
0.9083744652357182
 41
3.808998900156421
 42
5.813403557372647
  0
ELLIPSE
  5
168B90
330
18
100
AcDbEntity
  8
姿図
100
AcDbEllipse
 10
5543.800541635553
 20
-7004.242579161931
 30
0.0000000000000013
 11
0.0388432112209539
 21
0.0542626955743783
 31
0.0
210
0.0
220
0.0
230
1.0
 40
0.9083744652357182
 41
3.808998900156578
 42
5.813403557372802
  0
ELLIPSE
  5
168B91
330
18
100
AcDbEntity
  8
姿図
100
AcDbEllipse
 10
5543.800541635553
 20
-7004.887166238733
 30
0.0000000000000013
 11
0.0388432112209539
 21
0.0542626955743783
 31
0.0
210
0.0
220
0.0
230
1.0
 40
0.9083744652357182
 41
3.808998900157021
 42
5.813403557373044
  0
ELLIPSE
  5
168B92
330
18
100
AcDbEntity
  8
姿図
100
AcDbEllipse
 10
5543.800541635553
 20
-7001.664230854721
 30
0.0000000000000013
 11
0.038843211220955
 21
0.05426269557438
 31
0.0
210
0.0000000000000001
220
0.0000000000000001
230
1.0
 40
0.9083744652357182
 41
3.808998900156863
 42
5.813403557372727
  0
ELLIPSE
  5
168B93
330
18
100
AcDbEntity
  8
姿図
100
AcDbEllipse
 10
5543.800541635553
 20
-7002.308817931525
 30
0.0000000000000013
 11
0.038843211220955
 21
0.05426269557438
 31
0.0
210
0.0000000000000001
220
0.0000000000000001
230
1.0
 40
0.9083744652357182
 41
3.808998900156511
 42
5.813403557373049
  0
ELLIPSE
  5
168B94
330
18
100
AcDbEntity
  8
姿図
100
AcDbEllipse
 10
5543.800541635553
 20
-7002.953405008327
 30
0.0000000000000013
 11
0.0388432112209539
 21
0.0542626955743783
 31
0.0
210
0.0
220
0.0
230
1.0
 40
0.9083744652357182
 41
3.808998900156478
 42
5.813403557372703
  0
LINE
  5
168B95
330
18
100
AcDbEntity
  8
姿図
100
AcDbLine
 10
5539.675280133923
 20
-7004.930658084233
 30
0.0000000000000013
 11
5539.186065465302
 21
-7004.976438335218
 31
0.0000000000000013
  0
ELLIPSE
  5
168B96
330
18
100
AcDbEntity
  8
姿図
100
AcDbEllipse
 10
5522.294928011995
 20
-6999.000808352682
 30
0.0000000000000013
 11
11.53937528561558
 21
32.62347191877432
 31
0.0
210
0.0
220
0.0
230
1.0
 40
0.5306663220532383
 41
4.635006625735985
 42
4.718323401449882
  0
ELLIPSE
  5
168B97
330
18
100
AcDbEntity
  8
姿図
100
AcDbEllipse
 10
5522.881554202909
 20
-6996.254413684262
 30
0.0000000000000013
 11
11.52422002329553
 21
32.58550975387643
 31
0.0000000000000038
210
0.0
220
-0.0000000000000001
230
1.0
 40
0.5306015190202692
 41
4.552834753258026
 42
4.631677754451532
  0
LINE
  5
168B98
330
18
100
AcDbEntity
  8
姿図
100
AcDbLine
 10
5541.077698200916
 20
-7003.647101653126
 30
0.0000000000000013
 11
5540.983563398676
 21
-7003.655910699845
 31
0.0000000000000013
  0
LINE
  5
168B99
330
18
100
AcDbEntity
  8
姿図
100
AcDbLine
 10
5541.077698200916
 20
-7003.002514576317
 30
0.0000000000000013
 11
5540.983563398676
 21
-7003.011323623041
 31
0.0000000000000013
  0
LINE
  5
168B9A
330
18
100
AcDbEntity
  8
姿図
100
AcDbLine
 10
5541.077698200916
 20
-7002.357927499516
 30
0.0000000000000013
 11
5540.983563398676
 21
-7002.366736546237
 31
0.0000000000000013
  0
LINE
  5
168B9B
330
18
100
AcDbEntity
  8
姿図
100
AcDbLine
 10
5541.077698200916
 20
-7001.713340422714
 30
0.0000000000000013
 11
5540.983563398676
 21
-7001.722149469435
 31
0.0000000000000013
  0
LINE
  5
168B9C
330
18
100
AcDbEntity
  8
姿図
100
AcDbLine
 10
5541.077698200916
 20
-7008.159211190738
 30
0.0000000000000013
 11
5540.983563398676
 21
-7008.168020237459
 31
0.0000000000000013
  0
LINE
  5
168B9D
330
18
100
AcDbEntity
  8
姿図
100
AcDbLine
 10
5541.077698200916
 20
-7007.514624113937
 30
0.0000000000000013
 11
5540.983563398676
 21
-7007.523433160658
 31
0.0000000000000013
  0
LINE
  5
168B9E
330
18
100
AcDbEntity
  8
姿図
100
AcDbLine
 10
5541.077698200916
 20
-7006.870037037133
 30
0.0000000000000013
 11
5540.983563398676
 21
-7006.878846083857
 31
0.0000000000000013
  0
LINE
  5
168B9F
330
18
100
AcDbEntity
  8
姿図
100
AcDbLine
 10
5541.077698200916
 20
-7006.22544996033
 30
0.0000000000000013
 11
5540.983563398676
 21
-7006.234259007054
 31
0.0000000000000013
  0
LINE
  5
168BA0
330
18
100
AcDbEntity
  8
姿図
100
AcDbLine
 10
5541.077698200916
 20
-7005.580862883528
 30
0.0000000000000013
 11
5540.983563398676
 21
-7005.589671930252
 31
0.0000000000000013
  0
LINE
  5
168BA1
330
18
100
AcDbEntity
  8
姿図
100
AcDbLine
 10
5541.077698200916
 20
-7004.936275806726
 30
0.0000000000000013
 11
5540.983563398676
 21
-7004.945084853448
 31
0.0000000000000013
  0
LINE
  5
168BA2
330
18
100
AcDbEntity
  8
姿図
100
AcDbLine
 10
5541.077698200916
 20
-7004.291688729927
 30
0.0000000000000013
 11
5540.983563398676
 21
-7004.300497776646
 31
0.0000000000000013
  0
ELLIPSE
  5
168BA3
330
18
100
AcDbEntity
  8
姿図
100
AcDbEllipse
 10
5540.983563398675
 20
-7008.232478945143
 30
0.0000000000000013
 11
0.0388432112209556
 21
0.0542626955743808
 31
0.0
210
0.0
220
0.0
230
1.0
 40
0.9083744652357193
 41
0.6674062465669472
 42
2.671810903782884
  0
ELLIPSE
  5
168BA4
330
18
100
AcDbEntity
  8
姿図
100
AcDbEllipse
 10
5540.983563398675
 20
-7007.587891868341
 30
0.0000000000000013
 11
0.0388432112209556
 21
0.0542626955743808
 31
0.0
210
0.0
220
0.0
230
1.0
 40
0.9083744652357193
 41
0.6674062465665955
 42
2.671810903782767
  0
ELLIPSE
  5
168BA5
330
18
100
AcDbEntity
  8
姿図
100
AcDbEllipse
 10
5540.983563398675
 20
-7006.943304791538
 30
0.0000000000000013
 11
0.0388432112209556
 21
0.0542626955743808
 31
0.0
210
0.0
220
0.0
230
1.0
 40
0.9083744652357193
 41
0.6674062465671594
 42
2.671810903782743
  0
ELLIPSE
  5
168BA6
330
18
100
AcDbEntity
  8
姿図
100
AcDbEllipse
 10
5540.983563398675
 20
-7006.298717714732
 30
0.0000000000000013
 11
0.0388432112209556
 21
0.0542626955743808
 31
0.0
210
0.0
220
0.0
230
1.0
 40
0.9083744652357193
 41
0.6674062465669472
 42
2.67181090378281
  0
ELLIPSE
  5
168BA7
330
18
100
AcDbEntity
  8
姿図
100
AcDbEllipse
 10
5540.983563398675
 20
-7005.654130637933
 30
0.0000000000000013
 11
0.0388432112209556
 21
0.0542626955743808
 31
0.0
210
0.0
220
0.0
230
1.0
 40
0.9083744652357193
 41
0.6674062465673514
 42
2.671810903782982
  0
ELLIPSE
  5
168BA8
330
18
100
AcDbEntity
  8
姿図
100
AcDbEllipse
 10
5540.983563398675
 20
-7005.009543561127
 30
0.0000000000000013
 11
0.0388432112209556
 21
0.0542626955743808
 31
0.0
210
0.0
220
0.0
230
1.0
 40
0.9083744652357193
 41
0.6674062465669721
 42
2.671810903782982
  0
ELLIPSE
  5
168BA9
330
18
100
AcDbEntity
  8
姿図
100
AcDbEllipse
 10
5540.983563398675
 20
-7004.364956484325
 30
0.0000000000000013
 11
0.0388432112209556
 21
0.0542626955743808
 31
0.0
210
0.0
220
0.0
230
1.0
 40
0.9083744652357193
 41
0.667406246567283
 42
2.671810903782914
  0
ELLIPSE
  5
168BAA
330
18
100
AcDbEntity
  8
姿図
100
AcDbEllipse
 10
5540.983563398675
 20
-7003.720369407526
 30
0.0000000000000013
 11
0.0388432112209556
 21
0.0542626955743808
 31
0.0
210
0.0
220
0.0
230
1.0
 40
0.9083744652357193
 41
0.6674062465668797
 42
2.671810903782743
  0
ELLIPSE
  5
168BAB
330
18
100
AcDbEntity
  8
姿図
100
AcDbEllipse
 10
5540.983563398675
 20
-7003.075782330721
 30
0.0000000000000013
 11
0.0388432112209556
 21
0.0542626955743808
 31
0.0
210
0.0
220
0.0
230
1.0
 40
0.9083744652357193
 41
0.6674062465670032
 42
2.671810903782914
  0
ELLIPSE
  5
168BAC
330
18
100
AcDbEntity
  8
姿図
100
AcDbEllipse
 10
5540.983563398675
 20
-7002.431195253918
 30
0.0000000000000013
 11
0.0388432112209556
 21
0.0542626955743808
 31
0.0
210
0.0
220
0.0
230
1.0
 40
0.9083744652357193
 41
0.6674062465670032
 42
2.671810903782865
  0
ELLIPSE
  5
168BAD
330
18
100
AcDbEntity
  8
姿図
100
AcDbEllipse
 10
5540.983563398675
 20
-7001.786608177119
 30
0.0000000000000013
 11
0.0388432112209556
 21
0.0542626955743808
 31
0.0
210
0.0
220
0.0
230
1.0
 40
0.9083744652357193
 41
0.6674062465668797
 42
2.671810903783108
  0
ELLIPSE
  5
168BAE
330
18
100
AcDbEntity
  8
姿図
100
AcDbEllipse
 10
5522.576676645998
 20
-7008.091833388407
 30
0.0000000000000013
 11
-21.01285829126131
 21
-0.0000000000006031
 31
0.0000000000000012
210
0.0000000000000001
220
0.0
230
1.0
 40
0.2588190451025202
 41
3.729026483883834
 42
3.761863642495803
  0
LINE
  5
168BAF
330
18
100
AcDbEntity
  8
姿図
100
AcDbLine
 10
5540.926614627957
 20
-7008.264890350443
 30
0.0000000000000013
 11
5541.134646971634
 21
-7008.706928154561
 31
0.0000000000000013
  0
LINE
  5
168BB0
330
18
100
AcDbEntity
  8
姿図
100
AcDbLine
 10
5540.926614627957
 20
-7003.108193736022
 30
0.0000000000000013
 11
5541.134646971634
 21
-7003.550231540142
 31
0.0000000000000013
  0
LINE
  5
168BB1
330
18
100
AcDbEntity
  8
姿図
100
AcDbLine
 10
5540.926614627957
 20
-7003.752780812823
 30
0.0000000000000013
 11
5541.134646971634
 21
-7004.194818616942
 31
0.0000000000000013
  0
LINE
  5
168BB2
330
18
100
AcDbEntity
  8
姿図
100
AcDbLine
 10
5540.926614627957
 20
-7002.463606659218
 30
0.0000000000000013
 11
5541.134646971634
 21
-7002.905644463343
 31
0.0000000000000013
  0
LINE
  5
168BB3
330
18
100
AcDbEntity
  8
姿図
100
AcDbLine
 10
5540.926614627957
 20
-7001.81901958242
 30
0.0000000000000013
 11
5541.134646971634
 21
-7002.261057386537
 31
0.0000000000000013
  0
LINE
  5
168BB4
330
18
100
AcDbEntity
  8
姿図
100
AcDbLine
 10
5540.926614627957
 20
-7006.975716196835
 30
0.0000000000000013
 11
5541.134646971634
 21
-7007.417754000956
 31
0.0000000000000013
  0
LINE
  5
168BB5
330
18
100
AcDbEntity
  8
姿図
100
AcDbLine
 10
5540.926614627957
 20
-7007.620303273637
 30
0.0000000000000013
 11
5541.134646971634
 21
-7008.06234107776
 31
0.0000000000000013
  0
LINE
  5
168BB6
330
18
100
AcDbEntity
  8
姿図
100
AcDbLine
 10
5540.926614627957
 20
-7005.041954966429
 30
0.0000000000000013
 11
5541.134646971634
 21
-7005.483992770549
 31
0.0000000000000013
  0
LINE
  5
168BB7
330
18
100
AcDbEntity
  8
姿図
100
AcDbLine
 10
5540.926614627957
 20
-7006.331129120032
 30
0.0000000000000013
 11
5541.134646971634
 21
-7006.773166924155
 31
0.0000000000000013
  0
LINE
  5
168BB8
330
18
100
AcDbEntity
  8
姿図
100
AcDbLine
 10
5540.926614627957
 20
-7005.686542043233
 30
0.0000000000000013
 11
5541.134646971634
 21
-7006.128579847353
 31
0.0000000000000013
  0
LINE
  5
168BB9
330
18
100
AcDbEntity
  8
姿図
100
AcDbLine
 10
5540.926614627957
 20
-7004.397367889627
 30
0.0000000000000013
 11
5541.134646971634
 21
-7004.839405693743
 31
0.0000000000000013
  0
ELLIPSE
  5
168BBA
330
18
100
AcDbEntity
  8
姿図
100
AcDbEllipse
 10
5541.077698200916
 20
-7008.094752483064
 30
0.0000000000000013
 11
0.0388432112209577
 21
0.0542626955743728
 31
0.0
210
0.0
220
0.0
230
1.0
 40
0.9083744652357186
 41
3.80899890015658
 42
5.813403557372884
  0
ELLIPSE
  5
168BBB
330
18
100
AcDbEntity
  8
姿図
100
AcDbEllipse
 10
5541.077698200916
 20
-7007.450165406258
 30
0.0000000000000013
 11
0.0388432112209577
 21
0.0542626955743728
 31
0.0
210
0.0
220
0.0
230
1.0
 40
0.9083744652357186
 41
3.808998900156896
 42
5.813403557372915
  0
ELLIPSE
  5
168BBC
330
18
100
AcDbEntity
  8
姿図
100
AcDbEllipse
 10
5541.077698200916
 20
-7006.805578329452
 30
0.0000000000000013
 11
0.0388432112209577
 21
0.0542626955743728
 31
0.0
210
0.0
220
0.0
230
1.0
 40
0.9083744652357186
 41
3.808998900156772
 42
5.813403557372793
  0
ELLIPSE
  5
168BBD
330
18
100
AcDbEntity
  8
姿図
100
AcDbEllipse
 10
5541.077698200916
 20
-7006.160991252653
 30
0.0000000000000013
 11
0.0388432112209589
 21
0.0542626955743747
 31
0.0
210
0.0
220
0.0
230
0.9999999999999998
 40
0.9083744652357184
 41
3.808998900156933
 42
5.813403557373268
  0
ELLIPSE
  5
168BBE
330
18
100
AcDbEntity
  8
姿図
100
AcDbEllipse
 10
5541.077698200916
 20
-7005.516404175853
 30
0.0000000000000013
 11
0.0388432112209589
 21
0.0542626955743747
 31
0.0
210
0.0
220
0.0
230
0.9999999999999998
 40
0.9083744652357184
 41
3.808998900156451
 42
5.813403557372759
  0
ELLIPSE
  5
168BBF
330
18
100
AcDbEntity
  8
姿図
100
AcDbEllipse
 10
5541.077698200916
 20
-7004.871817099044
 30
0.0000000000000013
 11
0.0388432112209589
 21
0.0542626955743747
 31
0.0
210
0.0
220
0.0
230
0.9999999999999998
 40
0.9083744652357184
 41
3.808998900156964
 42
5.813403557372934
  0
ELLIPSE
  5
168BC0
330
18
100
AcDbEntity
  8
姿図
100
AcDbEllipse
 10
5541.077698200916
 20
-7004.227230022242
 30
0.0000000000000013
 11
0.0388432112209589
 21
0.0542626955743747
 31
0.0
210
0.0
220
0.0
230
0.9999999999999998
 40
0.9083744652357184
 41
3.808998900157051
 42
5.813403557372793
  0
ELLIPSE
  5
168BC1
330
18
100
AcDbEntity
  8
姿図
100
AcDbEllipse
 10
5541.077698200916
 20
-7003.582642945443
 30
0.0000000000000013
 11
0.0388432112209589
 21
0.0542626955743747
 31
0.0
210
0.0
220
0.0
230
0.9999999999999998
 40
0.9083744652357184
 41
3.808998900156896
 42
5.813403557372867
  0
ELLIPSE
  5
168BC2
330
18
100
AcDbEntity
  8
姿図
100
AcDbEllipse
 10
5541.077698200916
 20
-7002.938055868643
 30
0.0000000000000013
 11
0.0388432112209589
 21
0.0542626955743747
 31
0.0
210
0.0
220
0.0
230
0.9999999999999998
 40
0.9083744652357184
 41
3.808998900157176
 42
5.813403557372915
  0
ELLIPSE
  5
168BC3
330
18
100
AcDbEntity
  8
姿図
100
AcDbEllipse
 10
5541.077698200916
 20
-7002.293468791839
 30
0.0000000000000013
 11
0.0388432112209589
 21
0.0542626955743747
 31
0.0
210
0.0
220
0.0
230
0.9999999999999998
 40
0.9083744652357184
 41
3.808998900156741
 42
5.813403557372713
  0
ELLIPSE
  5
168BC4
330
18
100
AcDbEntity
  8
姿図
100
AcDbEllipse
 10
5541.077698200916
 20
-7001.648881715036
 30
0.0000000000000013
 11
0.0388432112209589
 21
0.0542626955743747
 31
0.0
210
0.0
220
0.0
230
0.9999999999999998
 40
0.9083744652357184
 41
3.808998900156483
 42
5.813403557372793
  0
ELLIPSE
  5
168BC5
330
18
100
AcDbEntity
  8
姿図
100
AcDbEllipse
 10
5541.78109942153
 20
-7001.507814817175
 30
0.0000000000000013
 11
0.0388432112209539
 21
0.0542626955743783
 31
0.0
210
0.0
220
0.0
230
1.0
 40
0.9083744652357182
 41
3.808998900156912
 42
5.813403557372653
  0
ELLIPSE
  5
168BC6
330
18
100
AcDbEntity
  8
姿図
100
AcDbEllipse
 10
5543.706406833316
 20
-7001.15737024
 30
0.0000000000000013
 11
0.0388432112209717
 21
0.0542626955743927
 31
0.0
210
0.0
220
0.0
230
1.0
 40
0.9083744652357184
 41
0.667406246567264
 42
2.671810903783431
  0
LINE
  5
168BC7
330
18
100
AcDbEntity
  8
姿図
100
AcDbLine
 10
5543.09714041494
 20
-7001.225169383461
 30
0.0000000000000013
 11
5543.003005612701
 21
-7001.23397843018
 31
0.0000000000000013
  0
ELLIPSE
  5
168BC8
330
18
100
AcDbEntity
  8
姿図
100
AcDbEllipse
 10
5543.003005612701
 20
-7001.298437137862
 30
0.0000000000000013
 11
0.038843211220967
 21
0.054262695574396
 31
0.0
210
0.0
220
0.0
230
1.0
 40
0.9083744652357179
 41
0.6674062465670622
 42
2.67181090378318
  0
ELLIPSE
  5
168BC9
330
18
100
AcDbEntity
  8
姿図
100
AcDbEllipse
 10
5543.097140414936
 20
-7001.160710675783
 30
0.0000000000000013
 11
0.0388432112209605
 21
0.0542626955743761
 31
0.0
210
0.0
220
0.0
230
0.9999999999999998
 40
0.9083744652357179
 41
3.80899890015716
 42
5.813403557372793
  0
LINE
  5
168BCA
330
18
100
AcDbEntity
  8
姿図
100
AcDbLine
 10
5543.706406833316
 20
-7001.092911532321
 30
0.0000000000000013
 11
5543.800541635556
 21
-7001.084102485595
 31
0.0000000000000013
  0
LINE
  5
168BCB
330
18
100
AcDbEntity
  8
姿図
100
AcDbLine
 10
5541.077698200916
 20
-7001.068753345913
 30
0.0000000000000013
 11
5540.983563398676
 21
-7001.077562392635
 31
0.0000000000000013
  0
ELLIPSE
  5
168BCC
330
18
100
AcDbEntity
  8
姿図
100
AcDbEllipse
 10
5540.983563398675
 20
-7001.142021100311
 30
0.0000000000000013
 11
0.0388432112209556
 21
0.0542626955743808
 31
0.0
210
0.0
220
0.0
230
1.0
 40
0.9083744652357193
 41
0.6674062465669472
 42
2.671810903782859
  0
ELLIPSE
  5
168BCD
330
18
100
AcDbEntity
  8
姿図
100
AcDbEllipse
 10
5535.802634239775
 20
-7008.703151579124
 30
0.0000000000000013
 11
-0.1273458545886664
 21
0.4146471030314783
 31
0.0
210
0.0
220
-0.0000000000000001
230
1.0
 40
0.7386189460394768
 41
4.318335530375433
 42
5.623669093019633
  0
ELLIPSE
  5
168BCE
330
18
100
AcDbEntity
  8
姿図
100
AcDbEllipse
 10
5535.802634239775
 20
-7008.703151579124
 30
0.0000000000000013
 11
-0.1273458545886664
 21
0.4146471030314783
 31
0.0
210
0.0
220
-0.0000000000000001
230
1.0
 40
0.7386189460394768
 41
3.822881783457571
 42
4.318335530375472
  0
LINE
  5
168BCF
330
18
100
AcDbEntity
  8
姿図
100
AcDbLine
 10
5542.057596265661
 20
-7009.454448836571
 30
0.0000000000000013
 11
5542.124842010609
 21
-6999.317936220371
 31
0.0000000000000013
  0
LINE
  5
168BD0
330
18
100
AcDbEntity
  8
姿図
100
AcDbLine
 10
5540.058987760344
 20
-7004.868419777473
 30
0.0000000000000013
 11
5540.105399796585
 21
-6997.872346029218
 31
0.0000000000000013
  0
LINE
  5
168BD1
330
18
100
AcDbEntity
  8
姿図
100
AcDbLine
 10
5541.83804819225
 20
-7001.475403411871
 30
0.0000000000000013
 11
5541.630015848575
 21
-7001.033365607757
 31
0.0000000000000013
  0
ELLIPSE
  5
168BD2
330
18
100
AcDbEntity
  8
姿図
100
AcDbEllipse
 10
5543.800541635553
 20
-7001.01964377792
 30
0.0000000000000013
 11
0.038843211220955
 21
0.05426269557438
 31
0.0
210
0.0000000000000001
220
0.0000000000000001
230
1.0
 40
0.9083744652357182
 41
3.808998900156461
 42
5.813403557372752
  0
LINE
  5
168BD3
330
18
100
AcDbEntity
  8
姿図
100
AcDbLine
 10
5542.946056841983
 20
-7000.686261466363
 30
0.0000000000000013
 11
5543.154089185658
 21
-7001.12829927048
 31
0.0000000000000013
  0
ELLIPSE
  5
168BD4
330
18
100
AcDbEntity
  8
姿図
100
AcDbEllipse
 10
5541.077698200916
 20
-7001.00429463823
 30
0.0000000000000013
 11
0.0388432112209589
 21
0.0542626955743747
 31
0.0
210
0.0
220
0.0
230
0.9999999999999998
 40
0.9083744652357184
 41
3.80899890015655
 42
5.813403557372809
  0
LINE
  5
168BD5
330
18
100
AcDbEntity
  8
姿図
100
AcDbLine
 10
5513.677776650216
 20
-7000.442570118633
 30
0.0000000000000013
 11
5513.854568115486
 21
-7000.569123880014
 31
0.0000000000000013
  0
ELLIPSE
  5
168BD6
330
18
100
AcDbEntity
  8
姿図
100
AcDbEllipse
 10
5522.576676645998
 20
-7005.35233831199
 30
0.0000000000000013
 11
-20.95344975293549
 21
-0.0000000000000401
 31
0.0000000000000023
210
0.0000000000000001
220
0.0
230
1.0
 40
0.2588190451025204
 41
5.151017883384803
 42
5.195965363531555
  0
LINE
  5
168BD7
330
18
100
AcDbEntity
  8
姿図
100
AcDbLine
 10
5518.537688217968
 20
-7000.200483644028
 30
0.0000000000000013
 11
5518.406317275418
 21
-7000.106443544915
 31
0.0000000000000013
  0
ELLIPSE
  5
168BD8
330
18
100
AcDbEntity
  8
姿図
100
AcDbEllipse
 10
5522.576676645998
 20
-7005.35233831199
 30
0.0000000000000013
 11
-20.95344975293549
 21
-0.0000000000000401
 31
0.0000000000000023
210
0.0000000000000001
220
0.0
230
1.0
 40
0.2588190451025204
 41
4.922687502237706
 42
4.96763498238446
  0
ELLIPSE
  5
168BD9
330
18
100
AcDbEntity
  8
姿図
100
AcDbEllipse
 10
5518.345494314847
 20
-7000.473244652558
 30
0.0000000000000013
 11
-0.1817624353723096
 21
-0.2798765934127235
 31
-0.0000000000000001
210
-0.0000000000000001
220
-0.0000000000000001
230
0.9999999999999998
 40
0.9139391364489759
 41
3.038071040901396
 42
3.100190541308246
  0
LINE
  5
168BDA
330
18
100
AcDbEntity
  8
姿図
100
AcDbLine
 10
5502.46966129107
 20
-7000.956339530832
 30
0.0000000000000013
 11
5501.66679598894
 21
-7001.031470914651
 31
0.0000000000000013
  0
ELLIPSE
  5
168BDB
330
18
100
AcDbEntity
  8
姿図
100
AcDbEllipse
 10
5522.576676645998
 20
-7007.608393080805
 30
0.0000000000000013
 11
-21.00237443155676
 21
-0.0000000000006022
 31
0.0000000000000012
210
0.0000000000000001
220
0.0
230
1.0
 40
0.2588190451025204
 41
4.967849174573729
 42
5.150803691193217
  0
ELLIPSE
  5
168BDC
330
18
100
AcDbEntity
  8
姿図
100
AcDbEllipse
 10
5515.611018515961
 20
-7007.778818239772
 30
0.0000000000000013
 11
0.2362911659839566
 21
0.3638395714365712
 31
0.0
210
-0.0000000000000001
220
-0.0000000000000001
230
1.0
 40
0.9139391364489741
 41
0.6260041342852542
 42
2.752838026093648
  0
ELLIPSE
  5
168BDD
330
18
100
AcDbEntity
  8
姿図
100
AcDbEllipse
 10
5515.611018515961
 20
-7007.778818239772
 30
0.0000000000000013
 11
0.2362911659839566
 21
0.3638395714365712
 31
0.0
210
-0.0000000000000001
220
-0.0000000000000001
230
1.0
 40
0.9139391364489741
 41
0.2886548266583326
 42
0.6260041342852678
  0
LINE
  5
168BDE
330
18
100
AcDbEntity
  8
姿図
100
AcDbLine
 10
5502.325110060773
 20
-7001.407790195677
 30
0.0000000000000013
 11
5502.379471264249
 21
-7009.591934153096
 31
0.0000000000000013
  0
ELLIPSE
  5
168BDF
330
18
100
AcDbEntity
  8
姿図
100
AcDbEllipse
 10
5502.82429802379
 20
-7001.765127096859
 30
0.0000000000000013
 11
0.0601042818412164
 21
-0.5975910098000781
 31
0.0
210
0.0
220
0.0
230
0.9999999999999998
 40
0.3266547503873695
 41
1.290961286430747
 42
2.861757613225721
  0
LINE
  5
168BE0
330
18
100
AcDbEntity
  8
姿図
100
AcDbLine
 10
5501.513950144002
 20
-7001.617391261483
 30
0.0000000000000013
 11
5501.514837619084
 21
-7001.483614732683
 31
0.0000000000000013
  0
LINE
  5
168BE1
330
18
100
AcDbEntity
  8
姿図
100
AcDbLine
 10
5503.315305099749
 20
-7008.723897873114
 30
0.0000000000000013
 11
5503.523337443422
 21
-7008.24292512482
 31
0.0000000000000013
  0
LINE
  5
168BE2
330
18
100
AcDbEntity
  8
姿図
100
AcDbLine
 10
5503.466388672704
 20
-7008.801300514012
 30
0.0000000000000013
 11
5503.372253870468
 21
-7008.810109560733
 31
0.0000000000000013
  0
LINE
  5
168BE3
330
18
100
AcDbEntity
  8
姿図
100
AcDbLine
 10
5503.333410659245
 20
-7008.799913548627
 30
0.0000000000000013
 11
5503.431998937164
 21
-7008.870486623973
 31
0.0000000000000013
  0
LINE
  5
168BE4
330
18
100
AcDbEntity
  8
姿図
100
AcDbLine
 10
5503.315305099749
 20
-7003.567201258697
 30
0.0000000000000013
 11
5503.533392358027
 21
-7003.062981452632
 31
0.0000000000000013
  0
LINE
  5
168BE5
330
18
100
AcDbEntity
  8
姿図
100
AcDbLine
 10
5503.466388672704
 20
-7003.644603899591
 30
0.0000000000000013
 11
5503.372253870468
 21
-7003.65341294631
 31
0.0000000000000013
  0
LINE
  5
168BE6
330
18
100
AcDbEntity
  8
姿図
100
AcDbLine
 10
5503.315305099749
 20
-7004.2117883355
 30
0.0000000000000013
 11
5503.523337443422
 21
-7003.730815587208
 31
0.0000000000000013
  0
LINE
  5
168BE7
330
18
100
AcDbEntity
  8
姿図
100
AcDbLine
 10
5503.333410659245
 20
-7003.643216934207
 30
0.0000000000000013
 11
5503.5073664033
 21
-7003.767740783195
 31
0.0000000000000013
  0
LINE
  5
168BE8
330
18
100
AcDbEntity
  8
姿図
100
AcDbLine
 10
5503.315305099749
 20
-7007.434723719514
 30
0.0000000000000013
 11
5503.523472385878
 21
-7006.954717869405
 31
0.0
  0
LINE
  5
168BE9
330
18
100
AcDbEntity
  8
姿図
100
AcDbLine
 10
5503.466388672704
 20
-7007.512126360404
 30
0.0000000000000013
 11
5503.372253870468
 21
-7007.520935407126
 31
0.0000000000000013
  0
LINE
  5
168BEA
330
18
100
AcDbEntity
  8
姿図
100
AcDbLine
 10
5503.315305099749
 20
-7008.079310796315
 30
0.0000000000000013
 11
5503.523337443422
 21
-7007.598338048021
 31
0.0000000000000013
  0
LINE
  5
168BEB
330
18
100
AcDbEntity
  8
姿図
100
AcDbLine
 10
5503.466388672704
 20
-7008.156713437206
 30
0.0000000000000013
 11
5503.372253870468
 21
-7008.165522483931
 31
0.0000000000000013
  0
LINE
  5
168BEC
330
18
100
AcDbEntity
  8
姿図
100
AcDbLine
 10
5503.333410659245
 20
-7007.510739395022
 30
0.0000000000000013
 11
5503.5073664033
 21
-7007.635263244008
 31
0.0000000000000013
  0
LINE
  5
168BED
330
18
100
AcDbEntity
  8
姿図
100
AcDbLine
 10
5503.333410659245
 20
-7008.155326471822
 30
0.0000000000000013
 11
5503.5073664033
 21
-7008.279850320807
 31
0.0000000000000013
  0
LINE
  5
168BEE
330
18
100
AcDbEntity
  8
姿図
100
AcDbLine
 10
5503.315305099749
 20
-7005.500962489104
 30
0.0000000000000013
 11
5503.523337443422
 21
-7005.019989740813
 31
0.0000000000000013
  0
LINE
  5
168BEF
330
18
100
AcDbEntity
  8
姿図
100
AcDbLine
 10
5503.454492275782
 20
-7005.579478383693
 30
0.0000000000000013
 11
5503.372253870468
 21
-7005.587174176719
 31
0.0000000000000013
  0
LINE
  5
168BF0
330
18
100
AcDbEntity
  8
姿図
100
AcDbLine
 10
5503.315305099749
 20
-7006.145549565906
 30
0.0000000000000013
 11
5503.605575848736
 21
-7005.656881024584
 31
0.0000000000000013
  0
LINE
  5
168BF1
330
18
100
AcDbEntity
  8
姿図
100
AcDbLine
 10
5503.466523615159
 20
-7006.86850618179
 30
0.0
 11
5503.372253870468
 21
-7006.876348330324
 31
0.0000000000000013
  0
LINE
  5
168BF2
330
18
100
AcDbEntity
  8
姿図
100
AcDbLine
 10
5503.333410659245
 20
-7005.576978164611
 30
0.0000000000000013
 11
5503.436791938444
 21
-7005.65098224461
 31
0.0000000000000013
  0
LINE
  5
168BF3
330
18
100
AcDbEntity
  8
姿図
100
AcDbLine
 10
5503.333410659245
 20
-7006.866152318221
 30
0.0000000000000013
 11
5503.48687799792
 21
-7006.976009821396
 31
0.0000000000000013
  0
LINE
  5
168BF4
330
18
100
AcDbEntity
  8
姿図
100
AcDbLine
 10
5503.315305099749
 20
-7004.856375412302
 30
0.0000000000000013
 11
5503.523337443422
 21
-7004.375402664007
 31
0.0000000000000013
  0
LINE
  5
168BF5
330
18
100
AcDbEntity
  8
姿図
100
AcDbLine
 10
5503.466388672704
 20
-7004.933778053196
 30
0.0000000000000013
 11
5503.372253870468
 21
-7004.942587099918
 31
0.0000000000000013
  0
LINE
  5
168BF6
330
18
100
AcDbEntity
  8
姿図
100
AcDbLine
 10
5503.333410659245
 20
-7004.93239108781
 30
0.0000000000000013
 11
5503.5073664033
 21
-7005.056914936798
 31
0.0000000000000013
  0
LINE
  5
168BF7
330
18
100
AcDbEntity
  8
姿図
100
AcDbLine
 10
5503.466388672704
 20
-7004.289190976391
 30
0.0000000000000013
 11
5503.372253870468
 21
-7004.298000023119
 31
0.0000000000000013
  0
LINE
  5
168BF8
330
18
100
AcDbEntity
  8
姿図
100
AcDbLine
 10
5503.333410659245
 20
-7004.287804011008
 30
0.0000000000000013
 11
5503.5073664033
 21
-7004.412327859995
 31
0.0000000000000013
  0
LINE
  5
168BF9
330
18
100
AcDbEntity
  8
姿図
100
AcDbLine
 10
5503.076141072763
 20
-7009.082032219159
 30
0.0000000000000013
 11
5503.028511281386
 21
-7001.911310374618
 31
0.0000000000000013
  0
ELLIPSE
  5
168BFA
330
18
100
AcDbEntity
  8
姿図
100
AcDbEllipse
 10
5522.881554202909
 20
-6996.254413684262
 30
0.0000000000000013
 11
11.52422002329553
 21
32.58550975387643
 31
0.0000000000000038
210
0.0
220
-0.0000000000000001
230
1.0
 40
0.5306015190202692
 41
2.132850903174913
 42
2.178852095897545
  0
LINE
  5
168BFB
330
18
100
AcDbEntity
  8
姿図
100
AcDbLine
 10
5502.10992629429
 20
-7008.445988750621
 30
0.0000000000000013
 11
5501.620711625666
 21
-7008.491769001604
 31
0.0000000000000013
  0
LINE
  5
168BFC
330
18
100
AcDbEntity
  8
姿図
100
AcDbLine
 10
5501.295862885724
 20
-7008.567481835569
 30
0.0000000000000013
 11
5501.5038952294
 21
-7008.086509087276
 31
0.0000000000000013
  0
ELLIPSE
  5
168BFD
330
18
100
AcDbEntity
  8
姿図
100
AcDbEllipse
 10
5522.576676645998
 20
-7008.091833388407
 30
0.0000000000000013
 11
-20.51244147060166
 21
-0.0000000000000416
 31
-0.0000000000000011
210
-0.0000000000000001
220
0.0
230
1.0
 40
0.2588190451025202
 41
0.0667579305343701
 42
0.1004537543484347
  0
LINE
  5
168BFE
330
18
100
AcDbEntity
  8
姿図
100
AcDbLine
 10
5501.31396844522
 20
-7009.288084587879
 30
0.0000000000000013
 11
5501.487924189274
 21
-7009.412608436865
 31
0.0000000000000013
  0
LINE
  5
168BFF
330
18
100
AcDbEntity
  8
姿図
100
AcDbLine
 10
5501.295862885724
 20
-7009.856655989172
 30
0.0000000000000013
 11
5501.5038952294
 21
-7009.375683240875
 31
0.0000000000000013
  0
LINE
  5
168C00
330
18
100
AcDbEntity
  8
姿図
100
AcDbLine
 10
5501.446946458679
 20
-7009.934058630071
 30
0.0000000000000013
 11
5501.352811656443
 21
-7009.942867676788
 31
0.0000000000000013
  0
LINE
  5
168C01
330
18
100
AcDbEntity
  8
姿図
100
AcDbLine
 10
5501.446946458679
 20
-7008.64488447646
 30
0.0000000000000013
 11
5501.352811656443
 21
-7008.653693523183
 31
0.0000000000000013
  0
LINE
  5
168C02
330
18
100
AcDbEntity
  8
姿図
100
AcDbLine
 10
5501.295862885724
 20
-7009.21206891237
 30
0.0000000000000013
 11
5501.5038952294
 21
-7008.731096164076
 31
0.0000000000000013
  0
LINE
  5
168C03
330
18
100
AcDbEntity
  8
姿図
100
AcDbLine
 10
5501.446946458679
 20
-7009.28947155327
 30
0.0000000000000013
 11
5501.352811656443
 21
-7009.298280599987
 31
0.0000000000000013
  0
LINE
  5
168C04
330
18
100
AcDbEntity
  8
姿図
100
AcDbLine
 10
5501.31396844522
 20
-7008.643497511079
 30
0.0000000000000013
 11
5501.487924189274
 21
-7008.768021360063
 31
0.0000000000000013
  0
LINE
  5
168C05
330
18
100
AcDbEntity
  8
姿図
100
AcDbLine
 10
5501.295862885724
 20
-7010.501243065974
 30
0.0000000000000013
 11
5501.5038952294
 21
-7010.020270317683
 31
0.0000000000000013
  0
LINE
  5
168C06
330
18
100
AcDbEntity
  8
姿図
100
AcDbLine
 10
5501.446946458679
 20
-7010.578645706873
 30
0.0000000000000013
 11
5501.352811656443
 21
-7010.58745475359
 31
0.0000000000000013
  0
LINE
  5
168C07
330
18
100
AcDbEntity
  8
姿図
100
AcDbLine
 10
5501.31396844522
 20
-7010.577258741486
 30
0.0000000000000013
 11
5501.487924189274
 21
-7010.701782590476
 31
0.0000000000000013
  0
LINE
  5
168C08
330
18
100
AcDbEntity
  8
姿図
100
AcDbLine
 10
5501.31396844522
 20
-7009.93267166468
 30
0.0000000000000013
 11
5501.487924189274
 21
-7010.05719551367
 31
0.0000000000000013
  0
LINE
  5
168C09
330
18
100
AcDbEntity
  8
姿図
100
AcDbLine
 10
5501.446946458679
 20
-7011.22323278367
 30
0.0000000000000013
 11
5501.352811656443
 21
-7011.232041830395
 31
0.0000000000000013
  0
LINE
  5
168C0A
330
18
100
AcDbEntity
  8
姿図
100
AcDbLine
 10
5501.295862885724
 20
-7011.145830142777
 30
0.0000000000000013
 11
5501.5038952294
 21
-7010.664857394488
 31
0.0000000000000013
  0
ELLIPSE
  5
168C0B
330
18
100
AcDbEntity
  8
姿図
100
AcDbEllipse
 10
5501.35281165644
 20
-7008.589234815502
 30
0.0000000000000013
 11
0.0388432112209595
 21
0.0542626955743742
 31
0.0
210
0.0
220
0.0
230
1.0
 40
0.9083744652357207
 41
1.804594242940602
 42
3.808998900156939
  0
ELLIPSE
  5
168C0C
330
18
100
AcDbEntity
  8
姿図
100
AcDbEllipse
 10
5501.35281165644
 20
-7009.233821892303
 30
0.0000000000000013
 11
0.0388432112209595
 21
0.0542626955743742
 31
0.0
210
0.0
220
0.0
230
1.0
 40
0.9083744652357207
 41
1.804594242940675
 42
3.808998900157249
  0
ELLIPSE
  5
168C0D
330
18
100
AcDbEntity
  8
姿図
100
AcDbEllipse
 10
5501.35281165644
 20
-7009.878408969112
 30
0.0000000000000013
 11
0.0388432112209595
 21
0.0542626955743742
 31
0.0
210
0.0
220
0.0
230
1.0
 40
0.9083744652357207
 41
1.804594242940915
 42
3.808998900157248
  0
ELLIPSE
  5
168C0E
330
18
100
AcDbEntity
  8
姿図
100
AcDbEllipse
 10
5501.35281165644
 20
-7010.522996045915
 30
0.0000000000000013
 11
0.0388432112209583
 21
0.0542626955743725
 31
0.0
210
0.0
220
0.0
230
0.9999999999999998
 40
0.9083744652357211
 41
1.804594242940485
 42
3.808998900156776
  0
ELLIPSE
  5
168C0F
330
18
100
AcDbEntity
  8
姿図
100
AcDbEllipse
 10
5501.35281165644
 20
-7011.167583122716
 30
0.0000000000000013
 11
0.0388432112209583
 21
0.0542626955743725
 31
0.0
210
0.0
220
0.0
230
0.9999999999999998
 40
0.9083744652357211
 41
1.804594242940883
 42
3.808998900157217
  0
ELLIPSE
  5
168C10
330
18
100
AcDbEntity
  8
姿図
100
AcDbEllipse
 10
5503.372253870468
 20
-7008.745650853057
 30
0.0000000000000013
 11
0.0388432112209593
 21
0.0542626955743744
 31
0.0
210
0.0
220
0.0
230
0.9999999999999998
 40
0.9083744652357179
 41
1.804594242940764
 42
3.808998900157056
  0
ELLIPSE
  5
168C11
330
18
100
AcDbEntity
  8
姿図
100
AcDbEllipse
 10
5501.446946458681
 20
-7009.353930260942
 30
0.0000000000000013
 11
0.0388432112209563
 21
0.0542626955743804
 31
0.0
210
0.0
220
0.0
230
1.0
 40
0.9083744652357207
 41
4.946186896530126
 42
6.950591553746752
  0
ELLIPSE
  5
168C12
330
18
100
AcDbEntity
  8
姿図
100
AcDbEllipse
 10
5501.446946458681
 20
-7009.998517337746
 30
0.0000000000000013
 11
0.0388432112209563
 21
0.0542626955743804
 31
0.0
210
0.0
220
0.0
230
1.0
 40
0.9083744652357207
 41
4.946186896530643
 42
6.950591553746943
  0
ELLIPSE
  5
168C13
330
18
100
AcDbEntity
  8
姿図
100
AcDbEllipse
 10
5501.446946458681
 20
-7010.643104414555
 30
0.0000000000000013
 11
0.0388432112209563
 21
0.0542626955743804
 31
0.0
210
0.0
220
0.0
230
1.0
 40
0.9083744652357207
 41
4.946186896530488
 42
6.950591553746788
  0
ELLIPSE
  5
168C14
330
18
100
AcDbEntity
  8
姿図
100
AcDbEllipse
 10
5501.446946458681
 20
-7008.709343184143
 30
0.0000000000000013
 11
0.0388432112209563
 21
0.0542626955743804
 31
0.0
210
0.0
220
0.0
230
1.0
 40
0.9083744652357207
 41
4.94618689653045
 42
6.950591553746752
  0
ELLIPSE
  5
168C15
330
18
100
AcDbEntity
  8
姿図
100
AcDbEllipse
 10
5501.446946458681
 20
-7011.287691491358
 30
0.0000000000000013
 11
0.0388432112209563
 21
0.0542626955743804
 31
0.0
210
0.0
220
0.0
230
1.0
 40
0.9083744652357207
 41
6.074134062573671
 42
6.950591553746821
  0
ELLIPSE
  5
168C16
330
18
100
AcDbEntity
  8
姿図
100
AcDbEllipse
 10
5522.294928011995
 20
-6999.000808352682
 30
0.0000000000000013
 11
11.53937528561558
 21
32.62347191877432
 31
0.0
210
0.0
220
0.0
230
1.0
 40
0.5306663220532383
 41
2.046319060003439
 42
2.129635835717336
  0
LINE
  5
168C17
330
18
100
AcDbEntity
  8
姿図
100
AcDbLine
 10
5501.31396844522
 20
-7003.486800896657
 30
0.0000000000000013
 11
5501.487924189274
 21
-7003.611324745641
 31
0.0000000000000013
  0
LINE
  5
168C18
330
18
100
AcDbEntity
  8
姿図
100
AcDbLine
 10
5501.295862885724
 20
-7004.055372297948
 30
0.0000000000000013
 11
5501.5038952294
 21
-7003.574399549655
 31
0.0000000000000013
  0
LINE
  5
168C19
330
18
100
AcDbEntity
  8
姿図
100
AcDbLine
 10
5501.446946458679
 20
-7004.132774938847
 30
0.0000000000000013
 11
5501.352811656443
 21
-7004.141583985566
 31
0.0000000000000013
  0
LINE
  5
168C1A
330
18
100
AcDbEntity
  8
姿図
100
AcDbLine
 10
5501.31396844522
 20
-7004.13138797346
 30
0.0000000000000013
 11
5501.487924189274
 21
-7004.255911822447
 31
0.0000000000000013
  0
LINE
  5
168C1B
330
18
100
AcDbEntity
  8
姿図
100
AcDbLine
 10
5501.295862885724
 20
-7002.121611067545
 30
0.0000000000000013
 11
5501.513950144002
 21
-7001.617391261483
 31
0.0000000000000013
  0
LINE
  5
168C1C
330
18
100
AcDbEntity
  8
姿図
100
AcDbLine
 10
5501.446946458679
 20
-7002.199013708434
 30
0.0000000000000013
 11
5501.352811656443
 21
-7002.207822755159
 31
0.0000000000000013
  0
LINE
  5
168C1D
330
18
100
AcDbEntity
  8
姿図
100
AcDbLine
 10
5501.295862885724
 20
-7002.766198144346
 30
0.0000000000000013
 11
5501.5038952294
 21
-7002.285225396054
 31
0.0000000000000013
  0
LINE
  5
168C1E
330
18
100
AcDbEntity
  8
姿図
100
AcDbLine
 10
5501.446946458679
 20
-7002.843600785239
 30
0.0000000000000013
 11
5501.352811656443
 21
-7002.852409831965
 31
0.0000000000000013
  0
LINE
  5
168C1F
330
18
100
AcDbEntity
  8
姿図
100
AcDbLine
 10
5501.295862885724
 20
-7003.410785221148
 30
0.0000000000000013
 11
5501.5038952294
 21
-7002.929812472851
 31
0.0000000000000013
  0
LINE
  5
168C20
330
18
100
AcDbEntity
  8
姿図
100
AcDbLine
 10
5501.446946458679
 20
-7003.488187862045
 30
0.0000000000000013
 11
5501.352811656443
 21
-7003.496996908764
 31
0.0000000000000013
  0
LINE
  5
168C21
330
18
100
AcDbEntity
  8
姿図
100
AcDbLine
 10
5501.31396844522
 20
-7002.197626743054
 30
0.0000000000000013
 11
5501.487924189274
 21
-7002.322150592039
 31
0.0000000000000013
  0
LINE
  5
168C22
330
18
100
AcDbEntity
  8
姿図
100
AcDbLine
 10
5501.31396844522
 20
-7002.842213819857
 30
0.0000000000000013
 11
5501.487924189274
 21
-7002.966737668841
 31
0.0000000000000013
  0
LINE
  5
168C23
330
18
100
AcDbEntity
  8
姿図
100
AcDbLine
 10
5501.31396844522
 20
-7007.354323357472
 30
0.0000000000000013
 11
5501.487924189274
 21
-7007.478847206463
 31
0.0000000000000013
  0
LINE
  5
168C24
330
18
100
AcDbEntity
  8
姿図
100
AcDbLine
 10
5501.295862885724
 20
-7007.922894758767
 30
0.0000000000000013
 11
5501.5038952294
 21
-7007.441922010477
 31
0.0000000000000013
  0
LINE
  5
168C25
330
18
100
AcDbEntity
  8
姿図
100
AcDbLine
 10
5501.446946458679
 20
-7008.000297399658
 30
0.0000000000000013
 11
5501.352811656443
 21
-7008.00910644638
 31
0.0000000000000013
  0
LINE
  5
168C26
330
18
100
AcDbEntity
  8
姿図
100
AcDbLine
 10
5501.31396844522
 20
-7007.998910434278
 30
0.0000000000000013
 11
5501.487924189274
 21
-7008.123434283263
 31
0.0000000000000013
  0
LINE
  5
168C27
330
18
100
AcDbEntity
  8
姿図
100
AcDbLine
 10
5501.31396844522
 20
-7005.420562127067
 30
0.0000000000000013
 11
5501.487924189274
 21
-7005.545085976052
 31
0.0000000000000013
  0
LINE
  5
168C28
330
18
100
AcDbEntity
  8
姿図
100
AcDbLine
 10
5501.295862885724
 20
-7005.989133528358
 30
0.0000000000000013
 11
5501.5038952294
 21
-7005.508160780066
 31
0.0000000000000013
  0
LINE
  5
168C29
330
18
100
AcDbEntity
  8
姿図
100
AcDbLine
 10
5501.446946458679
 20
-7006.066536169249
 30
0.0000000000000013
 11
5501.352811656443
 21
-7006.075345215977
 31
0.0000000000000013
  0
LINE
  5
168C2A
330
18
100
AcDbEntity
  8
姿図
100
AcDbLine
 10
5501.295862885724
 20
-7006.633720605158
 30
0.0000000000000013
 11
5501.5038952294
 21
-7006.152747856866
 31
0.0000000000000013
  0
LINE
  5
168C2B
330
18
100
AcDbEntity
  8
姿図
100
AcDbLine
 10
5501.446946458679
 20
-7006.711123246057
 30
0.0000000000000013
 11
5501.352811656443
 21
-7006.719932292778
 31
0.0000000000000013
  0
LINE
  5
168C2C
330
18
100
AcDbEntity
  8
姿図
100
AcDbLine
 10
5501.295862885724
 20
-7007.278307681961
 30
0.0000000000000013
 11
5501.5038952294
 21
-7006.797334933671
 31
0.0000000000000013
  0
LINE
  5
168C2D
330
18
100
AcDbEntity
  8
姿図
100
AcDbLine
 10
5501.446946458679
 20
-7007.355710322856
 30
0.0000000000000013
 11
5501.352811656443
 21
-7007.364519369577
 31
0.0000000000000013
  0
LINE
  5
168C2E
330
18
100
AcDbEntity
  8
姿図
100
AcDbLine
 10
5501.31396844522
 20
-7006.065149203866
 30
0.0000000000000013
 11
5501.487924189274
 21
-7006.189673052853
 31
0.0000000000000013
  0
LINE
  5
168C2F
330
18
100
AcDbEntity
  8
姿図
100
AcDbLine
 10
5501.31396844522
 20
-7006.709736280673
 30
0.0000000000000013
 11
5501.487924189274
 21
-7006.834260129657
 31
0.0000000000000013
  0
LINE
  5
168C30
330
18
100
AcDbEntity
  8
姿図
100
AcDbLine
 10
5501.446946458679
 20
-7004.777362015649
 30
0.0000000000000013
 11
5501.352811656443
 21
-7004.786171062367
 31
0.0000000000000013
  0
LINE
  5
168C31
330
18
100
AcDbEntity
  8
姿図
100
AcDbLine
 10
5501.295862885724
 20
-7005.344546451559
 30
0.0000000000000013
 11
5501.5038952294
 21
-7004.863573703265
 31
0.0000000000000013
  0
LINE
  5
168C32
330
18
100
AcDbEntity
  8
姿図
100
AcDbLine
 10
5501.446946458679
 20
-7005.421949092448
 30
0.0000000000000013
 11
5501.352811656443
 21
-7005.430758139171
 31
0.0000000000000013
  0
LINE
  5
168C33
330
18
100
AcDbEntity
  8
姿図
100
AcDbLine
 10
5501.31396844522
 20
-7004.775975050266
 30
0.0000000000000013
 11
5501.487924189274
 21
-7004.900498899253
 31
0.0000000000000013
  0
LINE
  5
168C34
330
18
100
AcDbEntity
  8
姿図
100
AcDbLine
 10
5501.295862885724
 20
-7004.699959374758
 30
0.0000000000000013
 11
5501.5038952294
 21
-7004.218986626459
 31
0.0000000000000013
  0
ELLIPSE
  5
168C35
330
18
100
AcDbEntity
  8
姿図
100
AcDbEllipse
 10
5501.35281165644
 20
-7007.300060661902
 30
0.0000000000000013
 11
0.0388432112209595
 21
0.0542626955743742
 31
0.0
210
0.0
220
0.0
230
1.0
 40
0.9083744652357207
 41
1.804594242940693
 42
3.808998900156747
  0
ELLIPSE
  5
168C36
330
18
100
AcDbEntity
  8
姿図
100
AcDbEllipse
 10
5501.35281165644
 20
-7007.944647738703
 30
0.0000000000000013
 11
0.0388432112209595
 21
0.0542626955743742
 31
0.0
210
0.0
220
0.0
230
1.0
 40
0.9083744652357207
 41
1.80459424294052
 42
3.808998900156813
  0
ELLIPSE
  5
168C37
330
18
100
AcDbEntity
  8
姿図
100
AcDbEllipse
 10
5501.35281165644
 20
-7003.432538201086
 30
0.0000000000000013
 11
0.0388432112209608
 21
0.054262695574376
 31
0.0
210
0.0
220
0.0
230
1.0
 40
0.9083744652357205
 41
1.804594242940521
 42
3.808998900156824
  0
ELLIPSE
  5
168C38
330
18
100
AcDbEntity
  8
姿図
100
AcDbEllipse
 10
5501.35281165644
 20
-7005.366299431496
 30
0.0000000000000013
 11
0.0388432112209595
 21
0.0542626955743742
 31
0.0
210
0.0
220
0.0
230
1.0
 40
0.9083744652357207
 41
1.804594242940334
 42
3.808998900156869
  0
ELLIPSE
  5
168C39
330
18
100
AcDbEntity
  8
姿図
100
AcDbEllipse
 10
5501.35281165644
 20
-7006.010886508295
 30
0.0000000000000013
 11
0.0388432112209595
 21
0.0542626955743742
 31
0.0
210
0.0
220
0.0
230
1.0
 40
0.9083744652357207
 41
1.804594242940608
 42
3.808998900156902
  0
ELLIPSE
  5
168C3A
330
18
100
AcDbEntity
  8
姿図
100
AcDbEllipse
 10
5501.35281165644
 20
-7006.6554735851
 30
0.0000000000000013
 11
0.0388432112209595
 21
0.0542626955743742
 31
0.0
210
0.0
220
0.0
230
1.0
 40
0.9083744652357207
 41
1.804594242940608
 42
3.808998900156902
  0
ELLIPSE
  5
168C3B
330
18
100
AcDbEntity
  8
姿図
100
AcDbEllipse
 10
5501.35281165644
 20
-7004.077125277887
 30
0.0000000000000013
 11
0.0388432112209608
 21
0.054262695574376
 31
0.0
210
0.0
220
0.0
230
1.0
 40
0.9083744652357205
 41
1.804594242940521
 42
3.808998900156824
  0
ELLIPSE
  5
168C3C
330
18
100
AcDbEntity
  8
姿図
100
AcDbEllipse
 10
5501.35281165644
 20
-7004.721712354691
 30
0.0000000000000013
 11
0.0388432112209595
 21
0.0542626955743742
 31
0.0
210
0.0
220
0.0
230
1.0
 40
0.9083744652357207
 41
1.804594242940452
 42
3.808998900157026
  0
ELLIPSE
  5
168C3D
330
18
100
AcDbEntity
  8
姿図
100
AcDbEllipse
 10
5501.35281165644
 20
-7002.14336404748
 30
0.0000000000000013
 11
0.0388432112209608
 21
0.054262695574376
 31
0.0
210
0.0
220
0.0
230
1.0
 40
0.9083744652357205
 41
1.804594242940791
 42
3.808998900157134
  0
ELLIPSE
  5
168C3E
330
18
100
AcDbEntity
  8
姿図
100
AcDbEllipse
 10
5501.35281165644
 20
-7002.787951124284
 30
0.0000000000000013
 11
0.0388432112209608
 21
0.054262695574376
 31
0.0
210
0.0
220
0.0
230
1.0
 40
0.9083744652357205
 41
1.804594242940609
 42
3.808998900156911
  0
LINE
  5
168C3F
330
18
100
AcDbEntity
  8
姿図
100
AcDbLine
 10
5503.397395548528
 20
-7006.22940851881
 30
0.0000000000000013
 11
5503.372253870468
 21
-7006.231761253522
 31
0.0000000000000013
  0
LINE
  5
168C40
330
18
100
AcDbEntity
  8
姿図
100
AcDbLine
 10
5503.315305099749
 20
-7006.790136642712
 30
0.0000000000000013
 11
5503.54847912148
 21
-7006.306811159702
 31
0.0000000000000013
  0
LINE
  5
168C41
330
18
100
AcDbEntity
  8
姿図
100
AcDbLine
 10
5503.333410659245
 20
-7006.221565241414
 30
0.0000000000000013
 11
5503.396386046778
 21
-7006.266645314453
 31
0.0000000000000013
  0
ELLIPSE
  5
168C42
330
18
100
AcDbEntity
  8
姿図
100
AcDbEllipse
 10
5503.372253870468
 20
-7007.456476699445
 30
0.0000000000000013
 11
0.0388432112209593
 21
0.0542626955743744
 31
0.0
210
0.0
220
0.0
230
0.9999999999999998
 40
0.9083744652357179
 41
1.804594242940831
 42
3.808998900156845
  0
ELLIPSE
  5
168C43
330
18
100
AcDbEntity
  8
姿図
100
AcDbEllipse
 10
5503.372253870468
 20
-7008.101063776255
 30
0.0000000000000013
 11
0.0388432112209593
 21
0.0542626955743744
 31
0.0
210
0.0
220
0.0
230
0.9999999999999998
 40
0.9083744652357179
 41
1.804594242940846
 42
3.808998900156899
  0
ELLIPSE
  5
168C44
330
18
100
AcDbEntity
  8
姿図
100
AcDbEllipse
 10
5503.372253870468
 20
-7005.522715469036
 30
0.0000000000000013
 11
0.0388432112209605
 21
0.0542626955743761
 31
0.0
210
0.0
220
0.0
230
0.9999999999999998
 40
0.9083744652357179
 41
1.804594242940848
 42
3.808998900156911
  0
ELLIPSE
  5
168C45
330
18
100
AcDbEntity
  8
姿図
100
AcDbEllipse
 10
5503.372253870468
 20
-7006.167302545843
 30
0.0000000000000013
 11
0.0388432112209593
 21
0.0542626955743744
 31
0.0
210
0.0
220
0.0
230
0.9999999999999998
 40
0.9083744652357179
 41
1.804594242940722
 42
3.808998900156776
  0
ELLIPSE
  5
168C46
330
18
100
AcDbEntity
  8
姿図
100
AcDbEllipse
 10
5503.372253870468
 20
-7006.811889622645
 30
0.0000000000000013
 11
0.0388432112209593
 21
0.0542626955743744
 31
0.0
210
0.0
220
0.0
230
0.9999999999999998
 40
0.9083744652357179
 41
1.804594242940692
 42
3.808998900156467
  0
ELLIPSE
  5
168C47
330
18
100
AcDbEntity
  8
姿図
100
AcDbEllipse
 10
5503.372253870468
 20
-7003.588954238636
 30
0.0000000000000013
 11
0.0388432112209605
 21
0.0542626955743761
 31
0.0
210
0.0
220
0.0
230
0.9999999999999998
 40
0.9083744652357179
 41
1.804594242940803
 42
3.808998900156824
  0
ELLIPSE
  5
168C48
330
18
100
AcDbEntity
  8
姿図
100
AcDbEllipse
 10
5503.372253870468
 20
-7004.233541315435
 30
0.0000000000000013
 11
0.0388432112209605
 21
0.0542626955743761
 31
0.0
210
0.0
220
0.0
230
0.9999999999999998
 40
0.9083744652357179
 41
1.804594242940765
 42
3.808998900156787
  0
ELLIPSE
  5
168C49
330
18
100
AcDbEntity
  8
姿図
100
AcDbEllipse
 10
5503.372253870468
 20
-7004.878128392235
 30
0.0000000000000013
 11
0.0388432112209605
 21
0.0542626955743761
 31
0.0
210
0.0
220
0.0
230
0.9999999999999998
 40
0.9083744652357179
 41
1.804594242940875
 42
3.808998900156855
  0
ELLIPSE
  5
168C4A
330
18
100
AcDbEntity
  8
姿図
100
AcDbEllipse
 10
5501.446946458681
 20
-7007.420169030544
 30
0.0000000000000013
 11
0.0388432112209563
 21
0.0542626955743804
 31
0.0
210
0.0
220
0.0
230
1.0
 40
0.9083744652357207
 41
4.946186896530418
 42
6.950591553746441
  0
ELLIPSE
  5
168C4B
330
18
100
AcDbEntity
  8
姿図
100
AcDbEllipse
 10
5501.446946458681
 20
-7008.064756107343
 30
0.0000000000000013
 11
0.0388432112209563
 21
0.0542626955743804
 31
0.0
210
0.0
220
0.0
230
1.0
 40
0.9083744652357207
 41
4.946186896530518
 42
6.950591553746821
  0
ELLIPSE
  5
168C4C
330
18
100
AcDbEntity
  8
姿図
100
AcDbEllipse
 10
5501.446946458681
 20
-7003.55264656972
 30
0.0000000000000013
 11
0.0388432112209673
 21
0.0542626955743958
 31
0.0
210
0.0
220
0.0
230
1.0
 40
0.9083744652357207
 41
4.946186896530406
 42
6.950591553746625
  0
ELLIPSE
  5
168C4D
330
18
100
AcDbEntity
  8
姿図
100
AcDbEllipse
 10
5501.446946458681
 20
-7005.486407800133
 30
0.0000000000000013
 11
0.0388432112209563
 21
0.0542626955743804
 31
0.0
210
0.0
220
0.0
230
1.0
 40
0.9083744652357207
 41
4.946186896530168
 42
6.950591553746752
  0
ELLIPSE
  5
168C4E
330
18
100
AcDbEntity
  8
姿図
100
AcDbEllipse
 10
5501.446946458681
 20
-7006.130994876937
 30
0.0000000000000013
 11
0.0388432112209563
 21
0.0542626955743804
 31
0.0
210
0.0
220
0.0
230
1.0
 40
0.9083744652357207
 41
4.946186896530518
 42
6.95059155374654
  0
ELLIPSE
  5
168C4F
330
18
100
AcDbEntity
  8
姿図
100
AcDbEllipse
 10
5501.446946458681
 20
-7006.775581953736
 30
0.0000000000000013
 11
0.0388432112209563
 21
0.0542626955743804
 31
0.0
210
0.0
220
0.0
230
1.0
 40
0.9083744652357207
 41
4.946186896530611
 42
6.950591553746912
  0
ELLIPSE
  5
168C50
330
18
100
AcDbEntity
  8
姿図
100
AcDbEllipse
 10
5501.446946458681
 20
-7004.197233646526
 30
0.0000000000000013
 11
0.0388432112209563
 21
0.0542626955743804
 31
0.0
210
0.0
220
0.0
230
1.0
 40
0.9083744652357207
 41
4.946186896530611
 42
6.950591553747201
  0
ELLIPSE
  5
168C51
330
18
100
AcDbEntity
  8
姿図
100
AcDbEllipse
 10
5501.446946458681
 20
-7004.841820723327
 30
0.0000000000000013
 11
0.0388432112209563
 21
0.0542626955743804
 31
0.0
210
0.0
220
0.0
230
1.0
 40
0.9083744652357207
 41
4.946186896530643
 42
6.950591553746943
  0
ELLIPSE
  5
168C52
330
18
100
AcDbEntity
  8
姿図
100
AcDbEllipse
 10
5501.446946458681
 20
-7002.263472416117
 30
0.0000000000000013
 11
0.0388432112209673
 21
0.0542626955743958
 31
0.0
210
0.0
220
0.0
230
1.0
 40
0.9083744652357207
 41
4.946186896530376
 42
6.950591553746025
  0
ELLIPSE
  5
168C53
330
18
100
AcDbEntity
  8
姿図
100
AcDbEllipse
 10
5501.446946458681
 20
-7002.908059492918
 30
0.0000000000000013
 11
0.0388432112209673
 21
0.0542626955743958
 31
0.0
210
0.0
220
0.0
230
1.0
 40
0.9083744652357207
 41
4.946186896530473
 42
6.950591553746981
  0
ELLIPSE
  5
168C54
330
18
100
AcDbEntity
  8
姿図
100
AcDbEllipse
 10
5503.466388672704
 20
-7008.865759221696
 30
0.0000000000000013
 11
0.038843211220956
 21
0.0542626955743806
 31
0.0
210
0.0
220
0.0
230
1.0
 40
0.9083744652357182
 41
6.006282980254767
 42
6.950591553746565
  0
ELLIPSE
  5
168C55
330
18
100
AcDbEntity
  8
姿図
100
AcDbEllipse
 10
5503.738493090706
 20
-7003.075388201591
 30
0.0000000000000013
 11
0.0518015552908881
 21
-0.5983679293381278
 31
-0.0000000000000001
210
0.0
220
-0.0000000000000002
230
1.0
 40
0.3301839125655835
 41
3.143887870131871
 42
4.437113948144753
  0
LINE
  5
168C56
330
18
100
AcDbEntity
  8
姿図
100
AcDbLine
 10
5503.533392358027
 20
-7003.062981452632
 30
0.0000000000000013
 11
5503.534279833107
 21
-7002.929204923836
 31
0.0000000000000013
  0
ELLIPSE
  5
168C57
330
18
100
AcDbEntity
  8
姿図
100
AcDbEllipse
 10
5503.466388672704
 20
-7007.576585068088
 30
0.0000000000000013
 11
0.038843211220956
 21
0.0542626955743806
 31
0.0
210
0.0
220
0.0
230
1.0
 40
0.9083744652357182
 41
4.94618689653042
 42
6.950591553746442
  0
ELLIPSE
  5
168C58
330
18
100
AcDbEntity
  8
姿図
100
AcDbEllipse
 10
5503.466388672704
 20
-7008.221172144887
 30
0.0000000000000013
 11
0.038843211220956
 21
0.0542626955743806
 31
0.0
210
0.0
220
0.0
230
1.0
 40
0.9083744652357182
 41
4.946186896530445
 42
6.950591553746508
  0
ELLIPSE
  5
168C59
330
18
100
AcDbEntity
  8
姿図
100
AcDbEllipse
 10
5503.466388672704
 20
-7003.709062607274
 30
0.0000000000000013
 11
0.038843211220967
 21
0.054262695574396
 31
0.0
210
0.0
220
0.0
230
1.0
 40
0.9083744652357179
 41
4.946186896530443
 42
6.95059155374638
  0
ELLIPSE
  5
168C5A
330
18
100
AcDbEntity
  8
姿図
100
AcDbEllipse
 10
5503.466388672704
 20
-7004.353649684073
 30
0.0000000000000013
 11
0.038843211220967
 21
0.054262695574396
 31
0.0
210
0.0
220
0.0
230
1.0
 40
0.9083744652357179
 41
4.946186896530483
 42
6.950591553746504
  0
ELLIPSE
  5
168C5B
330
18
100
AcDbEntity
  8
姿図
100
AcDbEllipse
 10
5503.466388672704
 20
-7004.998236760876
 30
0.0000000000000013
 11
0.038843211220967
 21
0.054262695574396
 31
0.0
210
0.0
220
0.0
230
1.0
 40
0.9083744652357179
 41
4.94618689653029
 42
6.950591553746592
  0
LINE
  5
168C5C
330
18
100
AcDbEntity
  8
姿図
100
AcDbLine
 10
5505.053121160572
 20
-7004.13489871395
 30
0.0000000000000013
 11
5505.047953495413
 21
-7003.356900565773
 31
0.0000000000000013
  0
LINE
  5
168C5D
330
18
100
AcDbEntity
  8
姿図
100
AcDbLine
 10
5504.489103505095
 20
-7002.401929721983
 30
0.0000000000000013
 11
5503.686238202965
 21
-7002.477061105799
 31
0.0000000000000013
  0
LINE
  5
168C5E
330
18
100
AcDbEntity
  8
姿図
100
AcDbLine
 10
5504.544914563211
 20
-7002.419795665556
 30
0.0000000000000013
 11
5504.839889268632
 21
-7002.630949288982
 31
0.0000000000000013
  0
LINE
  5
168C5F
330
18
100
AcDbEntity
  8
姿図
100
AcDbLine
 10
5504.344552274795
 20
-7002.853380386828
 30
0.0000000000000013
 11
5504.3614777756
 21
-7005.401534700343
 31
0.0000000000000013
  0
ELLIPSE
  5
168C60
330
18
100
AcDbEntity
  8
姿図
100
AcDbEllipse
 10
5504.548765532392
 20
-7002.999563664585
 30
0.0000000000000013
 11
0.0601042818412164
 21
-0.5975910098000781
 31
0.0
210
0.0
220
0.0
230
0.9999999999999998
 40
0.3266547503873695
 41
2.861757613225558
 42
4.4325539400205
  0
ELLIPSE
  5
168C61
330
18
100
AcDbEntity
  8
姿図
100
AcDbEllipse
 10
5504.843740237814
 20
-7003.210717288012
 30
0.0000000000000013
 11
0.0601042818412164
 21
-0.5975910098000781
 31
0.0
210
0.0
220
0.0
230
0.9999999999999998
 40
0.3266547503873695
 41
1.290961286430781
 42
2.861757613225615
  0
ELLIPSE
  5
168C62
330
18
100
AcDbEntity
  8
姿図
100
AcDbEllipse
 10
5522.576676645998
 20
-7011.153622003218
 30
0.0000000000000013
 11
-21.07925606939019
 21
-0.0000000000007852
 31
0.0
210
0.0
220
0.0
230
1.0
 40
0.2588190451024983
 41
5.241510706344443
 42
6.274432771330731
  0
ELLIPSE
  5
168C63
330
18
100
AcDbEntity
  8
姿図
100
AcDbEllipse
 10
5514.40970995597
 20
-7101.997092335293
 30
0.0000000000000013
 11
-21.57253626674573
 21
-402.5222387923092
 31
0.0000000000000224
210
0.0
220
0.0000000000000001
230
1.0
 40
0.0186593157869327
 41
4.459498662982783
 42
4.472829220484885
  0
LINE
  5
168C64
330
18
100
AcDbEntity
  8
姿図
100
AcDbLine
 10
5513.661071303136
 20
-7002.686666592367
 30
0.0000000000000013
 11
5513.677776650216
 21
-7000.442570118633
 31
0.0000000000000013
  0
LINE
  5
168C65
330
18
100
AcDbEntity
  8
姿図
100
AcDbLine
 10
5517.286277402678
 20
-7000.104889994311
 30
0.0000000000000013
 11
5517.269572055596
 21
-7002.348986468046
 31
0.0000000000000013
  0
ELLIPSE
  5
168C66
330
18
100
AcDbEntity
  8
姿図
100
AcDbEllipse
 10
5512.492325539269
 20
-6764.742106935817
 30
0.0000000000000013
 11
-24.79760649923187
 21
454.1582205366506
 31
0.0
210
0.0
220
0.0
230
0.9999999999999996
 40
0.0171889472793754
 41
2.115486356435118
 42
2.128957736158342
  0
ELLIPSE
  5
168C67
330
18
100
AcDbEntity
  8
姿図
100
AcDbEllipse
 10
5530.743643336025
 20
-7100.468578131522
 30
0.0000000000000013
 11
-21.7596940972245
 21
398.4686830473768
 31
-0.0000000000000222
210
0.0
220
0.0000000000000001
230
1.0
 40
0.0174416807856973
 41
1.315822296819268
 42
1.32915285432137
  0
LINE
  5
168C68
330
18
100
AcDbEntity
  8
姿図
100
AcDbLine
 10
5513.854568115486
 20
-7000.569123880014
 30
0.0000000000000013
 11
5513.871187908479
 21
-7002.661534374722
 31
0.0000000000000013
  0
ELLIPSE
  5
168C69
330
18
100
AcDbEntity
  8
姿図
100
AcDbEllipse
 10
5501.71905087668
 20
-7001.629798010445
 30
0.0000000000000013
 11
0.0518015552908881
 21
-0.5983679293381278
 31
-0.0000000000000001
210
0.0
220
-0.0000000000000002
230
1.0
 40
0.3301839125655835
 41
3.143887870131943
 42
4.437113948144802
  0
ELLIPSE
  5
168C6A
330
18
100
AcDbEntity
  8
姿図
100
AcDbEllipse
 10
5502.52932331837
 20
-7001.553973473432
 30
0.0000000000000013
 11
0.0601042818412164
 21
-0.5975910098000781
 31
0.0
210
0.0
220
0.0
230
0.9999999999999998
 40
0.3266547503873695
 41
2.861757613225725
 42
4.432553940020589
  0
LINE
  5
168C6B
330
18
100
AcDbEntity
  8
姿図
100
AcDbLine
 10
5502.525472349186
 20
-7000.974205474403
 30
0.0000000000000013
 11
5502.820447054607
 21
-7001.185359097828
 31
0.0000000000000013
  0
ELLIPSE
  5
168C6C
330
18
100
AcDbEntity
  8
姿図
100
AcDbEllipse
 10
5522.576676645998
 20
-7011.153622003218
 30
0.0000000000000013
 11
-21.07925606939019
 21
-0.0000000000003616
 31
-0.0000000000000023
210
-0.0000000000000001
220
0.0
230
1.0
 40
0.2588190451025165
 41
3.844220094436217
 42
4.877142159422502
  0
LINE
  5
168C6D
330
18
100
AcDbEntity
  8
姿図
100
AcDbLine
 10
5546.57034830128
 20
-7016.310318617636
 30
0.0000000000000013
 11
5546.57034830128
 21
-7016.694830176871
 31
0.0000000000000013
  0
LINE
  5
168C6E
330
18
100
AcDbEntity
  8
姿図
100
AcDbLine
 10
5501.295862885724
 20
-7012.435004296384
 30
0.0000000000000013
 11
5501.478455089976
 21
-7012.012849391313
 31
0.0000000000000013
  0
LINE
  5
168C6F
330
18
100
AcDbEntity
  8
姿図
100
AcDbLine
 10
5501.446946458679
 20
-7011.867819860473
 30
0.0000000000000013
 11
5501.352811656443
 21
-7011.876628907194
 31
0.0000000000000013
  0
LINE
  5
168C70
330
18
100
AcDbEntity
  8
姿図
100
AcDbLine
 10
5501.295862885724
 20
-7011.790417219582
 30
0.0000000000000013
 11
5501.493171662509
 21
-7011.334237459469
 31
0.0000000000000013
  0
LINE
  5
168C71
330
18
100
AcDbEntity
  8
姿図
100
AcDbLine
 10
5501.31396844522
 20
-7011.866432895089
 30
0.0000000000000013
 11
5501.479067352241
 21
-7011.984616697976
 31
0.0000000000000013
  0
LINE
  5
168C72
330
18
100
AcDbEntity
  8
姿図
100
AcDbLine
 10
5501.290055121617
 20
-7013.477952110536
 30
0.0000000000000013
 11
5501.290055121617
 21
-7012.462629974137
 31
0.0000000000000013
  0
ELLIPSE
  5
168C73
330
18
100
AcDbEntity
  8
姿図
100
AcDbEllipse
 10
5501.35281165644
 20
-7012.456757276321
 30
0.0000000000000013
 11
0.0388432112209608
 21
0.054262695574376
 31
0.0
210
0.0
220
0.0
230
1.0
 40
0.9083744652357205
 41
1.8045942429404
 42
2.238202573361832
  0
ELLIPSE
  5
168C74
330
18
100
AcDbEntity
  8
姿図
100
AcDbEllipse
 10
5501.35281165644
 20
-7011.812170199516
 30
0.0000000000000013
 11
0.0388432112209583
 21
0.0542626955743725
 31
0.0
210
0.0
220
0.0
230
0.9999999999999998
 40
0.9083744652357211
 41
1.804594242940565
 42
3.808998900156902
  0
ELLIPSE
  5
168C75
330
18
100
AcDbEntity
  8
姿図
100
AcDbEllipse
 10
5501.446946458681
 20
-7011.932278568155
 30
0.0000000000000013
 11
0.0388432112209563
 21
0.0542626955743804
 31
0.0
210
0.0
220
0.0
230
1.0
 40
0.9083744652357207
 41
0.0854693314817033
 42
0.6674062465672338
  0
LINE
  5
168C76
330
18
100
AcDbEntity
  8
姿図
100
AcDbLine
 10
5498.583004990719
 20
-7016.310318617636
 30
0.0000000000000013
 11
5498.583004990719
 21
-7016.694830176871
 31
0.0000000000000013
  0
ELLIPSE
  5
168C77
330
18
100
AcDbEntity
  8
姿図
100
AcDbEllipse
 10
5522.576676645996
 20
-7016.310318617636
 30
0.0000000000000013
 11
23.99367165528037
 21
0.0
 31
0.0
210
0.0
220
0.0
230
0.9999999999999998
 40
0.2673555525296203
 41
6.253210353381122
 42
9.424777960769381
  0
LINE
  5
168C78
330
18
100
AcDbEntity
  8
姿図
100
AcDbLine
 10
5501.31396844522
 20
-7011.22184581829
 30
0.0000000000000013
 11
5501.487924189274
 21
-7011.346369667275
 31
0.0000000000000013
  0
LINE
  5
168C79
330
18
100
AcDbEntity
  8
姿図
100
AcDbLine
 10
5501.500257632688
 20
-7011.007488557798
 30
0.0000000000000013
 11
5501.448481701036
 21
-7013.39498502952
 31
0.0000000000000013
  0
LINE
  5
168C7A
330
18
100
AcDbEntity
  8
姿図
100
AcDbLine
 10
5541.14045473574
 20
-7008.733466862044
 30
0.0000000000000013
 11
5541.14045473574
 21
-7012.353916207285
 31
0.0000000000000013
  0
LINE
  5
168C7B
330
18
100
AcDbEntity
  8
姿図
100
AcDbLine
 10
5543.863298170379
 20
-7013.477952110536
 30
0.0000000000000013
 11
5543.863298170379
 21
-7010.682577232143
 31
0.0000000000000013
  0
SPLINE
  5
168C7C
330
18
100
AcDbEntity
  8
姿図
100
AcDbSpline
210
0.0000000000000031
220
-0.000000000000168
230
1.0
 70
     8
 71
     3
 72
    26
 73
    22
 74
     0
 42
0.0000000001
 43
0.0000000001
 40
5.061336783911484
 40
5.061336783911484
 40
5.061336783911484
 40
5.061336783911484
 40
5.424423750909745
 40
5.424423750909745
 40
5.597379662847512
 40
5.597379662847512
 40
5.659540508070472
 40
5.659540508070472
 40
5.681680215509581
 40
5.681680215509581
 40
5.695637545270647
 40
5.695637545270647
 40
5.707793438358561
 40
5.707793438358561
 40
5.722098011649362
 40
5.722098011649362
 40
5.746604578651287
 40
5.746604578651287
 40
5.804790417739905
 40
5.804790417739905
 40
5.95015367802265
 40
5.95015367802265
 40
5.95015367802265
 40
5.95015367802265
 10
5541.642152277973
 20
-7008.050479431308
 30
0.0000000000000179
 10
5541.616578972051
 20
-7008.041666664418
 30
-0.0000000000000011
 10
5541.596635132951
 20
-7008.03695125829
 30
0.0000000000000084
 10
5541.575304962501
 20
-7008.035194966253
 30
0.0000000000000369
 10
5541.567141829772
 20
-7008.03522147707
 30
-0.0000000000000011
 10
5541.559280041428
 20
-7008.038557967875
 30
0.0000000000000084
 10
5541.557112477448
 20
-7008.039918643717
 30
-0.0000000000000011
 10
5541.555160199257
 20
-7008.042886757539
 30
0.0000000000000084
 10
5541.554676522104
 20
-7008.043868139704
 30
0.0000000000000179
 10
5541.554167785303
 20
-7008.045865243603
 30
0.0000000000000084
 10
5541.554039309953
 20
-7008.046733576297
 30
0.0000000000000274
 10
5541.553990206035
 20
-7008.048561233261
 30
0.0000000000000084
 10
5541.554046348815
 20
-7008.049439788402
 30
0.0000000000000084
 10
5541.554323279059
 20
-7008.051401266566
 30
0.0000000000000084
 10
5541.554563988438
 20
-7008.052440050384
 30
0.0000000000000179
 10
5541.555342375269
 20
-7008.055109663742
 30
0.0000000000000084
 10
5541.555994372348
 20
-7008.056718801618
 30
-0.0000000000000011
 10
5541.558195285468
 20
-7008.061475502275
 30
0.0000000000000084
 10
5541.560230050893
 20
-7008.064747827084
 30
0.0000000000000084
 10
5541.567172268621
 20
-7008.074750070142
 30
0.0000000000000179
 10
5541.573530792213
 20
-7008.081764616645
 30
-0.0000000000000011
 10
5541.578682342252
 20
-7008.087077061571
 30
-0.0000000000000011
  0
SPLINE
  5
168C7D
330
18
100
AcDbEntity
  8
姿図
100
AcDbSpline
210
-0.0000000000019626
220
-0.0000000000009049
230
1.0
 70
     8
 71
     3
 72
    10
 73
     6
 74
     0
 42
0.0000000001
 43
0.0000000001
 40
1.049331515521564
 40
1.049331515521564
 40
1.049331515521564
 40
1.049331515521564
 40
1.060416395005242
 40
1.060416395005242
 40
1.145877108045186
 40
1.145877108045186
 40
1.145877108045186
 40
1.145877108045186
 10
5543.148524484807
 20
-7010.148534930436
 30
0.0000000000000179
 10
5543.148819372807
 20
-7010.149409761634
 30
0.0000000000000179
 10
5543.1490784343
 20
-7010.150290726669
 30
0.0000000000000179
 10
5543.151022455649
 20
-7010.157991270585
 30
-0.0000000000000106
 10
5543.150490903298
 20
-7010.164978946851
 30
0.0000000000000084
 10
5543.148551768785
 20
-7010.170935759991
 30
-0.0000000000000011
  0
SPLINE
  5
168C7E
330
18
100
AcDbEntity
  8
姿図
100
AcDbSpline
210
-0.0000000000000024
220
-0.0000000000000102
230
1.0
 70
    11
 71
     3
 72
    38
 73
    34
 74
     0
 42
0.0000000001
 43
0.0000000001
 40
0.0
 40
0.0
 40
0.0
 40
0.0
 40
0.4899871145494816
 40
0.4899871145494816
 40
0.979974229098963
 40
0.979974229098963
 40
1.469880324151053
 40
1.469880324151053
 40
1.959786419203144
 40
1.959786419203144
 40
2.449692514255234
 40
2.449692514255234
 40
2.939598609307322
 40
2.939598609307322
 40
3.429585723856796
 40
3.429585723856796
 40
3.919572838406268
 40
3.919572838406268
 40
4.409171093943909
 40
4.409171093943909
 40
4.89876934948155
 40
4.89876934948155
 40
5.388322667025808
 40
5.388322667025808
 40
5.877875984570068
 40
5.877875984570068
 40
6.36742930211432
 40
6.36742930211432
 40
6.856982619658573
 40
6.856982619658573
 40
7.346580875196199
 40
7.346580875196199
 40
7.836179130733825
 40
7.836179130733825
 40
7.836179130733825
 40
7.836179130733825
 10
5536.511831554168
 20
-7008.659376598821
 30
-0.0000000000000011
 10
5536.512584797492
 20
-7008.711783029416
 30
0.0000000000000084
 10
5536.505208936637
 20
-7008.765818222707
 30
0.0000000000000084
 10
5536.473360994992
 20
-7008.861096403314
 30
-0.0000000000000011
 10
5536.448881288947
 20
-7008.902342215086
 30
0.0000000000000084
 10
5536.391745076528
 20
-7008.96338533207
 30
0.0000000000000084
 10
5536.355280136187
 20
-7008.987254406704
 30
0.0000000000000084
 10
5536.274681461423
 20
-7009.011860500042
 30
0.0000000000000084
 10
5536.230539707913
 20
-7009.012599544941
 30
0.0000000000000179
 10
5536.1472088085
 20
-7008.994423794387
 30
-0.0000000000000011
 10
5536.102473288071
 20
-7008.974299249363
 30
0.0000000000000179
 10
5536.019595727804
 20
-7008.914036475374
 30
0.0000000000000084
 10
5535.981461203047
 20
-7008.87389611027
 30
-0.0000000000000011
 10
5535.920802403657
 20
-7008.787160089863
 30
0.0000000000000179
 10
5535.8942374054
 20
-7008.734780643161
 30
0.0000000000000274
 10
5535.858420218396
 20
-7008.624743657502
 30
-0.0000000000000011
 10
5535.849175936577
 20
-7008.567083355519
 30
0.0000000000000179
 10
5535.847741734467
 20
-7008.462327720623
 30
0.0000000000000084
 10
5535.855443428179
 20
-7008.408247247278
 30
-0.0000000000000011
 10
5535.888408858672
 20
-7008.312721504338
 30
0.0000000000000084
 10
5535.913664957762
 20
-7008.271278857424
 30
0.0000000000000179
 10
5535.972242989334
 20
-7008.209858025269
 30
0.0000000000000179
 10
5536.009467498264
 20
-7008.185783925124
 30
0.0000000000000084
 10
5536.091114118043
 20
-7008.160885527553
 30
0.0000000000000179
 10
5536.135528457874
 20
-7008.160063606528
 30
0.0000000000000179
 10
5536.218799351363
 20
-7008.178226268866
 30
0.0000000000000274
 10
5536.263207889406
 20
-7008.198421825396
 30
0.0000000000000179
 10
5536.344966209519
 20
-7008.258961353059
 30
0.0000000000000179
 10
5536.382323743698
 20
-7008.299302943663
 30
0.0000000000000084
 10
5536.441538164331
 20
-7008.386416120955
 30
0.0000000000000084
 10
5536.467342689492
 20
-7008.438995875185
 30
0.0000000000000179
 10
5536.502109124001
 20
-7008.54929497941
 30
0.0000000000000274
 10
5536.511078908627
 20
-7008.607011758536
 30
0.0000000000000084
 10
5536.511831554168
 20
-7008.659376598821
 30
-0.0000000000000011
  0
SPLINE
  5
168C7F
330
18
100
AcDbEntity
  8
姿図
100
AcDbSpline
210
-0.0000000000000733
220
0.0000000000000539
230
-1.0
 70
     8
 71
     3
 72
    24
 73
    20
 74
     0
 42
0.0000000001
 43
0.0000000001
 40
9.158211213992672
 40
9.158211213992672
 40
9.158211213992672
 40
9.158211213992672
 40
9.170191443583112
 40
9.170191443583112
 40
9.737477062085199
 40
9.737477062085199
 40
10.30476268058729
 40
10.30476268058729
 40
10.87204829908938
 40
10.87204829908938
 40
11.43933391759147
 40
11.43933391759147
 40
12.01567227050256
 40
12.01567227050256
 40
12.59201062341365
 40
12.59201062341365
 40
13.16834897632474
 40
13.16834897632474
 40
13.72927459805347
 40
13.72927459805347
 40
13.72927459805347
 40
13.72927459805347
 10
5540.593987214694
 20
-7004.336953951463
 30
0.0000000000000274
 10
5540.594013985263
 20
-7004.338240024456
 30
0.0000000000000179
 10
5540.594039343171
 20
-7004.339524602091
 30
0.0000000000000179
 10
5540.595197399981
 20
-7004.401562969478
 30
0.0000000000000369
 10
5540.593204295684
 20
-7004.462975183781
 30
0.0000000000000179
 10
5540.582188129771
 20
-7004.581956333002
 30
0.0000000000000179
 10
5540.573167348259
 20
-7004.639527580981
 30
-0.0000000000000011
 10
5540.548397443722
 20
-7004.746596947779
 30
0.0000000000000084
 10
5540.532625549212
 20
-7004.796185172769
 30
0.0000000000000084
 10
5540.495547913616
 20
-7004.884413373166
 30
0.0000000000000369
 10
5540.474237069748
 20
-7004.923050101246
 30
-0.0000000000000011
 10
5540.427962040443
 20
-7004.988458996828
 30
-0.0000000000000011
 10
5540.401361486662
 20
-7005.017277567979
 30
0.0000000000000179
 10
5540.3428055528
 20
-7005.063122387223
 30
0.0000000000000179
 10
5540.310849586143
 20
-7005.080155086026
 30
0.0000000000000179
 10
5540.243524419942
 20
-7005.100974940759
 30
0.0000000000000084
 10
5540.208101132575
 20
-7005.104779868239
 30
0.0000000000000084
 10
5540.137175257017
 20
-7005.099683703635
 30
-0.0000000000000011
 10
5540.101699525727
 20
-7005.091120457201
 30
0.0000000000000179
 10
5540.067058271842
 20
-7005.077655145242
 30
0.0000000000000084
  0
SPLINE
  5
168C80
330
18
100
AcDbEntity
  8
姿図
100
AcDbSpline
210
-0.0000000000036218
220
-0.000000000001173
230
1.0
 70
     8
 71
     3
 72
    10
 73
     6
 74
     0
 42
0.0000000001
 43
0.0000000001
 40
0.0588189760599532
 40
0.0588189760599532
 40
0.0588189760599532
 40
0.0588189760599532
 40
0.3767108973350863
 40
0.3767108973350863
 40
0.456659258613309
 40
0.456659258613309
 40
0.456659258613309
 40
0.456659258613309
 10
5519.00410962434
 20
-7005.638364342498
 30
0.0000000000000179
 10
5519.00638652132
 20
-7005.673194093519
 30
-0.0000000000000011
 10
5519.014817893463
 20
-7005.708943827261
 30
0.0000000000000084
 10
5519.032860003257
 20
-7005.750224625997
 30
0.0000000000000274
 10
5519.036870380004
 20
-7005.758344852215
 30
-0.0000000000000106
 10
5519.041184824215
 20
-7005.7662720777
 30
-0.0000000000000011
  0
SPLINE
  5
168C81
330
18
100
AcDbEntity
  8
姿図
100
AcDbSpline
210
-0.0000000000000006
220
0.0000000000000057
230
1.0
 70
    11
 71
     3
 72
    38
 73
    34
 74
     0
 42
0.0000000001
 43
0.0000000001
 40
0.0
 40
0.0
 40
0.0
 40
0.0
 40
0.4899871145494814
 40
0.4899871145494814
 40
0.9799742290989627
 40
0.9799742290989627
 40
1.469880324151051
 40
1.469880324151051
 40
1.95978641920314
 40
1.95978641920314
 40
2.44969251425523
 40
2.44969251425523
 40
2.939598609307319
 40
2.939598609307319
 40
3.429585723856791
 40
3.429585723856791
 40
3.919572838406263
 40
3.919572838406263
 40
4.409171093943906
 40
4.409171093943906
 40
4.898769349481548
 40
4.898769349481548
 40
5.388322667025804
 40
5.388322667025804
 40
5.87787598457006
 40
5.87787598457006
 40
6.367429302114317
 40
6.367429302114317
 40
6.856982619658572
 40
6.856982619658572
 40
7.346580875196196
 40
7.346580875196196
 40
7.836179130733821
 40
7.836179130733821
 40
7.836179130733821
 40
7.836179130733821
 10
5515.806873618206
 20
-7007.588663474591
 30
0.0000000000000274
 10
5515.806507686933
 20
-7007.641012029434
 30
0.0000000000000084
 10
5515.795794800344
 20
-7007.697750210609
 30
0.0000000000000084
 10
5515.753139391752
 20
-7007.804161370619
 30
0.0000000000000084
 10
5515.72120114065
 20
-7007.853837675146
 30
0.0000000000000084
 10
5515.647837995352
 20
-7007.934381212675
 30
0.0000000000000084
 10
5515.601525260639
 20
-7007.970619692824
 30
0.0000000000000084
 10
5515.500400198035
 20
-7008.022380627103
 30
0.0000000000000179
 10
5515.445591658437
 20
-7008.037905739627
 30
0.0000000000000084
 10
5515.343108962055
 20
-7008.047495974475
 30
0.0000000000000179
 10
5515.288613717043
 20
-7008.042199407849
 30
0.0000000000000084
 10
5515.188691083306
 20
-7008.009252328898
 30
0.0000000000000084
 10
5515.143259286443
 20
-7007.981599216176
 30
0.0000000000000274
 10
5515.071754795416
 20
-7007.914612256515
 30
0.0000000000000084
 10
5515.040916825809
 20
-7007.870810491988
 30
0.0000000000000274
 10
5515.000355745873
 20
-7007.772186653117
 30
0.0000000000000274
 10
5514.990628711045
 20
-7007.717361220665
 30
0.0000000000000179
 10
5514.991448445577
 20
-7007.61269740519
 30
0.0000000000000179
 10
5515.002034520421
 20
-7007.555884204399
 30
-0.0000000000000106
 10
5515.044158941792
 20
-7007.449137841556
 30
-0.0000000000000011
 10
5515.075701527037
 20
-7007.399207810107
 30
0.0000000000000084
 10
5515.148301663112
 20
-7007.318185123352
 30
0.0000000000000179
 10
5515.194198310524
 20
-7007.281690291541
 30
0.0000000000000179
 10
5515.294707787032
 20
-7007.229572445961
 30
0.0000000000000179
 10
5515.349324699802
 20
-7007.213952359592
 30
0.0000000000000084
 10
5515.451733599204
 20
-7007.204369030602
 30
0.0000000000000084
 10
5515.506353573226
 20
-7007.209766831303
 30
-0.0000000000000011
 10
5515.606804112281
 20
-7007.243079026643
 30
0.0000000000000179
 10
5515.652630570389
 20
-7007.270990496056
 30
-0.0000000000000011
 10
5515.724894922771
 20
-7007.33845689951
 30
-0.0000000000000011
 10
5515.75614813703
 20
-7007.382510558802
 30
0.0000000000000179
 10
5515.797322278444
 20
-7007.481461920072
 30
0.0000000000000274
 10
5515.807239259068
 20
-7007.536356464118
 30
0.0000000000000084
 10
5515.806873618206
 20
-7007.588663474591
 30
0.0000000000000274
  0
SPLINE
  5
168C82
330
18
100
AcDbEntity
  8
姿図
100
AcDbSpline
210
0.0000000000001214
220
-0.0000000000001128
230
1.0
 70
     8
 71
     3
 72
    14
 73
    10
 74
     0
 42
0.0000000001
 43
0.0000000001
 40
1.516995086374685
 40
1.516995086374685
 40
1.516995086374685
 40
1.516995086374685
 40
1.894466177168911
 40
1.894466177168911
 40
2.274814964391461
 40
2.274814964391461
 40
2.651000233863916
 40
2.651000233863916
 40
2.975314369919598
 40
2.975314369919598
 40
2.975314369919598
 40
2.975314369919598
 10
5512.834402676339
 20
-7000.551017224998
 30
0.0000000000000084
 10
5512.797196106741
 20
-7000.556074443051
 30
0.0000000000000084
 10
5512.757512212274
 20
-7000.569435212503
 30
0.0000000000000084
 10
5512.684025956056
 20
-7000.612011160235
 30
0.0000000000000274
 10
5512.650268198548
 20
-7000.641353786964
 30
0.0000000000000084
 10
5512.597069574255
 20
-7000.705601013585
 30
0.0000000000000274
 10
5512.573984297553
 20
-7000.74467446974
 30
-0.0000000000000011
 10
5512.545170810003
 20
-7000.821932756939
 30
0.0000000000000084
 10
5512.537405987936
 20
-7000.859503548795
 30
0.0000000000000179
 10
5512.53533545134
 20
-7000.894939436988
 30
-0.0000000000000011
  0
SPLINE
  5
168C83
330
18
100
AcDbEntity
  8
姿図
100
AcDbSpline
 70
     4
 71
     2
 72
     6
 73
     3
 74
     0
 42
0.0000000001
 43
0.0000000001
 40
18.67224162152367
 40
18.67224162152367
 40
18.67224162152367
 40
24.03177626439027
 40
24.03177626439027
 40
24.03177626439027
 10
5502.313260480705
 20
-7009.650487047479
 30
-0.0000000000000106
 41
1.000007196260522
 10
5502.293779661448
 20
-7008.787572894475
 30
0.0000000000000084
 41
1.000006449331704
 10
5502.274260180292
 20
-7007.922878155611
 30
0.0000000000000179
 41
1.000004680735829
  0
SPLINE
  5
168C84
330
18
100
AcDbEntity
  8
姿図
100
AcDbSpline
210
-0.0000000000000245
220
0.0000000000000051
230
1.0
 70
     8
 71
     3
 72
    24
 73
    20
 74
     0
 42
0.0000000001
 43
0.0000000001
 40
0.0132670700154636
 40
0.0132670700154636
 40
0.0132670700154636
 40
0.0132670700154636
 40
0.5643354427835523
 40
0.5643354427835523
 40
1.128670885567105
 40
1.128670885567105
 40
1.693006328350656
 40
1.693006328350656
 40
2.257341771134209
 40
2.257341771134209
 40
2.838611106649443
 40
2.838611106649443
 40
3.419880442164677
 40
3.419880442164677
 40
4.001149777679911
 40
4.001149777679911
 40
4.582419113195146
 40
4.582419113195146
 40
4.59951105823255
 40
4.59951105823255
 40
4.59951105823255
 40
4.59951105823255
 10
5502.274260180294
 20
-7007.922878155622
 30
0.0000000000000179
 10
5502.275595507236
 20
-7007.982031888784
 30
0.0000000000000084
 10
5502.276093323011
 20
-7008.041570197874
 30
-0.0000000000000011
 10
5502.275166204327
 20
-7008.158039518805
 30
0.0000000000000274
 10
5502.273695290751
 20
-7008.214874491983
 30
0.0000000000000274
 10
5502.26889553603
 20
-7008.32020138726
 30
0.0000000000000084
 10
5502.265564964808
 20
-7008.368779134084
 30
-0.0000000000000011
 10
5502.257510441093
 20
-7008.4548156113
 30
0.0000000000000084
 10
5502.252789151186
 20
-7008.492270595183
 30
0.0000000000000179
 10
5502.242520210447
 20
-7008.555699429732
 30
-0.0000000000000011
 10
5502.236588172108
 20
-7008.583531654027
 30
0.0000000000000084
 10
5502.22378391748
 20
-7008.626978048993
 30
-0.0000000000000011
 10
5502.216915403521
 20
-7008.64259830705
 30
0.0000000000000274
 10
5502.202871059752
 20
-7008.660202254178
 30
-0.0000000000000011
 10
5502.195686672028
 20
-7008.662200483889
 30
0.0000000000000084
 10
5502.181605606927
 20
-7008.653109051749
 30
0.0000000000000179
 10
5502.174709525864
 20
-7008.642014886389
 30
0.0000000000000369
 10
5502.168025263943
 20
-7008.625222554224
 30
0.0000000000000179
 10
5502.167834280551
 20
-7008.624737466526
 30
0.0000000000000274
 10
5502.16764325429
 20
-7008.624246944105
 30
0.0000000000000084
  0
SPLINE
  5
168C85
330
18
100
AcDbEntity
  8
姿図
100
AcDbSpline
210
0.0000000000000039
220
-0.000000000000002
230
1.0
 70
    11
 71
     3
 72
    38
 73
    34
 74
     0
 42
0.0000000001
 43
0.0000000001
 40
0.0
 40
0.0
 40
0.0
 40
0.0
 40
0.4899871145494816
 40
0.4899871145494816
 40
0.979974229098963
 40
0.979974229098963
 40
1.469880324151051
 40
1.469880324151051
 40
1.95978641920314
 40
1.95978641920314
 40
2.44969251425523
 40
2.44969251425523
 40
2.939598609307319
 40
2.939598609307319
 40
3.429585723856791
 40
3.429585723856791
 40
3.919572838406263
 40
3.919572838406263
 40
4.409171093943906
 40
4.409171093943906
 40
4.898769349481551
 40
4.898769349481551
 40
5.388322667025808
 40
5.388322667025808
 40
5.877875984570062
 40
5.877875984570062
 40
6.367429302114317
 40
6.367429302114317
 40
6.856982619658572
 40
6.856982619658572
 40
7.346580875196195
 40
7.346580875196195
 40
7.836179130733819
 40
7.836179130733819
 40
7.836179130733819
 40
7.836179130733819
 10
5501.87171871003
 20
-7011.694196271884
 30
0.0000000000000179
 10
5501.87059953544
 20
-7011.746766744976
 30
0.0000000000000084
 10
5501.867262509702
 20
-7011.80560439395
 30
0.0000000000000084
 10
5501.856455042759
 20
-7011.920004471106
 30
0.0000000000000179
 10
5501.848996497702
 20
-7011.975567809159
 30
0.0000000000000179
 10
5501.832769564822
 20
-7012.069498724457
 30
0.0000000000000084
 10
5501.822921770453
 20
-7012.114129230086
 30
-0.0000000000000011
 10
5501.802395382609
 20
-7012.184068448803
 30
0.0000000000000084
 10
5501.791728596523
 20
-7012.209377489831
 30
-0.0000000000000106
 10
5501.772576799552
 20
-7012.237143475236
 30
0.0000000000000084
 10
5501.762817074967
 20
-7012.241448480222
 30
0.0000000000000179
 10
5501.7457720015
 20
-7012.225979797493
 30
0.0000000000000084
 10
5501.738474729394
 20
-7012.206205949755
 30
0.0000000000000084
 10
5501.727629037756
 20
-7012.151524515743
 30
-0.0000000000000011
 10
5501.723356066411
 20
-7012.112969352627
 30
0.0000000000000179
 10
5501.718612173474
 20
-7012.02111540167
 30
0.0000000000000274
 10
5501.718129420464
 20
-7011.967815610103
 30
0.0000000000000179
 10
5501.72038335711
 20
-7011.862692498272
 30
0.0000000000000274
 10
5501.72326773824
 20
-7011.803866417404
 30
0.0000000000000179
 10
5501.73242672912
 20
-7011.689456812971
 30
0.0000000000000179
 10
5501.738713215274
 20
-7011.633874011923
 30
0.0000000000000084
 10
5501.752735319776
 20
-7011.539907429131
 30
0.0000000000000179
 10
5501.761407458258
 20
-7011.495258424824
 30
0.0000000000000179
 10
5501.780270314987
 20
-7011.425302861574
 30
-0.0000000000000011
 10
5501.790472887927
 20
-7011.399996848365
 30
0.0000000000000179
 10
5501.809610893841
 20
-7011.37225085704
 30
-0.0000000000000011
 10
5501.819822329817
 20
-7011.36796094907
 30
0.0000000000000179
 10
5501.838514548762
 20
-7011.383469731992
 30
0.0000000000000084
 10
5501.846983472685
 20
-7011.403267883443
 30
-0.0000000000000011
 10
5501.860033404435
 20
-7011.457985837804
 30
0.0000000000000179
 10
5501.865482093538
 20
-7011.496555159365
 30
-0.0000000000000011
 10
5501.87188980044
 20
-7011.588396400951
 30
0.0000000000000084
 10
5501.87283699644
 20
-7011.641667519284
 30
0.0000000000000274
 10
5501.87171871003
 20
-7011.694196271884
 30
0.0000000000000179
  0
ELLIPSE
  5
168C86
330
18
100
AcDbEntity
  8
姿図
100
AcDbEllipse
 10
5522.576676645996
 20
-7016.928584091336
 30
0.0000000000000013
 11
18.65778692755066
 21
0.0
 31
0.0
210
0.0
220
0.0
230
1.0
 40
0.267355552529607
 41
0.0
 42
6.283185307179585
  0
ELLIPSE
  5
168C87
330
18
100
AcDbEntity
  8
姿図
100
AcDbEllipse
 10
5522.576676645996
 20
-7016.943189613063
 30
0.0000000000000013
 11
-19.82357152159238
 21
0.0
 31
0.0
210
0.0
220
0.0
230
1.0
 40
0.2673555525296134
 41
0.0
 42
6.283185307179585
  0
ELLIPSE
  5
168C88
330
18
100
AcDbEntity
  8
姿図
100
AcDbEllipse
 10
5522.576676645997
 20
-7016.694830176871
 30
0.0000000000000013
 11
-23.99367165527838
 21
0.0
 31
0.0
210
0.0
220
0.0
230
1.0
 40
0.2673555525296482
 41
0.0
 42
6.283185307179585
  0
LINE
  5
168C89
330
18
100
AcDbEntity
  8
姿図
100
AcDbLine
 10
5503.548627078018
 20
-7005.57066933697
 30
0.0000000000000013
 11
5503.45449227578
 21
-7005.579478383693
 31
0.0000000000000013
  0
ELLIPSE
  5
168C8A
330
18
100
AcDbEntity
  8
姿図
100
AcDbEllipse
 10
5503.548627078018
 20
-7005.635128044649
 30
0.0000000000000013
 11
0.038843211220967
 21
0.054262695574396
 31
0.0
210
0.0
220
0.0
230
1.0
 40
0.9083744652357179
 41
4.94618689653029
 42
6.950591553746592
  0
LINE
  5
168C8B
330
18
100
AcDbEntity
  8
姿図
100
AcDbLine
 10
5503.491530350763
 20
-7006.220599472086
 30
0.0000000000000013
 11
5503.397395548526
 21
-7006.22940851881
 31
0.0000000000000013
  0
ELLIPSE
  5
168C8C
330
18
100
AcDbEntity
  8
姿図
100
AcDbEllipse
 10
5503.491530350763
 20
-7006.285058179766
 30
0.0000000000000013
 11
0.038843211220967
 21
0.054262695574396
 31
0.0
210
0.0
220
0.0
230
1.0
 40
0.9083744652357179
 41
4.94618689653029
 42
6.950591553746592
  0
ELLIPSE
  5
168C8D
330
18
100
AcDbEntity
  8
姿図
100
AcDbEllipse
 10
5503.466523615159
 20
-7006.932964889471
 30
0.0
 11
0.038843211220956
 21
0.0542626955743806
 31
0.0
210
0.0
220
0.0
230
1.0
 40
0.9083744652357184
 41
4.94618689653042
 42
6.950591553746442
  0
ELLIPSE
  5
168C8E
330
18
100
AcDbEntity
  8
姿図
100
AcDbEllipse
 10
5522.576676645996
 20
-7015.939774972337
 30
0.0000000000000013
 11
18.65778692755066
 21
0.0
 31
0.0
210
0.0
220
0.0
230
1.0
 40
0.267355552529607
 41
3.240869221284279
 42
6.183908739485097
  0
ELLIPSE
  5
168C8F
330
18
100
AcDbEntity
  8
姿図
100
AcDbEllipse
 10
5522.576676645996
 20
-7014.950965853336
 30
0.0000000000000013
 11
18.65778692755066
 21
0.0
 31
0.0
210
0.0
220
0.0
230
1.0
 40
0.267355552529607
 41
3.341141494714694
 42
6.083636466054683
  0
ELLIPSE
  5
168C90
330
18
100
AcDbEntity
  8
姿図
100
AcDbEllipse
 10
5522.576676645996
 20
-7013.962156734335
 30
0.0000000000000013
 11
18.65778692755066
 21
0.0
 31
0.0
210
0.0
220
0.0
230
1.0
 40
0.267355552529607
 41
3.443498839147456
 42
5.981279121621923
  0
ELLIPSE
  5
168C91
330
18
100
AcDbEntity
  8
姿図
100
AcDbEllipse
 10
5522.576676645996
 20
-7012.973347615335
 30
0.0000000000000013
 11
18.65778692755066
 21
0.0
 31
0.0
210
0.0
220
0.0
230
1.0
 40
0.267355552529607
 41
3.549244063459674
 42
5.875533897309704
  0
ELLIPSE
  5
168C92
330
18
100
AcDbEntity
  8
姿図
100
AcDbEllipse
 10
5522.576676645996
 20
-7011.984538496335
 30
0.0000000000000013
 11
18.65778692755066
 21
0.0
 31
0.0
210
0.0
220
0.0
230
1.0
 40
0.267355552529607
 41
3.660081153683951
 42
5.764696807085428
  0
ELLIPSE
  5
168C93
330
18
100
AcDbEntity
  8
姿図
100
AcDbEllipse
 10
5522.576676645996
 20
-7010.995729377334
 30
0.0000000000000013
 11
18.65778692755066
 21
0.0
 31
0.0
210
0.0
220
0.0
230
1.0
 40
0.267355552529607
 41
3.778461999527498
 42
5.646315961241879
  0
ELLIPSE
  5
168C94
330
18
100
AcDbEntity
  8
姿図
100
AcDbEllipse
 10
5522.576676645996
 20
-7010.006920258334
 30
0.0000000000000013
 11
18.65778692755066
 21
0.0
 31
0.0
210
0.0
220
0.0
230
1.0
 40
0.267355552529607
 41
3.908338002471356
 42
5.516439958298021
  0
ELLIPSE
  5
168C95
330
18
100
AcDbEntity
  8
姿図
100
AcDbEllipse
 10
5522.576676645996
 20
-7009.018111139333
 30
0.0000000000000013
 11
18.65778692755066
 21
0.0
 31
0.0
210
0.0
220
0.0
230
1.0
 40
0.267355552529607
 41
4.057160258691116
 42
5.367617702078262
  0
ELLIPSE
  5
168C96
330
18
100
AcDbEntity
  8
姿図
100
AcDbEllipse
 10
5522.576676645996
 20
-7008.029302020334
 30
0.0000000000000013
 11
18.65778692755066
 21
0.0
 31
0.0
210
0.0
220
0.0
230
1.0
 40
0.267355552529607
 41
4.243392129177446
 42
5.181385831591931
  0
ELLIPSE
  5
168C97
330
18
100
AcDbEntity
  8
姿図
100
AcDbEllipse
 10
5522.576676645996
 20
-7007.040492901332
 30
0.0000000000000013
 11
18.65778692755066
 21
0.0
 31
0.0
210
0.0
220
0.0
230
1.0
 40
0.267355552529607
 41
4.579141821614592
 42
4.845636139154786
  0
ENDSEC
  0
SECTION
  2
OBJECTS
  0
DICTIONARY
  5
C
330
0
100
AcDbDictionary
281
     1
  3
ACAD_COLOR
350
168EAC
  3
ACAD_GROUP
350
D
  3
ACAD_IMAGE_VARS
350
168E59
  3
ACAD_LAYOUT
350
617
  3
ACAD_MATERIAL
350
168E82
  3
ACAD_MLEADERSTYLE
350
168EAF
  3
ACAD_MLINESTYLE
350
E
  3
ACAD_PLOTSETTINGS
350
618
  3
ACAD_PLOTSTYLENAME
350
615
  3
ACAD_SCALELIST
350
A36
  3
ACAD_TABLESTYLE
350
168EAD
  3
ACAD_VISUALSTYLE
350
168E9B
  3
AcadDim
350
AB4
  3
ACDB_RECOMPOSE_DATA
350
168EB7
  3
AcDbVariableDictionary
350
6DE
  3
APPDATA
350
168E58
  3
DWGPROPS
350
168EB8
  0
DICTIONARY
  5
8BF
330
2
100
AcDbDictionary
280
     1
281
     1
  3
ACAD_LAYERSTATES
360
8C0
  0
DICTIONARY
  5
A60
330
F
100
AcDbDictionary
280
     1
281
     1
  3
ADSK_XREC_LAYER_RECONCILED
360
A61
  0
DICTIONARY
  5
A66
330
34
100
AcDbDictionary
280
     1
281
     1
  3
ADSK_XREC_LAYER_RECONCILED
360
A67
  0
DICTIONARY
  5
A6E
330
2F4
100
AcDbDictionary
280
     1
281
     1
  3
ADSK_XREC_LAYER_RECONCILED
360
A6F
  0
DICTIONARY
  5
A72
330
305
100
AcDbDictionary
280
     1
281
     1
  3
ADSK_XREC_LAYER_RECONCILED
360
A73
  0
DICTIONARY
  5
143F
330
18
100
AcDbDictionary
280
     1
281
     1
  3
ACAD_SORTENTS
360
1440
  0
DICTIONARY
  5
168EAC
102
{ACAD_REACTORS
330
C
102
}
330
C
100
AcDbDictionary
281
     1
  0
DICTIONARY
  5
D
102
{ACAD_REACTORS
330
C
102
}
330
C
100
AcDbDictionary
281
     1
  0
RASTERVARIABLES
  5
168E59
102
{ACAD_REACTORS
330
C
102
}
330
C
100
AcDbRasterVariables
 90
        0
 70
     1
 71
     1
 72
     0
  0
DICTIONARY
  5
617
102
{ACAD_REACTORS
330
C
102
}
330
C
100
AcDbDictionary
281
     1
  3
Model
350
619
  3
ﾚｲｱｳﾄ1
350
61A
  0
DICTIONARY
  5
168E82
102
{ACAD_REACTORS
330
C
102
}
330
C
100
AcDbDictionary
281
     1
  3
ByBlock
350
168E8B
  3
ByLayer
350
168E83
  3
Global
350
168E93
  0
DICTIONARY
  5
168EAF
102
{ACAD_REACTORS
330
C
102
}
330
C
100
AcDbDictionary
281
     1
  3
Standard
350
168EB0
  0
DICTIONARY
  5
E
102
{ACAD_REACTORS
330
C
102
}
330
C
100
AcDbDictionary
281
     1
  3
STANDARD
350
1B
  0
DICTIONARY
  5
618
102
{ACAD_REACTORS
330
C
102
}
330
C
100
AcDbDictionary
281
     1
  0
ACDBDICTIONARYWDFLT
  5
615
102
{ACAD_REACTORS
330
C
102
}
330
C
100
AcDbDictionary
281
     1
  3
Normal
350
616
100
AcDbDictionaryWithDefault
340
616
  0
DICTIONARY
  5
A36
102
{ACAD_REACTORS
330
C
102
}
330
C
100
AcDbDictionary
281
     1
  3
A0
350
A37
  3
A1
350
A38
  3
A2
350
A39
  3
A3
350
A3A
  3
A4
350
A3B
  3
A5
350
A3C
  3
A6
350
A3D
  3
A7
350
A3E
  3
A8
350
A3F
  3
A9
350
A40
  3
B0
350
A41
  3
B1
350
A42
  3
B2
350
A43
  3
B3
350
A44
  3
B4
350
A45
  3
B5
350
A46
  3
B6
350
A47
  3
B7
350
A48
  3
B8
350
A49
  3
B9
350
A4A
  3
C0
350
A4B
  3
C1
350
A4C
  3
C2
350
A4D
  3
C3
350
A4E
  3
C4
350
A4F
  3
C5
350
A50
  3
C6
350
A51
  3
C7
350
A52
  3
C8
350
A53
  3
C9
350
A54
  3
D0
350
A55
  3
D1
350
A56
  3
D2
350
A57
  0
DICTIONARY
  5
168EAD
102
{ACAD_REACTORS
330
C
102
}
330
C
100
AcDbDictionary
281
     1
  3
Standard
350
168EAE
  0
DICTIONARY
  5
168E9B
102
{ACAD_REACTORS
330
C
102
}
330
C
100
AcDbDictionary
281
     1
  3
2dWireframe
350
168EA1
  3
3D Hidden
350
168EA3
  3
3dWireframe
350
168EA2
  3
Basic
350
168EA0
  3
Brighten
350
168EA7
  3
ColorChange
350
168EAB
  3
Conceptual
350
168EA4
  3
Dim
350
168EA6
  3
Facepattern
350
168EAA
  3
Flat
350
168E9C
  3
FlatWithEdges
350
168E9D
  3
Gouraud
350
168E9E
  3
GouraudWithEdges
350
168E9F
  3
Linepattern
350
168EA9
  3
Realistic
350
168EA5
  3
Thicken
350
168EA8
  0
XRECORD
  5
AB4
102
{ACAD_REACTORS
330
C
102
}
330
C
100
AcDbXrecord
280
     1
 90
   990106
  3
OPEN
 60
     0
 61
     0
 62
     1
 63
     3
 64
     1
 65
     0
 66
     0
 67
     3
 68
     1
 69
     0
 70
     0
 71
     0
 72
     0
 40
0.0
170
     2
  0
XRECORD
  5
168EB7
102
{ACAD_REACTORS
330
C
102
}
330
C
100
AcDbXrecord
280
     1
 90
        1
330
168EAE
  0
DICTIONARY
  5
6DE
102
{ACAD_REACTORS
330
C
102
}
330
C
100
AcDbDictionary
281
     1
  3
CANNOSCALE
350
168EB4
  3
CMLEADERSTYLE
350
168EB3
  3
CTABLESTYLE
350
168EB2
  3
DIMASSOC
350
6DF
  3
INDEXCTL
350
A93
  3
PROJECTNAME
350
6E0
  3
SORTENTS
350
A92
  0
DICTIONARY
  5
168E58
102
{ACAD_REACTORS
330
C
102
}
330
C
100
AcDbDictionary
281
     1
  0
XRECORD
  5
168EB8
102
{ACAD_REACTORS
330
C
102
}
330
C
100
AcDbXrecord
280
     1
  1
DWGPROPS COOKIE
  2

  3

  4

  6

  7

  8
SPAX
  9

300
=
301
=
302
=
303
=
304
=
305
=
306
=
307
=
308
=
309
=
 40
53.03051997685185
 41
2448636.61962963
 42
2457337.803812928
  1

 90
        0
  0
DICTIONARY
  5
8C0
102
{ACAD_REACTORS
330
8BF
102
}
330
8BF
100
AcDbDictionary
281
     1
  0
XRECORD
  5
A61
102
{ACAD_REACTORS
330
A60
102
}
330
A60
100
AcDbXrecord
280
     1
290
     1
  0
XRECORD
  5
A67
102
{ACAD_REACTORS
330
A66
102
}
330
A66
100
AcDbXrecord
280
     1
290
     1
  0
XRECORD
  5
A6F
102
{ACAD_REACTORS
330
A6E
102
}
330
A6E
100
AcDbXrecord
280
     1
290
     1
  0
XRECORD
  5
A73
102
{ACAD_REACTORS
330
A72
102
}
330
A72
100
AcDbXrecord
280
     1
290
     1
  0
SORTENTSTABLE
  5
1440
102
{ACAD_REACTORS
330
143F
102
}
330
143F
100
AcDbSortentsTable
330
18
331
F6D77
  5
F6D77
331
D0CC6
  5
D0CC6
331
F6D78
  5
F6D78
  0
LAYOUT
  5
619
102
{ACAD_XDICTIONARY
360
168EB9
102
}
102
{ACAD_REACTORS
330
617
102
}
330
617
100
AcDbPlotSettings
  1

  2
JUST PDF 2
  4
A4
  6

 40
3.174999952316283
 41
3.174999952316283
 42
3.175003051757812
 43
3.17498779296875
 44
209.8886566162109
 45
297.0530090332031
 46
14.27171755861536
 47
9.855173074625783
 48
5471.344184048215
 49
-7434.392105331577
140
5821.334621038029
141
-6892.406755054245
142
1.0
143
2.0
 70
  3748
 72
     1
 73
     0
 74
     4
  7
spax form.ctb
 75
    16
147
1.0
148
-5471.344184048215
149
7434.392105331577
100
AcDbLayout
  1
Model
 70
     1
 71
     0
 10
0.0
 20
0.0
 11
12.0
 21
9.0
 12
0.0
 22
0.0
 32
0.0
 14
5482.175567230892
 24
-7043.078072986515
 34
-0.0000000000000125
 15
5558.008900564225
 25
-6956.208167724942
 35
0.0000000000000274
146
0.0
 13
0.0
 23
0.0
 33
0.0
 16
1.0
 26
0.0
 36
0.0
 17
0.0
 27
1.0
 37
0.0
 76
     0
330
18
331
163876
1001
ACAD_PSEXT
1000
JUST PDF 2
1000
JUST PDF 2
1000
JUST PDF 2 Port:
1000

1070
     0
  0
LAYOUT
  5
61A
102
{ACAD_XDICTIONARY
360
168EBB
102
}
102
{ACAD_REACTORS
330
617
102
}
330
617
100
AcDbPlotSettings
  1

  2
Canon LASER SHOT LBP-750
  4

  6

 40
0.0
 41
0.0
 42
0.0
 43
0.0
 44
0.0
 45
0.0
 46
0.0
 47
0.0
 48
0.0
 49
0.0
140
0.0
141
0.0
142
1.0
143
1.0
 70
   688
 72
     0
 73
     0
 74
     5
  7
spax form.ctb
 75
    16
147
1.0
148
0.0
149
0.0
100
AcDbLayout
  1
ﾚｲｱｳﾄ1
 70
     0
 71
     1
 10
0.0
 20
0.0
 11
0.0
 21
0.0
 12
0.0
 22
0.0
 32
0.0
 14
1.000000000000000E+20
 24
1.000000000000000E+20
 34
1.000000000000000E+20
 15
-1.000000000000000E+20
 25
-1.000000000000000E+20
 35
-1.000000000000000E+20
146
0.0
 13
0.0
 23
0.0
 33
0.0
 16
1.0
 26
0.0
 36
0.0
 17
0.0
 27
1.0
 37
0.0
 76
     0
330
15
  0
MATERIAL
  5
168E8B
102
{ACAD_XDICTIONARY
360
168E8C
102
}
102
{ACAD_REACTORS
330
168E82
102
}
330
168E82
100
AcDbMaterial
  1
ByBlock
 72
     0
 43
0.0208333333333333
 43
0.0
 43
0.0
 43
0.0
 43
0.0
 43
0.0208333333333333
 43
0.0
 43
0.0
 43
0.0
 43
0.0
 43
1.0
 43
0.0
 43
0.0
 43
0.0
 43
0.0
 43
1.0
 77
     0
 47
0.0208333333333333
 47
0.0
 47
0.0
 47
0.0
 47
0.0
 47
0.0208333333333333
 47
0.0
 47
0.0
 47
0.0
 47
0.0
 47
1.0
 47
0.0
 47
0.0
 47
0.0
 47
0.0
 47
1.0
171
     0
 49
0.0208333333333333
 49
0.0
 49
0.0
 49
0.0
 49
0.0
 49
0.0208333333333333
 49
0.0
 49
0.0
 49
0.0
 49
0.0
 49
1.0
 49
0.0
 49
0.0
 49
0.0
 49
0.0
 49
1.0
175
     0
142
0.0208333333333333
142
0.0
142
0.0
142
0.0
142
0.0
142
0.0208333333333333
142
0.0
142
0.0
142
0.0
142
0.0
142
1.0
142
0.0
142
0.0
142
0.0
142
0.0
142
1.0
179
     0
144
0.0208333333333333
144
0.0
144
0.0
144
0.0
144
0.0
144
0.0208333333333333
144
0.0
144
0.0
144
0.0
144
0.0
144
1.0
144
0.0
144
0.0
144
0.0
144
0.0
144
1.0
147
0.0208333333333333
147
0.0
147
0.0
147
0.0
147
0.0
147
0.0208333333333333
147
0.0
147
0.0
147
0.0
147
0.0
147
1.0
147
0.0
147
0.0
147
0.0
147
0.0
147
1.0
  0
MATERIAL
  5
168E83
102
{ACAD_XDICTIONARY
360
168E84
102
}
102
{ACAD_REACTORS
330
168E82
102
}
330
168E82
100
AcDbMaterial
  1
ByLayer
 72
     0
 43
0.0208333333333333
 43
0.0
 43
0.0
 43
0.0
 43
0.0
 43
0.0208333333333333
 43
0.0
 43
0.0
 43
0.0
 43
0.0
 43
1.0
 43
0.0
 43
0.0
 43
0.0
 43
0.0
 43
1.0
 77
     0
 47
0.0208333333333333
 47
0.0
 47
0.0
 47
0.0
 47
0.0
 47
0.0208333333333333
 47
0.0
 47
0.0
 47
0.0
 47
0.0
 47
1.0
 47
0.0
 47
0.0
 47
0.0
 47
0.0
 47
1.0
171
     0
 49
0.0208333333333333
 49
0.0
 49
0.0
 49
0.0
 49
0.0
 49
0.0208333333333333
 49
0.0
 49
0.0
 49
0.0
 49
0.0
 49
1.0
 49
0.0
 49
0.0
 49
0.0
 49
0.0
 49
1.0
175
     0
142
0.0208333333333333
142
0.0
142
0.0
142
0.0
142
0.0
142
0.0208333333333333
142
0.0
142
0.0
142
0.0
142
0.0
142
1.0
142
0.0
142
0.0
142
0.0
142
0.0
142
1.0
179
     0
144
0.0208333333333333
144
0.0
144
0.0
144
0.0
144
0.0
144
0.0208333333333333
144
0.0
144
0.0
144
0.0
144
0.0
144
1.0
144
0.0
144
0.0
144
0.0
144
0.0
144
1.0
147
0.0208333333333333
147
0.0
147
0.0
147
0.0
147
0.0
147
0.0208333333333333
147
0.0
147
0.0
147
0.0
147
0.0
147
1.0
147
0.0
147
0.0
147
0.0
147
0.0
147
1.0
  0
MATERIAL
  5
168E93
102
{ACAD_XDICTIONARY
360
168E94
102
}
102
{ACAD_REACTORS
330
168E82
102
}
330
168E82
100
AcDbMaterial
  1
Global
 72
     0
 43
0.0208333333333333
 43
0.0
 43
0.0
 43
0.0
 43
0.0
 43
0.0208333333333333
 43
0.0
 43
0.0
 43
0.0
 43
0.0
 43
1.0
 43
0.0
 43
0.0
 43
0.0
 43
0.0
 43
1.0
 77
     0
 47
0.0208333333333333
 47
0.0
 47
0.0
 47
0.0
 47
0.0
 47
0.0208333333333333
 47
0.0
 47
0.0
 47
0.0
 47
0.0
 47
1.0
 47
0.0
 47
0.0
 47
0.0
 47
0.0
 47
1.0
171
     0
 49
0.0208333333333333
 49
0.0
 49
0.0
 49
0.0
 49
0.0
 49
0.0208333333333333
 49
0.0
 49
0.0
 49
0.0
 49
0.0
 49
1.0
 49
0.0
 49
0.0
 49
0.0
 49
0.0
 49
1.0
175
     0
142
0.0208333333333333
142
0.0
142
0.0
142
0.0
142
0.0
142
0.0208333333333333
142
0.0
142
0.0
142
0.0
142
0.0
142
1.0
142
0.0
142
0.0
142
0.0
142
0.0
142
1.0
179
     0
144
0.0208333333333333
144
0.0
144
0.0
144
0.0
144
0.0
144
0.0208333333333333
144
0.0
144
0.0
144
0.0
144
0.0
144
1.0
144
0.0
144
0.0
144
0.0
144
0.0
144
1.0
147
0.0208333333333333
147
0.0
147
0.0
147
0.0
147
0.0
147
0.0208333333333333
147
0.0
147
0.0
147
0.0
147
0.0
147
1.0
147
0.0
147
0.0
147
0.0
147
0.0
147
1.0
  0
MLEADERSTYLE
  5
168EB0
102
{ACAD_REACTORS
330
168EAF
102
}
330
168EAF
100
AcDbMLeaderStyle
170
     2
171
     1
172
     0
 90
        2
 40
0.0
 41
0.0
173
     1
 91
-1056964608
340
12
 92
       -2
290
     1
 42
0.09
291
     1
 43
0.36
  3
Standard
 44
0.18
300

342
10
174
     1
178
     6
175
     1
176
     0
 93
-1056964608
 45
0.18
292
     0
297
     0
 46
0.18
 94
-1056964608
 47
1.0
 49
1.0
140
1.0
293
     1
141
0.0
294
     1
177
     0
142
1.0
295
     0
296
     0
143
0.125
1001
ACAD_MLEADERVER
1070
     2
  0
MLINESTYLE
  5
1B
102
{ACAD_REACTORS
330
E
102
}
330
E
100
AcDbMlineStyle
  2
STANDARD
 70
     0
  3

 62
     0
 51
90.0
 52
90.0
 71
     2
 49
0.5
 62
   256
  6
BYLAYER
 49
-0.5
 62
   256
  6
BYLAYER
  0
ACDBPLACEHOLDER
  5
616
102
{ACAD_REACTORS
330
615
102
}
330
615
  0
SCALE
  5
A37
102
{ACAD_REACTORS
330
A36
102
}
330
A36
100
AcDbScale
 70
     0
300
1:1
140
1.0
141
1.0
290
     1
  0
SCALE
  5
A38
102
{ACAD_REACTORS
330
A36
102
}
330
A36
100
AcDbScale
 70
     0
300
1:2
140
1.0
141
2.0
290
     0
  0
SCALE
  5
A39
102
{ACAD_REACTORS
330
A36
102
}
330
A36
100
AcDbScale
 70
     0
300
1:4
140
1.0
141
4.0
290
     0
  0
SCALE
  5
A3A
102
{ACAD_REACTORS
330
A36
102
}
330
A36
100
AcDbScale
 70
     0
300
1:5
140
1.0
141
5.0
290
     0
  0
SCALE
  5
A3B
102
{ACAD_REACTORS
330
A36
102
}
330
A36
100
AcDbScale
 70
     0
300
1:8
140
1.0
141
8.0
290
     0
  0
SCALE
  5
A3C
102
{ACAD_REACTORS
330
A36
102
}
330
A36
100
AcDbScale
 70
     0
300
1:10
140
1.0
141
10.0
290
     0
  0
SCALE
  5
A3D
102
{ACAD_REACTORS
330
A36
102
}
330
A36
100
AcDbScale
 70
     0
300
1:16
140
1.0
141
16.0
290
     0
  0
SCALE
  5
A3E
102
{ACAD_REACTORS
330
A36
102
}
330
A36
100
AcDbScale
 70
     0
300
1:20
140
1.0
141
20.0
290
     0
  0
SCALE
  5
A3F
102
{ACAD_REACTORS
330
A36
102
}
330
A36
100
AcDbScale
 70
     0
300
1:30
140
1.0
141
30.0
290
     0
  0
SCALE
  5
A40
102
{ACAD_REACTORS
330
A36
102
}
330
A36
100
AcDbScale
 70
     0
300
1:40
140
1.0
141
40.0
290
     0
  0
SCALE
  5
A41
102
{ACAD_REACTORS
330
A36
102
}
330
A36
100
AcDbScale
 70
     0
300
1:50
140
1.0
141
50.0
290
     0
  0
SCALE
  5
A42
102
{ACAD_REACTORS
330
A36
102
}
330
A36
100
AcDbScale
 70
     0
300
1:100
140
1.0
141
100.0
290
     0
  0
SCALE
  5
A43
102
{ACAD_REACTORS
330
A36
102
}
330
A36
100
AcDbScale
 70
     0
300
2:1
140
2.0
141
1.0
290
     0
  0
SCALE
  5
A44
102
{ACAD_REACTORS
330
A36
102
}
330
A36
100
AcDbScale
 70
     0
300
4:1
140
4.0
141
1.0
290
     0
  0
SCALE
  5
A45
102
{ACAD_REACTORS
330
A36
102
}
330
A36
100
AcDbScale
 70
     0
300
8:1
140
8.0
141
1.0
290
     0
  0
SCALE
  5
A46
102
{ACAD_REACTORS
330
A36
102
}
330
A36
100
AcDbScale
 70
     0
300
10:1
140
10.0
141
1.0
290
     0
  0
SCALE
  5
A47
102
{ACAD_REACTORS
330
A36
102
}
330
A36
100
AcDbScale
 70
     0
300
100:1
140
100.0
141
1.0
290
     0
  0
SCALE
  5
A48
102
{ACAD_REACTORS
330
A36
102
}
330
A36
100
AcDbScale
 70
     0
300
1/128" = 1'-0"
140
0.0078125
141
12.0
290
     0
  0
SCALE
  5
A49
102
{ACAD_REACTORS
330
A36
102
}
330
A36
100
AcDbScale
 70
     0
300
1/64" = 1'-0"
140
0.015625
141
12.0
290
     0
  0
SCALE
  5
A4A
102
{ACAD_REACTORS
330
A36
102
}
330
A36
100
AcDbScale
 70
     0
300
1/32" = 1'-0"
140
0.03125
141
12.0
290
     0
  0
SCALE
  5
A4B
102
{ACAD_REACTORS
330
A36
102
}
330
A36
100
AcDbScale
 70
     0
300
1/16" = 1'-0"
140
0.0625
141
12.0
290
     0
  0
SCALE
  5
A4C
102
{ACAD_REACTORS
330
A36
102
}
330
A36
100
AcDbScale
 70
     0
300
3/32" = 1'-0"
140
0.09375
141
12.0
290
     0
  0
SCALE
  5
A4D
102
{ACAD_REACTORS
330
A36
102
}
330
A36
100
AcDbScale
 70
     0
300
1/8" = 1'-0"
140
0.125
141
12.0
290
     0
  0
SCALE
  5
A4E
102
{ACAD_REACTORS
330
A36
102
}
330
A36
100
AcDbScale
 70
     0
300
3/16" = 1'-0"
140
0.1875
141
12.0
290
     0
  0
SCALE
  5
A4F
102
{ACAD_REACTORS
330
A36
102
}
330
A36
100
AcDbScale
 70
     0
300
1/4" = 1'-0"
140
0.25
141
12.0
290
     0
  0
SCALE
  5
A50
102
{ACAD_REACTORS
330
A36
102
}
330
A36
100
AcDbScale
 70
     0
300
3/8" = 1'-0"
140
0.375
141
12.0
290
     0
  0
SCALE
  5
A51
102
{ACAD_REACTORS
330
A36
102
}
330
A36
100
AcDbScale
 70
     0
300
1/2" = 1'-0"
140
0.5
141
12.0
290
     0
  0
SCALE
  5
A52
102
{ACAD_REACTORS
330
A36
102
}
330
A36
100
AcDbScale
 70
     0
300
3/4" = 1'-0"
140
0.75
141
12.0
290
     0
  0
SCALE
  5
A53
102
{ACAD_REACTORS
330
A36
102
}
330
A36
100
AcDbScale
 70
     0
300
1" = 1'-0"
140
1.0
141
12.0
290
     0
  0
SCALE
  5
A54
102
{ACAD_REACTORS
330
A36
102
}
330
A36
100
AcDbScale
 70
     0
300
1-1/2" = 1'-0"
140
1.5
141
12.0
290
     0
  0
SCALE
  5
A55
102
{ACAD_REACTORS
330
A36
102
}
330
A36
100
AcDbScale
 70
     0
300
3" = 1'-0"
140
3.0
141
12.0
290
     0
  0
SCALE
  5
A56
102
{ACAD_REACTORS
330
A36
102
}
330
A36
100
AcDbScale
 70
     0
300
6" = 1'-0"
140
6.0
141
12.0
290
     0
  0
SCALE
  5
A57
102
{ACAD_REACTORS
330
A36
102
}
330
A36
100
AcDbScale
 70
     0
300
1'-0" = 1'-0"
140
12.0
141
12.0
290
     0
  0
TABLESTYLE
  5
168EAE
102
{ACAD_XDICTIONARY
360
168EB5
102
}
102
{ACAD_REACTORS
330
168EAD
102
}
330
168EAD
100
AcDbTableStyle
  3
Standard
 70
     0
 71
     0
 40
0.06
 41
0.06
280
     0
281
     0
  7
STANDARD
140
0.18
170
     2
 62
     0
 63
     7
283
     0
274
    -2
284
     1
 64
     0
275
    -2
285
     1
 65
     0
276
    -2
286
     1
 66
     0
277
    -2
287
     1
 67
     0
278
    -2
288
     1
 68
     0
279
    -2
289
     1
 69
     0
  7
STANDARD
140
0.25
170
     5
 62
     0
 63
     7
283
     0
274
    -2
284
     1
 64
     0
275
    -2
285
     1
 65
     0
276
    -2
286
     1
 66
     0
277
    -2
287
     1
 67
     0
278
    -2
288
     1
 68
     0
279
    -2
289
     1
 69
     0
  7
STANDARD
140
0.18
170
     5
 62
     0
 63
     7
283
     0
274
    -2
284
     1
 64
     0
275
    -2
285
     1
 65
     0
276
    -2
286
     1
 66
     0
277
    -2
287
     1
 67
     0
278
    -2
288
     1
 68
     0
279
    -2
289
     1
 69
     0
  0
VISUALSTYLE
  5
168EA1
102
{ACAD_REACTORS
330
168E9B
102
}
330
168E9B
100
AcDbVisualStyle
  2
2dWireframe
 70
     4
 71
     0
 72
     2
 73
     0
 90
        0
 40
-0.6
 41
-30.0
 62
     5
 63
     7
 74
     1
 91
        4
 64
     7
 65
   257
 75
     1
175
     1
 42
1.0
 92
        0
 66
   257
 43
1.0
 76
     1
 77
     6
 78
     2
 67
     7
 79
     5
170
     0
171
     0
290
     0
174
     0
 93
        1
 44
0.0
173
     0
291
     0
 45
0.0
1001
ACAD
1000
AcDbSavedByObjectVersion
1070
     0
  0
VISUALSTYLE
  5
168EA3
102
{ACAD_REACTORS
330
168E9B
102
}
330
168E9B
100
AcDbVisualStyle
  2
3D Hidden
 70
     6
 71
     1
 72
     2
 73
     2
 90
        0
 40
-0.6
 41
-30.0
 62
     5
 63
     7
 74
     2
 91
        2
 64
     7
 65
   257
 75
     2
175
     1
 42
40.0
 92
        0
 66
   257
 43
1.0
 76
     1
 77
     6
 78
     2
 67
     7
 79
     3
170
     0
171
     0
290
     0
174
     0
 93
        1
 44
0.0
173
     0
291
     0
 45
0.0
1001
ACAD
1000
AcDbSavedByObjectVersion
1070
     0
  0
VISUALSTYLE
  5
168EA2
102
{ACAD_REACTORS
330
168E9B
102
}
330
168E9B
100
AcDbVisualStyle
  2
3dWireframe
 70
     5
 71
     0
 72
     2
 73
     0
 90
        0
 40
-0.6
 41
-30.0
 62
     5
 63
     7
 74
     1
 91
        4
 64
     7
 65
   257
 75
     1
175
     1
 42
1.0
 92
        0
 66
   257
 43
1.0
 76
     1
 77
     6
 78
     2
 67
     7
 79
     5
170
     0
171
     0
290
     0
174
     0
 93
        1
 44
0.0
173
     0
291
     0
 45
0.0
1001
ACAD
1000
AcDbSavedByObjectVersion
1070
     0
  0
VISUALSTYLE
  5
168EA0
102
{ACAD_REACTORS
330
168E9B
102
}
330
168E9B
100
AcDbVisualStyle
  2
Basic
 70
     7
 71
     1
 72
     0
 73
     1
 90
        0
 40
-0.6
 41
-30.0
 62
     5
 63
     7
 74
     0
 91
        4
 64
     7
 65
   257
 75
     1
175
     1
 42
1.0
 92
        8
 66
     7
 43
1.0
 76
     1
 77
     6
 78
     2
 67
     7
 79
     5
170
     0
171
     0
290
     0
174
     0
 93
        1
 44
0.0
173
     0
291
     1
 45
0.0
1001
ACAD
1000
AcDbSavedByObjectVersion
1070
     0
  0
VISUALSTYLE
  5
168EA7
102
{ACAD_REACTORS
330
168E9B
102
}
330
168E9B
100
AcDbVisualStyle
  2
Brighten
 70
    12
 71
     2
 72
     2
 73
     0
 90
        0
 40
-0.6
 41
-30.0
 62
     5
 63
     7
 74
     1
 91
        4
 64
     7
 65
   257
 75
     1
175
     1
 42
1.0
 92
        8
 66
     7
 43
1.0
 76
     1
 77
     6
 78
     2
 67
     7
 79
     5
170
     0
171
     0
290
     0
174
     0
 93
        1
 44
50.0
173
     0
291
     1
 45
0.0
1001
ACAD
1000
AcDbSavedByObjectVersion
1070
     0
  0
VISUALSTYLE
  5
168EAB
102
{ACAD_REACTORS
330
168E9B
102
}
330
168E9B
100
AcDbVisualStyle
  2
ColorChange
 70
    16
 71
     2
 72
     2
 73
     3
 90
        0
 40
-0.6
 41
-30.0
 62
     5
 63
     8
 74
     1
 91
        4
 64
     7
 65
   257
 75
     1
175
     1
 42
1.0
 92
        8
 66
     8
 43
1.0
 76
     1
 77
     6
 78
     2
 67
     7
 79
     5
170
     0
171
     0
290
     0
174
     0
 93
        1
 44
0.0
173
     0
291
     1
 45
0.0
1001
ACAD
1000
AcDbSavedByObjectVersion
1070
     0
  0
VISUALSTYLE
  5
168EA4
102
{ACAD_REACTORS
330
168E9B
102
}
330
168E9B
100
AcDbVisualStyle
  2
Conceptual
 70
     9
 71
     3
 72
     2
 73
     0
 90
        0
 40
-0.6
 41
-30.0
 62
     5
 63
     7
 74
     2
 91
        2
 64
     7
 65
   257
 75
     1
175
     1
 42
40.0
 92
        8
 66
     7
 43
1.0
 76
     1
 77
     6
 78
     2
 67
     7
 79
     3
170
     0
171
     0
290
     0
174
     0
 93
        1
 44
0.0
173
     0
291
     0
 45
0.0
1001
ACAD
1000
AcDbSavedByObjectVersion
1070
     0
  0
VISUALSTYLE
  5
168EA6
102
{ACAD_REACTORS
330
168E9B
102
}
330
168E9B
100
AcDbVisualStyle
  2
Dim
 70
    11
 71
     2
 72
     2
 73
     0
 90
        0
 40
-0.6
 41
-30.0
 62
     5
 63
     7
 74
     1
 91
        4
 64
     7
 65
   257
 75
     1
175
     1
 42
1.0
 92
        8
 66
     7
 43
1.0
 76
     1
 77
     6
 78
     2
 67
     7
 79
     5
170
     0
171
     0
290
     0
174
     0
 93
        1
 44
-50.0
173
     0
291
     1
 45
0.0
1001
ACAD
1000
AcDbSavedByObjectVersion
1070
     0
  0
VISUALSTYLE
  5
168EAA
102
{ACAD_REACTORS
330
168E9B
102
}
330
168E9B
100
AcDbVisualStyle
  2
Facepattern
 70
    15
 71
     2
 72
     2
 73
     0
 90
        0
 40
-0.6
 41
-30.0
 62
     5
 63
     7
 74
     1
 91
        4
 64
     7
 65
   257
 75
     1
175
     1
 42
1.0
 92
        8
 66
     7
 43
1.0
 76
     1
 77
     6
 78
     2
 67
     7
 79
     5
170
     0
171
     0
290
     0
174
     0
 93
        1
 44
0.0
173
     0
291
     1
 45
0.0
1001
ACAD
1000
AcDbSavedByObjectVersion
1070
     0
  0
VISUALSTYLE
  5
168E9C
102
{ACAD_REACTORS
330
168E9B
102
}
330
168E9B
100
AcDbVisualStyle
  2
Flat
 70
     0
 71
     2
 72
     1
 73
     1
 90
        2
 40
-0.6
 41
30.0
 62
     5
 63
     7
 74
     0
 91
        4
 64
     7
 65
   257
 75
     1
175
     1
 42
1.0
 92
        8
 66
     7
 43
1.0
 76
     1
 77
     6
 78
     2
 67
     7
 79
     5
170
     0
171
     0
290
     0
174
     0
 93
       13
 44
0.0
173
     0
291
     1
 45
0.0
1001
ACAD
1000
AcDbSavedByObjectVersion
1070
     0
  0
VISUALSTYLE
  5
168E9D
102
{ACAD_REACTORS
330
168E9B
102
}
330
168E9B
100
AcDbVisualStyle
  2
FlatWithEdges
 70
     1
 71
     2
 72
     1
 73
     1
 90
        2
 40
-0.6
 41
30.0
 62
     5
 63
     7
 74
     1
 91
        4
 64
     7
 65
   257
 75
     1
175
     1
 42
1.0
 92
        0
 66
   257
 43
1.0
 76
     1
 77
     6
 78
     2
 67
     7
 79
     5
170
     0
171
     0
290
     0
174
     0
 93
       13
 44
0.0
173
     0
291
     1
 45
0.0
1001
ACAD
1000
AcDbSavedByObjectVersion
1070
     0
  0
VISUALSTYLE
  5
168E9E
102
{ACAD_REACTORS
330
168E9B
102
}
330
168E9B
100
AcDbVisualStyle
  2
Gouraud
 70
     2
 71
     2
 72
     2
 73
     1
 90
        2
 40
-0.6
 41
30.0
 62
     5
 63
     7
 74
     0
 91
        4
 64
     7
 65
   257
 75
     1
175
     1
 42
1.0
 92
        0
 66
     7
 43
1.0
 76
     1
 77
     6
 78
     2
 67
     7
 79
     5
170
     0
171
     0
290
     0
174
     0
 93
       13
 44
0.0
173
     0
291
     1
 45
0.0
1001
ACAD
1000
AcDbSavedByObjectVersion
1070
     0
  0
VISUALSTYLE
  5
168E9F
102
{ACAD_REACTORS
330
168E9B
102
}
330
168E9B
100
AcDbVisualStyle
  2
GouraudWithEdges
 70
     3
 71
     2
 72
     2
 73
     1
 90
        2
 40
-0.6
 41
30.0
 62
     5
 63
     7
 74
     1
 91
        4
 64
     7
 65
   257
 75
     1
175
     1
 42
1.0
 92
        0
 66
   257
 43
1.0
 76
     1
 77
     6
 78
     2
 67
     7
 79
     5
170
     0
171
     0
290
     0
174
     0
 93
       13
 44
0.0
173
     0
291
     1
 45
0.0
1001
ACAD
1000
AcDbSavedByObjectVersion
1070
     0
  0
VISUALSTYLE
  5
168EA9
102
{ACAD_REACTORS
330
168E9B
102
}
330
168E9B
100
AcDbVisualStyle
  2
Linepattern
 70
    14
 71
     2
 72
     2
 73
     0
 90
        0
 40
-0.6
 41
-30.0
 62
     5
 63
     7
 74
     1
 91
        4
 64
     7
 65
   257
 75
     7
175
     7
 42
1.0
 92
        8
 66
     7
 43
1.0
 76
     1
 77
     6
 78
     2
 67
     7
 79
     5
170
     0
171
     0
290
     0
174
     0
 93
        1
 44
0.0
173
     0
291
     1
 45
0.0
1001
ACAD
1000
AcDbSavedByObjectVersion
1070
     0
  0
VISUALSTYLE
  5
168EA5
102
{ACAD_REACTORS
330
168E9B
102
}
330
168E9B
100
AcDbVisualStyle
  2
Realistic
 70
     8
 71
     2
 72
     2
 73
     0
 90
        0
 40
-0.6
 41
-30.0
 62
     5
 63
     7
 74
     1
 91
        0
 64
     7
 65
   257
 75
     1
175
     1
 42
1.0
 92
        8
 66
     8
 43
1.0
 76
     1
 77
     6
 78
     2
 67
     7
 79
     5
170
     0
171
     0
290
     0
174
     0
 93
       13
 44
0.0
173
     0
291
     0
 45
0.0
1001
ACAD
1000
AcDbSavedByObjectVersion
1070
     0
  0
VISUALSTYLE
  5
168EA8
102
{ACAD_REACTORS
330
168E9B
102
}
330
168E9B
100
AcDbVisualStyle
  2
Thicken
 70
    13
 71
     2
 72
     2
 73
     0
 90
        0
 40
-0.6
 41
-30.0
 62
     5
 63
     7
 74
     1
 91
        4
 64
     7
 65
   257
 75
     1
175
     1
 42
1.0
 92
       12
 66
     7
 43
1.0
 76
     1
 77
     6
 78
     2
 67
     7
 79
     5
170
     0
171
     0
290
     0
174
     0
 93
        1
 44
0.0
173
     0
291
     1
 45
0.0
1001
ACAD
1000
AcDbSavedByObjectVersion
1070
     0
  0
DICTIONARYVAR
  5
168EB4
102
{ACAD_REACTORS
330
6DE
102
}
330
6DE
100
DictionaryVariables
280
     0
  1
1:1
  0
DICTIONARYVAR
  5
168EB3
102
{ACAD_REACTORS
330
6DE
102
}
330
6DE
100
DictionaryVariables
280
     0
  1
STANDARD
  0
DICTIONARYVAR
  5
168EB2
102
{ACAD_REACTORS
330
6DE
102
}
330
6DE
100
DictionaryVariables
280
     0
  1
STANDARD
  0
DICTIONARYVAR
  5
6DF
102
{ACAD_REACTORS
330
6DE
102
}
330
6DE
100
DictionaryVariables
280
     0
  1
1
  0
DICTIONARYVAR
  5
A93
102
{ACAD_REACTORS
330
6DE
102
}
330
6DE
100
DictionaryVariables
280
     0
  1
0
  0
DICTIONARYVAR
  5
6E0
102
{ACAD_REACTORS
330
6DE
102
}
330
6DE
100
DictionaryVariables
280
     0
  1

  0
DICTIONARYVAR
  5
A92
102
{ACAD_REACTORS
330
6DE
102
}
330
6DE
100
DictionaryVariables
280
     0
  1
127
  0
DICTIONARY
  5
168EB9
330
619
100
AcDbDictionary
280
     1
281
     1
  3
ACAD_XREC_ROUNDTRIP
360
168EBA
  0
DICTIONARY
  5
168EBB
330
61A
100
AcDbDictionary
280
     1
281
     1
  3
ACAD_XREC_ROUNDTRIP
360
168EBC
  0
DICTIONARY
  5
168E8C
330
168E8B
100
AcDbDictionary
280
     1
281
     1
  3
ACAD_XREC_ROUNDTRIP
360
168EBE
  3
BUMPTILE
360
168E8E
  3
DIFFUSETILE
360
168E8D
  3
OPACITYTILE
360
168E91
  3
REFLECTIONTILE
360
168E90
  3
REFRACTIONTILE
360
168E92
  3
SPECULARTILE
360
168E8F
  0
DICTIONARY
  5
168E84
330
168E83
100
AcDbDictionary
280
     1
281
     1
  3
ACAD_XREC_ROUNDTRIP
360
168EBD
  3
BUMPTILE
360
168E86
  3
DIFFUSETILE
360
168E85
  3
OPACITYTILE
360
168E89
  3
REFLECTIONTILE
360
168E88
  3
REFRACTIONTILE
360
168E8A
  3
SPECULARTILE
360
168E87
  0
DICTIONARY
  5
168E94
330
168E93
100
AcDbDictionary
280
     1
281
     1
  3
ACAD_XREC_ROUNDTRIP
360
168EBF
  3
BUMPTILE
360
168E96
  3
DIFFUSETILE
360
168E95
  3
OPACITYTILE
360
168E99
  3
REFLECTIONTILE
360
168E98
  3
REFRACTIONTILE
360
168E9A
  3
SPECULARTILE
360
168E97
  0
DICTIONARY
  5
168EB5
330
168EAE
100
AcDbDictionary
280
     1
281
     1
  3
ACAD_ROUNDTRIP_2008_TABLESTYLE_CELLSTYLEMAP
360
168EB6
  3
ACAD_XREC_ROUNDTRIP
360
168EC0
  0
XRECORD
  5
168EBA
102
{ACAD_REACTORS
330
168EB9
102
}
330
168EB9
100
AcDbXrecord
280
     1
102
SHADEPLOT
 70
     0
102
SHADEPLOTRESLEVEL
 70
     2
102
SHADEPLOTCUSTOMDPI
 70
   300
  0
XRECORD
  5
168EBC
102
{ACAD_REACTORS
330
168EBB
102
}
330
168EBB
100
AcDbXrecord
280
     1
102
SHADEPLOT
 70
     0
102
SHADEPLOTRESLEVEL
 70
     2
102
SHADEPLOTCUSTOMDPI
 70
   300
  0
XRECORD
  5
168EBE
102
{ACAD_REACTORS
330
168E8C
102
}
330
168E8C
100
AcDbXrecord
280
     1
102
MATERIAL
148
0.0
149
0.0
149
0.0
 93
        0
 94
      127
282
     0
 72
     0
 77
     0
171
     0
175
     0
179
     0
273
     0
  0
XRECORD
  5
168E8E
102
{ACAD_REACTORS
330
168E8C
102
}
330
168E8C
100
AcDbXrecord
280
     1
270
     1
271
     1
  0
XRECORD
  5
168E8D
102
{ACAD_REACTORS
330
168E8C
102
}
330
168E8C
100
AcDbXrecord
280
     1
270
     1
271
     1
  0
XRECORD
  5
168E91
102
{ACAD_REACTORS
330
168E8C
102
}
330
168E8C
100
AcDbXrecord
280
     1
270
     1
271
     1
  0
XRECORD
  5
168E90
102
{ACAD_REACTORS
330
168E8C
102
}
330
168E8C
100
AcDbXrecord
280
     1
270
     1
271
     1
  0
XRECORD
  5
168E92
102
{ACAD_REACTORS
330
168E8C
102
}
330
168E8C
100
AcDbXrecord
280
     1
270
     1
271
     1
  0
XRECORD
  5
168E8F
102
{ACAD_REACTORS
330
168E8C
102
}
330
168E8C
100
AcDbXrecord
280
     1
270
     1
271
     1
  0
XRECORD
  5
168EBD
102
{ACAD_REACTORS
330
168E84
102
}
330
168E84
100
AcDbXrecord
280
     1
102
MATERIAL
148
0.0
149
0.0
149
0.0
 93
        0
 94
      127
282
     0
 72
     0
 77
     0
171
     0
175
     0
179
     0
273
     0
  0
XRECORD
  5
168E86
102
{ACAD_REACTORS
330
168E84
102
}
330
168E84
100
AcDbXrecord
280
     1
270
     1
271
     1
  0
XRECORD
  5
168E85
102
{ACAD_REACTORS
330
168E84
102
}
330
168E84
100
AcDbXrecord
280
     1
270
     1
271
     1
  0
XRECORD
  5
168E89
102
{ACAD_REACTORS
330
168E84
102
}
330
168E84
100
AcDbXrecord
280
     1
270
     1
271
     1
  0
XRECORD
  5
168E88
102
{ACAD_REACTORS
330
168E84
102
}
330
168E84
100
AcDbXrecord
280
     1
270
     1
271
     1
  0
XRECORD
  5
168E8A
102
{ACAD_REACTORS
330
168E84
102
}
330
168E84
100
AcDbXrecord
280
     1
270
     1
271
     1
  0
XRECORD
  5
168E87
102
{ACAD_REACTORS
330
168E84
102
}
330
168E84
100
AcDbXrecord
280
     1
270
     1
271
     1
  0
XRECORD
  5
168EBF
102
{ACAD_REACTORS
330
168E94
102
}
330
168E94
100
AcDbXrecord
280
     1
102
MATERIAL
148
0.0
149
0.0
149
0.0
 93
        0
 94
      127
282
     0
 72
     0
 77
     0
171
     0
175
     0
179
     0
273
     0
  0
XRECORD
  5
168E96
102
{ACAD_REACTORS
330
168E94
102
}
330
168E94
100
AcDbXrecord
280
     1
270
     1
271
     1
  0
XRECORD
  5
168E95
102
{ACAD_REACTORS
330
168E94
102
}
330
168E94
100
AcDbXrecord
280
     1
270
     1
271
     1
  0
XRECORD
  5
168E99
102
{ACAD_REACTORS
330
168E94
102
}
330
168E94
100
AcDbXrecord
280
     1
270
     1
271
     1
  0
XRECORD
  5
168E98
102
{ACAD_REACTORS
330
168E94
102
}
330
168E94
100
AcDbXrecord
280
     1
270
     1
271
     1
  0
XRECORD
  5
168E9A
102
{ACAD_REACTORS
330
168E94
102
}
330
168E94
100
AcDbXrecord
280
     1
270
     1
271
     1
  0
XRECORD
  5
168E97
102
{ACAD_REACTORS
330
168E94
102
}
330
168E94
100
AcDbXrecord
280
     1
270
     1
271
     1
  0
CELLSTYLEMAP
  5
168EB6
102
{ACAD_REACTORS
330
168EB5
102
}
330
168EB5
100
AcDbCellStyleMap
 90
        3
300
CELLSTYLE
  1
TABLEFORMAT_BEGIN
 90
        5
170
     1
 91
        0
 92
    32768
 62
   257
 93
        1
300
CONTENTFORMAT
  1
CONTENTFORMAT_BEGIN
 90
        0
 91
        0
 92
      512
 93
        0
300

 40
0.0
140
1.0
 94
        5
 62
     0
340
10
144
0.25
309
CONTENTFORMAT_END
171
     0
 94
        0
309
TABLEFORMAT_END
  1
CELLSTYLE_BEGIN
 90
        1
 91
        1
300
_TITLE
309
CELLSTYLE_END
300
CELLSTYLE
  1
TABLEFORMAT_BEGIN
 90
        5
170
     1
 91
        0
 92
        0
 62
   257
 93
        1
300
CONTENTFORMAT
  1
CONTENTFORMAT_BEGIN
 90
        0
 91
        0
 92
      512
 93
        0
300

 40
0.0
140
1.0
 94
        5
 62
     0
340
10
144
0.18
309
CONTENTFORMAT_END
171
     0
 94
        0
309
TABLEFORMAT_END
  1
CELLSTYLE_BEGIN
 90
        2
 91
        1
300
_HEADER
309
CELLSTYLE_END
300
CELLSTYLE
  1
TABLEFORMAT_BEGIN
 90
        5
170
     1
 91
        0
 92
        0
 62
   257
 93
        1
300
CONTENTFORMAT
  1
CONTENTFORMAT_BEGIN
 90
        0
 91
        0
 92
      512
 93
        0
300

 40
0.0
140
1.0
 94
        2
 62
     0
340
10
144
0.18
309
CONTENTFORMAT_END
171
     0
 94
        0
309
TABLEFORMAT_END
  1
CELLSTYLE_BEGIN
 90
        3
 91
        2
300
_DATA
309
CELLSTYLE_END
  0
XRECORD
  5
168EC0
102
{ACAD_REACTORS
330
168EB5
102
}
330
168EB5
100
AcDbXrecord
280
     1
102
ACAD_ROUNDTRIP_PRE2007_TABLESTYLE
 90
      512
 91
        0
  1

 92
      512
 93
        0
  2

 94
      512
 95
        0
  3

  0
ENDSEC
  0
EOF
