  0
SECTION
  2
HEADER
  9
$ACADVER
  1
AC1015
  9
$ACADMAINTVER
 70
     6
  9
$DWGCODEPAGE
  3
ANSI_932
  9
$INSBASE
 10
0.0
 20
0.0
 30
0.0
  9
$EXTMIN
 10
5444.67406244697
 20
-7642.766442236936
 30
0.0
  9
$EXTMAX
 10
5520.507395780303
 20
-7553.302660599652
 30
0.0
  9
$LIMMIN
 10
0.0
 20
0.0
  9
$LIMMAX
 10
420.0
 20
297.0
  9
$ORTHOMODE
 70
     1
  9
$REGENMODE
 70
     1
  9
$FILLMODE
 70
     1
  9
$QTEXTMODE
 70
     0
  9
$MIRRTEXT
 70
     1
  9
$LTSCALE
 40
5.0
  9
$ATTMODE
 70
     0
  9
$TEXTSIZE
 40
53.44730959687513
  9
$TRACEWID
 40
1.0
  9
$TEXTSTYLE
  7
STANDARD
  9
$CLAYER
  8
寸法線
  9
$CELTYPE
  6
BYLAYER
  9
$CECOLOR
 62
   256
  9
$CELTSCALE
 40
1.0
  9
$DISPSILH
 70
     0
  9
$DIMSCALE
 40
1.0
  9
$DIMASZ
 40
2.5
  9
$DIMEXO
 40
1.5
  9
$DIMDLI
 40
0.38
  9
$DIMRND
 40
0.0
  9
$DIMDLE
 40
0.0
  9
$DIMEXE
 40
1.0
  9
$DIMTP
 40
0.0
  9
$DIMTM
 40
0.0
  9
$DIMTXT
 40
2.500000000000003
  9
$DIMCEN
 40
0.0
  9
$DIMTSZ
 40
0.0
  9
$DIMTOL
 70
     0
  9
$DIMLIM
 70
     0
  9
$DIMTIH
 70
     0
  9
$DIMTOH
 70
     0
  9
$DIMSE1
 70
     0
  9
$DIMSE2
 70
     0
  9
$DIMTAD
 70
     3
  9
$DIMZIN
 70
     8
  9
$DIMBLK
  1

  9
$DIMASO
 70
     1
  9
$DIMSHO
 70
     0
  9
$DIMPOST
  1

  9
$DIMAPOST
  1

  9
$DIMALT
 70
     0
  9
$DIMALTD
 70
     0
  9
$DIMALTF
 40
25.4
  9
$DIMLFAC
 40
1.0
  9
$DIMTOFL
 70
     1
  9
$DIMTVP
 40
0.0
  9
$DIMTIX
 70
     0
  9
$DIMSOXD
 70
     0
  9
$DIMSAH
 70
     1
  9
$DIMBLK1
  1
OPEN
  9
$DIMBLK2
  1
OPEN
  9
$DIMSTYLE
  2
STANDARD
  9
$DIMCLRD
 70
     8
  9
$DIMCLRE
 70
     8
  9
$DIMCLRT
 70
   256
  9
$DIMTFAC
 40
1.0
  9
$DIMGAP
 40
1.0
  9
$DIMJUST
 70
     0
  9
$DIMSD1
 70
     0
  9
$DIMSD2
 70
     0
  9
$DIMTOLJ
 70
     1
  9
$DIMTZIN
 70
     0
  9
$DIMALTZ
 70
     0
  9
$DIMALTTZ
 70
     0
  9
$DIMUPT
 70
     0
  9
$DIMDEC
 70
     2
  9
$DIMTDEC
 70
     2
  9
$DIMALTU
 70
     2
  9
$DIMALTTD
 70
     0
  9
$DIMTXSTY
  7
STANDARD
  9
$DIMAUNIT
 70
     0
  9
$DIMADEC
 70
     2
  9
$DIMALTRND
 40
0.0
  9
$DIMAZIN
 70
     2
  9
$DIMDSEP
 70
    46
  9
$DIMATFIT
 70
     1
  9
$DIMFRAC
 70
     0
  9
$DIMLDRBLK
  1
OPEN
  9
$DIMLUNIT
 70
     2
  9
$DIMLWD
 70
    -2
  9
$DIMLWE
 70
    -2
  9
$DIMTMOVE
 70
     0
  9
$LUNITS
 70
     2
  9
$LUPREC
 70
     2
  9
$SKETCHINC
 40
0.1
  9
$FILLETRAD
 40
7.0
  9
$AUNITS
 70
     0
  9
$AUPREC
 70
     1
  9
$MENU
  1
FM
  9
$ELEVATION
 40
0.0
  9
$PELEVATION
 40
0.0
  9
$THICKNESS
 40
0.0
  9
$LIMCHECK
 70
     0
  9
$CHAMFERA
 40
0.0
  9
$CHAMFERB
 40
0.0
  9
$CHAMFERC
 40
0.0
  9
$CHAMFERD
 40
0.0
  9
$SKPOLY
 70
     0
  9
$TDCREATE
 40
2448636.619629629
  9
$TDUCREATE
 40
2448636.244629629
  9
$TDUPDATE
 40
2456821.57108346
  9
$TDUUPDATE
 40
2456821.19608346
  9
$TDINDWG
 40
53.021016412
  9
$TDUSRTIMER
 40
2456821.195891898
  9
$USRTIMER
 70
     1
  9
$ANGBASE
 50
0.0
  9
$ANGDIR
 70
     0
  9
$PDMODE
 70
     3
  9
$PDSIZE
 40
0.0
  9
$PLINEWID
 40
0.0
  9
$SPLFRAME
 70
     0
  9
$SPLINETYPE
 70
     6
  9
$SPLINESEGS
 70
     8
  9
$HANDSEED
  5
168827
  9
$SURFTAB1
 70
     6
  9
$SURFTAB2
 70
     6
  9
$SURFTYPE
 70
     6
  9
$SURFU
 70
     6
  9
$SURFV
 70
     6
  9
$UCSBASE
  2

  9
$UCSNAME
  2

  9
$UCSORG
 10
0.0
 20
0.0
 30
0.0
  9
$UCSXDIR
 10
1.0
 20
0.0
 30
0.0
  9
$UCSYDIR
 10
0.0
 20
1.0
 30
0.0
  9
$UCSORTHOREF
  2

  9
$UCSORTHOVIEW
 70
     0
  9
$UCSORGTOP
 10
0.0
 20
0.0
 30
0.0
  9
$UCSORGBOTTOM
 10
0.0
 20
0.0
 30
0.0
  9
$UCSORGLEFT
 10
0.0
 20
0.0
 30
0.0
  9
$UCSORGRIGHT
 10
0.0
 20
0.0
 30
0.0
  9
$UCSORGFRONT
 10
0.0
 20
0.0
 30
0.0
  9
$UCSORGBACK
 10
0.0
 20
0.0
 30
0.0
  9
$PUCSBASE
  2

  9
$PUCSNAME
  2

  9
$PUCSORG
 10
0.0
 20
0.0
 30
0.0
  9
$PUCSXDIR
 10
1.0
 20
0.0
 30
0.0
  9
$PUCSYDIR
 10
0.0
 20
1.0
 30
0.0
  9
$PUCSORTHOREF
  2

  9
$PUCSORTHOVIEW
 70
     0
  9
$PUCSORGTOP
 10
0.0
 20
0.0
 30
0.0
  9
$PUCSORGBOTTOM
 10
0.0
 20
0.0
 30
0.0
  9
$PUCSORGLEFT
 10
0.0
 20
0.0
 30
0.0
  9
$PUCSORGRIGHT
 10
0.0
 20
0.0
 30
0.0
  9
$PUCSORGFRONT
 10
0.0
 20
0.0
 30
0.0
  9
$PUCSORGBACK
 10
0.0
 20
0.0
 30
0.0
  9
$USERI1
 70
     0
  9
$USERI2
 70
     0
  9
$USERI3
 70
     0
  9
$USERI4
 70
     0
  9
$USERI5
 70
     0
  9
$USERR1
 40
0.0
  9
$USERR2
 40
0.0
  9
$USERR3
 40
0.0
  9
$USERR4
 40
0.0
  9
$USERR5
 40
0.0
  9
$WORLDVIEW
 70
     0
  9
$SHADEDGE
 70
     3
  9
$SHADEDIF
 70
    70
  9
$TILEMODE
 70
     1
  9
$MAXACTVP
 70
    16
  9
$PINSBASE
 10
0.0
 20
0.0
 30
0.0
  9
$PLIMCHECK
 70
     0
  9
$PEXTMIN
 10
1.000000000000000E+20
 20
1.000000000000000E+20
 30
1.000000000000000E+20
  9
$PEXTMAX
 10
-1.000000000000000E+20
 20
-1.000000000000000E+20
 30
-1.000000000000000E+20
  9
$PLIMMIN
 10
0.0
 20
0.0
  9
$PLIMMAX
 10
0.0
 20
0.0
  9
$UNITMODE
 70
     0
  9
$VISRETAIN
 70
     0
  9
$PLINEGEN
 70
     0
  9
$PSLTSCALE
 70
     0
  9
$TREEDEPTH
 70
  3020
  9
$CMLSTYLE
  2
STANDARD
  9
$CMLJUST
 70
     0
  9
$CMLSCALE
 40
1.0
  9
$PROXYGRAPHICS
 70
     1
  9
$MEASUREMENT
 70
     0
  9
$CELWEIGHT
370
    -1
  9
$ENDCAPS
280
     0
  9
$JOINSTYLE
280
     0
  9
$LWDISPLAY
290
     0
  9
$INSUNITS
 70
     0
  9
$HYPERLINKBASE
  1

  9
$STYLESHEET
  1
spax form.ctb
  9
$XEDIT
290
     1
  9
$CEPSNTYPE
380
     0
  9
$PSTYLEMODE
290
     1
  9
$FINGERPRINTGUID
  2
{BBAEEBA6-8B94-11D3-9160-00E0294F7E09}
  9
$VERSIONGUID
  2
{A8474810-F4BB-4E8D-9E64-015A0ADBA382}
  9
$EXTNAMES
290
     1
  9
$PSVPSCALE
 40
0.0
  9
$OLESTARTUP
290
     0
  0
ENDSEC
  0
SECTION
  2
CLASSES
  0
CLASS
  1
LWPOLYLINE
  2
AcDbPolyline
  3
ObjectDBX Classes
 90
        0
280
     0
281
     1
  0
CLASS
  1
ACDBDICTIONARYWDFLT
  2
AcDbDictionaryWithDefault
  3
ObjectDBX Classes
 90
        0
280
     0
281
     0
  0
CLASS
  1
ACDBPLACEHOLDER
  2
AcDbPlaceHolder
  3
ObjectDBX Classes
 90
        0
280
     0
281
     0
  0
CLASS
  1
LAYOUT
  2
AcDbLayout
  3
ObjectDBX Classes
 90
        0
280
     0
281
     0
  0
CLASS
  1
DICTIONARYVAR
  2
AcDbDictionaryVar
  3
ObjectDBX Classes
 90
        0
280
     0
281
     0
  0
CLASS
  1
MATERIAL
  2
AcDbMaterial
  3
ObjectDBX Classes
 90
     1153
280
     0
281
     0
  0
CLASS
  1
VISUALSTYLE
  2
AcDbVisualStyle
  3
ObjectDBX Classes
 90
     4095
280
     0
281
     0
  0
CLASS
  1
TABLESTYLE
  2
AcDbTableStyle
  3
ObjectDBX Classes
 90
     4095
280
     0
281
     0
  0
CLASS
  1
SCALE
  2
AcDbScale
  3
ObjectDBX Classes
 90
     1153
280
     0
281
     0
  0
CLASS
  1
MLEADERSTYLE
  2
AcDbMLeaderStyle
  3
ACDB_MLEADERSTYLE_CLASS
 90
     4095
280
     0
281
     0
  0
CLASS
  1
CELLSTYLEMAP
  2
AcDbCellStyleMap
  3
ObjectDBX Classes
 90
     1152
280
     0
281
     0
  0
CLASS
  1
SORTENTSTABLE
  2
AcDbSortentsTable
  3
ObjectDBX Classes
 90
        0
280
     0
281
     0
  0
CLASS
  1
MULTILEADER
  2
AcDbMLeader
  3
ACDB_MLEADER_CLASS
 90
     1025
280
     0
281
     1
  0
CLASS
  1
DIMASSOC
  2
AcDbDimAssoc
  3
"AcDbDimAssoc|Product Desc:     AcDim ARX App For Dimension|Company:          Autodesk, Inc.|WEB Address:      www.autodesk.com"
 90
        0
280
     0
281
     0
  0
CLASS
  1
RASTERVARIABLES
  2
AcDbRasterVariables
  3
ISM
 90
        0
280
     0
281
     0
  0
CLASS
  1
SUN
  2
AcDbSun
  3
SCENEOE
 90
     1153
280
     0
281
     0
  0
ENDSEC
  0
SECTION
  2
TABLES
  0
TABLE
  2
VPORT
  5
8
330
0
100
AcDbSymbolTable
 70
     1
  0
VPORT
  5
163878
330
8
100
AcDbSymbolTableRecord
100
AcDbViewportTableRecord
  2
*Active
 70
     0
 10
0.0
 20
0.0
 11
1.0
 21
1.0
 12
5482.590729113637
 22
-7598.034551418294
 13
0.0
 23
0.0
 14
1.0
 24
1.0
 15
20.0
 25
20.0
 16
0.0
 26
0.0
 36
1.0
 17
0.0
 27
0.0
 37
0.0
 40
91.25305727002991
 41
1.731829573934837
 42
50.0
 43
0.0
 44
0.0
 50
0.0
 51
0.0
 71
    16
 72
   100
 73
     1
 74
     0
 75
     0
 76
     0
 77
     0
 78
     0
281
     0
 65
     1
110
0.0
120
0.0
130
0.0
111
1.0
121
0.0
131
0.0
112
0.0
122
1.0
132
0.0
 79
     0
146
0.0
  0
ENDTAB
  0
TABLE
  2
LTYPE
  5
5
330
0
100
AcDbSymbolTable
 70
     4
  0
LTYPE
  5
12
330
5
100
AcDbSymbolTableRecord
100
AcDbLinetypeTableRecord
  2
BYBLOCK
 70
     0
  3

 72
    65
 73
     0
 40
0.0
  0
LTYPE
  5
13
330
5
100
AcDbSymbolTableRecord
100
AcDbLinetypeTableRecord
  2
BYLAYER
 70
     0
  3

 72
    65
 73
     0
 40
0.0
  0
LTYPE
  5
14
330
5
100
AcDbSymbolTableRecord
100
AcDbLinetypeTableRecord
  2
CONTINUOUS
 70
     0
  3
Solid line
 72
    65
 73
     0
 40
0.0
  0
LTYPE
  5
27
330
5
100
AcDbSymbolTableRecord
100
AcDbLinetypeTableRecord
  2
HIDDEN
 70
     0
  3
_ _ _ _ _ _ _ _ _ _ _ _ _ _ _ _ _ _ _ _ _ _ _
 72
    65
 73
     2
 40
0.375
 49
0.25
 74
     0
 49
-0.125
 74
     0
  0
LTYPE
  5
514
330
5
100
AcDbSymbolTableRecord
100
AcDbLinetypeTableRecord
  2
CENTER
 70
     0
  3
Center ____ _ ____ _ ____ _ ____ _ ____ _ ____
 72
    65
 73
     4
 40
2.0
 49
1.25
 74
     0
 49
-0.25
 74
     0
 49
0.25
 74
     0
 49
-0.25
 74
     0
  0
ENDTAB
  0
TABLE
  2
LAYER
  5
2
102
{ACAD_XDICTIONARY
360
8BF
102
}
330
0
100
AcDbSymbolTable
 70
    13
  0
LAYER
  5
F
102
{ACAD_XDICTIONARY
360
A60
102
}
330
2
100
AcDbSymbolTableRecord
100
AcDbLayerTableRecord
  2
0
 70
     0
 62
     7
  6
CONTINUOUS
370
    -3
390
616
  0
LAYER
  5
34
102
{ACAD_XDICTIONARY
360
A66
102
}
330
2
100
AcDbSymbolTableRecord
100
AcDbLayerTableRecord
  2
寸法線
 70
     0
 62
     7
  6
CONTINUOUS
370
    -3
390
616
  0
LAYER
  5
2F4
102
{ACAD_XDICTIONARY
360
A6E
102
}
330
2
100
AcDbSymbolTableRecord
100
AcDbLayerTableRecord
  2
文字
 70
     0
 62
     7
  6
CONTINUOUS
370
    -3
390
616
  0
LAYER
  5
305
102
{ACAD_XDICTIONARY
360
A72
102
}
330
2
100
AcDbSymbolTableRecord
100
AcDbLayerTableRecord
  2
姿図
 70
     0
 62
     8
  6
CONTINUOUS
370
    -3
390
616
  0
ENDTAB
  0
TABLE
  2
STYLE
  5
3
330
0
100
AcDbSymbolTable
 70
     1
  0
STYLE
  5
10
330
3
100
AcDbSymbolTableRecord
100
AcDbTextStyleTableRecord
  2
STANDARD
 70
     0
 40
0.0
 41
1.0
 50
0.0
 71
     0
 42
53.44730959687513
  3
MONOTXT
  4
BIGFONT
  0
ENDTAB
  0
TABLE
  2
VIEW
  5
6
330
0
100
AcDbSymbolTable
 70
     0
  0
ENDTAB
  0
TABLE
  2
UCS
  5
7
330
0
100
AcDbSymbolTable
 70
     0
  0
ENDTAB
  0
TABLE
  2
APPID
  5
9
330
0
100
AcDbSymbolTable
 70
    15
  0
APPID
  5
11
330
9
100
AcDbSymbolTableRecord
100
AcDbRegAppTableRecord
  2
ACAD
 70
     0
  0
APPID
  5
8BB
330
9
100
AcDbSymbolTableRecord
100
AcDbRegAppTableRecord
  2
ACAD_PSEXT
 70
     0
  0
APPID
  5
A5A
330
9
100
AcDbSymbolTableRecord
100
AcDbRegAppTableRecord
  2
ACAD_MLEADERVER
 70
     0
  0
APPID
  5
A5E
330
9
100
AcDbSymbolTableRecord
100
AcDbRegAppTableRecord
  2
ACAD_DSTYLE_DIMJAG
 70
     0
  0
APPID
  5
A5F
330
9
100
AcDbSymbolTableRecord
100
AcDbRegAppTableRecord
  2
ACAD_DSTYLE_DIMTALN
 70
     0
  0
APPID
  5
12C0
330
9
100
AcDbSymbolTableRecord
100
AcDbRegAppTableRecord
  2
ACAD_EXEMPT_FROM_CAD_STANDARDS
 70
     0
  0
APPID
  5
1C50
330
9
100
AcDbSymbolTableRecord
100
AcDbRegAppTableRecord
  2
AcAecLayerStandard
 70
     0
  0
APPID
  5
5088
330
9
100
AcDbSymbolTableRecord
100
AcDbRegAppTableRecord
  2
ACAD_DSTYLE_DIMRADIAL_EXTENSION
 70
     0
  0
APPID
  5
14AF3
330
9
100
AcDbSymbolTableRecord
100
AcDbRegAppTableRecord
  2
WACOM_STRING
 70
     0
  0
APPID
  5
14AF4
330
9
100
AcDbSymbolTableRecord
100
AcDbRegAppTableRecord
  2
WACOM_DRSYM_ARROW
 70
     0
  0
APPID
  5
1E1A8
330
9
100
AcDbSymbolTableRecord
100
AcDbRegAppTableRecord
  2
GENIUS_GENODEF_13
 70
     0
  0
APPID
  5
1E1A9
330
9
100
AcDbSymbolTableRecord
100
AcDbRegAppTableRecord
  2
GENIUS_GENREC_14
 70
     0
  0
APPID
  5
1E1AA
330
9
100
AcDbSymbolTableRecord
100
AcDbRegAppTableRecord
  2
GENIUS_GENOBJ-N-REC_13
 70
     0
  0
APPID
  5
27C72
330
9
100
AcDbSymbolTableRecord
100
AcDbRegAppTableRecord
  2
ASK_MEN_XD
 70
     0
  0
APPID
  5
29316
330
9
100
AcDbSymbolTableRecord
100
AcDbRegAppTableRecord
  2
ACAD_DSTYLE_DIMBREAK
 70
     0
  0
ENDTAB
  0
TABLE
  2
DIMSTYLE
  5
A
330
0
100
AcDbSymbolTable
 70
     3
100
AcDbDimStyleTable
  0
DIMSTYLE
105
1CC
330
A
100
AcDbSymbolTableRecord
100
AcDbDimStyleTableRecord
  2
STANDARD
 70
     0
 41
2.5
 42
1.5
 44
1.0
 73
     0
 74
     0
 77
     3
 78
     8
 79
     2
140
2.500000000000003
141
0.0
147
1.0
171
     0
172
     1
173
     1
176
     8
177
     8
271
     2
178
   256
179
     2
271
     2
272
     2
274
     0
289
     1
340
10
341
608
343
608
344
608
1001
ACAD_DSTYLE_DIMJAG
1070
   388
1040
1.5
1001
ACAD_DSTYLE_DIMTALN
1070
   392
1070
     0
  0
ENDTAB
  0
TABLE
  2
BLOCK_RECORD
  5
1
330
0
100
AcDbSymbolTable
 70
    10
  0
BLOCK_RECORD
  5
18
102
{ACAD_XDICTIONARY
360
143F
102
}
330
1
100
AcDbSymbolTableRecord
100
AcDbBlockTableRecord
  2
*MODEL_SPACE
340
619
  0
BLOCK_RECORD
  5
15
330
1
100
AcDbSymbolTableRecord
100
AcDbBlockTableRecord
  2
*PAPER_SPACE
340
61A
  0
BLOCK_RECORD
  5
608
330
1
100
AcDbSymbolTableRecord
100
AcDbBlockTableRecord
  2
_OPEN
340
0
102
{BLKREFS
331
15C334
331
15C335
331
1635A1
331
1635A2
331
16753C
331
16753D
331
167545
331
167546
331
1687CA
331
1687CB
331
1687D3
331
1687D4
102
}
  0
BLOCK_RECORD
  5
89D
330
1
100
AcDbSymbolTableRecord
100
AcDbBlockTableRecord
  2
SUN
340
0
  0
BLOCK_RECORD
  5
1F1F
330
1
100
AcDbSymbolTableRecord
100
AcDbBlockTableRecord
  2
_OPEN30
340
0
  0
ENDTAB
  0
ENDSEC
  0
SECTION
  2
BLOCKS
  0
BLOCK
  5
39
330
18
100
AcDbEntity
  8
0
100
AcDbBlockBegin
  2
*MODEL_SPACE
 70
     0
 10
0.0
 20
0.0
 30
0.0
  3
*MODEL_SPACE
  1
*MODEL_SPACE
  0
ENDBLK
  5
3A
330
18
100
AcDbEntity
  8
0
100
AcDbBlockEnd
  0
BLOCK
  5
37
330
15
100
AcDbEntity
 67
     1
  8
0
100
AcDbBlockBegin
  2
*PAPER_SPACE
 70
     0
 10
0.0
 20
0.0
 30
0.0
  3
*PAPER_SPACE
  1
*PAPER_SPACE
  0
ENDBLK
  5
38
330
15
100
AcDbEntity
 67
     1
  8
0
100
AcDbBlockEnd
  0
BLOCK
  5
609
330
608
100
AcDbEntity
  8
0
100
AcDbBlockBegin
  2
_OPEN
 70
     0
 10
0.0
 20
0.0
 30
0.0
  3
_OPEN
  1
_OPEN
  0
LINE
  5
60A
330
608
100
AcDbEntity
  8
0
  6
ByBlock
 62
     0
100
AcDbLine
 10
-1.0
 20
0.1666666666666667
 30
0.0
 11
0.0
 21
0.0
 31
0.0
  0
LINE
  5
60B
330
608
100
AcDbEntity
  8
0
  6
ByBlock
 62
     0
100
AcDbLine
 10
0.0
 20
0.0
 30
0.0
 11
-1.0
 21
-0.1666666666666667
 31
0.0
  0
LINE
  5
60C
330
608
100
AcDbEntity
  8
0
  6
ByBlock
 62
     0
100
AcDbLine
 10
0.0
 20
0.0
 30
0.0
 11
-1.0
 21
0.0
 31
0.0
  0
ENDBLK
  5
60D
330
608
100
AcDbEntity
  8
0
100
AcDbBlockEnd
  0
BLOCK
  5
89E
330
89D
100
AcDbEntity
  8
0
100
AcDbBlockBegin
  2
SUN
 70
     0
 10
0.0
 20
0.0
 30
0.0
  3
SUN
  1
SUN
  0
LINE
  5
89F
330
89D
100
AcDbEntity
  8
0
100
AcDbLine
 10
-0.0000000000000568
 20
0.0
 30
0.0
 11
-1.500000000000057
 21
0.0
 31
0.0
  0
LINE
  5
8A0
330
89D
100
AcDbEntity
  8
0
100
AcDbLine
 10
-0.0000000000000568
 20
0.0000000000000284
 30
0.0
 11
-1.500000000000057
 21
0.401923788646684
 31
0.0
  0
LINE
  5
8A1
330
89D
100
AcDbEntity
  8
0
100
AcDbLine
 10
-0.0000000000000568
 20
0.0000000000000284
 30
0.0
 11
-1.500000000000057
 21
-0.4019237886466556
 31
0.0
  0
ENDBLK
  5
8A2
330
89D
100
AcDbEntity
  8
0
100
AcDbBlockEnd
  0
BLOCK
  5
1F20
330
1F1F
100
AcDbEntity
  8
0
100
AcDbBlockBegin
  2
_OPEN30
 70
     0
 10
0.0
 20
0.0
 30
0.0
  3
_OPEN30
  1
_OPEN30
  0
LINE
  5
1F21
330
1F1F
100
AcDbEntity
  8
0
  6
ByBlock
 62
     0
100
AcDbLine
 10
-1.0
 20
0.26794919
 30
0.0
 11
0.0
 21
0.0
 31
0.0
  0
LINE
  5
1F22
330
1F1F
100
AcDbEntity
  8
0
  6
ByBlock
 62
     0
100
AcDbLine
 10
0.0
 20
0.0
 30
0.0
 11
-1.0
 21
-0.26794919
 31
0.0
  0
LINE
  5
1F23
330
1F1F
100
AcDbEntity
  8
0
  6
ByBlock
 62
     0
100
AcDbLine
 10
0.0
 20
0.0
 30
0.0
 11
-1.0
 21
0.0
 31
0.0
  0
ENDBLK
  5
1F24
330
1F1F
100
AcDbEntity
  8
0
100
AcDbBlockEnd
  0
ENDSEC
  0
SECTION
  2
ENTITIES
  0
MTEXT
  5
D0CC6
330
18
100
AcDbEntity
  8
寸法線
100
AcDbMText
 10
2610.774875364868
 20
-2740.315466585338
 30
0.0
 40
2.500000000000003
 41
0.0
 71
     9
 72
     1
  1
\A1;
 73
     1
 44
1.0
  0
MTEXT
  5
F6D77
330
18
100
AcDbEntity
  8
文字
100
AcDbMText
 10
5821.057140836062
 20
-2842.341718131323
 30
0.0
 40
2.5
 41
64.39156592258223
 71
     1
 72
     5
  1
   
 73
     1
 44
1.0
  0
MTEXT
  5
F6D78
330
18
100
AcDbEntity
  8
寸法線
100
AcDbMText
 10
6222.662262480188
 20
-2968.738290481128
 30
0.0
 40
3.000000000000001
 41
0.0
 71
     7
 72
     1
  1
\A1;
 73
     1
 44
1.0
  0
TEXT
  5
1676DF
330
18
100
AcDbEntity
  8
文字
100
AcDbText
 10
5444.67406244697
 20
-7642.766442236936
 30
0.0
 40
6.5
  1
SL-B1352D/BF
100
AcDbText
  0
ELLIPSE
  5
1685D3
330
18
100
AcDbEntity
  8
姿図
100
AcDbEllipse
 10
5490.800783986589
 20
-7568.678028047569
 30
0.0
 11
15.172283203125
 21
0.0
 31
0.0
210
0.0
220
0.0
230
1.0
 40
0.4970283540701101
 41
7.074854205792756
 42
8.482454624318267
  0
ELLIPSE
  5
1685D4
330
18
100
AcDbEntity
  8
姿図
100
AcDbEllipse
 10
5491.240984507422
 20
-7560.651661120486
 30
0.0
 11
6.807216536458333
 21
0.0
 31
0.0
210
0.0
220
0.0
230
1.0
 40
0.5787746356777222
 41
1.112128156115095
 42
1.201556856358739
  0
ELLIPSE
  5
1685D5
330
18
100
AcDbEntity
  8
姿図
100
AcDbEllipse
 10
5491.240984507422
 20
-7560.651661120486
 30
0.0
 11
6.807216536458333
 21
0.0
 31
0.0
210
0.0
220
0.0
230
1.0
 40
0.5787746356777222
 41
1.412415807147717
 42
1.598884992121848
  0
ELLIPSE
  5
1685D6
330
18
100
AcDbEntity
  8
姿図
100
AcDbEllipse
 10
5491.240984507422
 20
-7560.651661120486
 30
0.0
 11
6.807216536458333
 21
0.0
 31
0.0
210
0.0
220
0.0
230
1.0
 40
0.5787746356777222
 41
1.728626964199836
 42
1.903766585222755
  0
LINE
  5
1685D7
330
18
100
AcDbEntity
  8
姿図
100
AcDbLine
 10
5505.974827230988
 20
-7598.229442741637
 30
0.0
 11
5506.34461072832
 21
-7599.558095987913
 31
0.0
  0
LINE
  5
1685D8
330
18
100
AcDbEntity
  8
姿図
100
AcDbLine
 10
5507.436645890899
 20
-7603.481840758238
 30
0.0
 11
5509.784284549669
 21
-7611.917040672684
 31
0.0
  0
LINE
  5
1685D9
330
18
100
AcDbEntity
  8
姿図
100
AcDbLine
 10
5476.384285910408
 20
-7598.274512292059
 30
0.0
 11
5475.993440106335
 21
-7599.621376418312
 31
0.0
  0
LINE
  5
1685DA
330
18
100
AcDbEntity
  8
姿図
100
AcDbLine
 10
5474.919533973158
 20
-7603.322083015821
 30
0.0
 11
5472.409306520485
 21
-7611.972387738316
 31
0.0
  0
LINE
  5
1685DB
330
18
100
AcDbEntity
  8
姿図
100
AcDbLine
 10
5506.22144479388
 20
-7589.031927787151
 30
0.0
 11
5506.137966857553
 21
-7592.692795851332
 31
0.0
  0
LINE
  5
1685DC
330
18
100
AcDbEntity
  8
姿図
100
AcDbLine
 10
5476.350978648046
 20
-7589.031927787151
 30
0.0
 11
5476.243459283668
 21
-7592.892291956789
 31
0.0
  0
LINE
  5
1685DD
330
18
100
AcDbEntity
  8
姿図
100
AcDbLine
 10
5475.696234116796
 20
-7574.796682995486
 30
0.0
 11
5475.628491697653
 21
-7577.356455975765
 31
0.0
  0
LINE
  5
1685DE
330
18
100
AcDbEntity
  8
姿図
100
AcDbLine
 10
5476.387355102952
 20
-7577.394825828929
 30
0.0
 11
5475.628491697653
 21
-7577.356455975765
 31
0.0
  0
LINE
  5
1685DF
330
18
100
AcDbEntity
  8
姿図
100
AcDbLine
 10
5476.599323179296
 20
-7574.796682995486
 30
0.0
 11
5475.696234116796
 21
-7574.796682995486
 31
0.0
  0
LINE
  5
1685E0
330
18
100
AcDbEntity
  8
姿図
100
AcDbLine
 10
5507.013171827612
 20
-7575.838136720957
 30
0.0
 11
5506.989001043881
 21
-7578.409138464234
 31
0.0
  0
LINE
  5
1685E1
330
18
100
AcDbEntity
  8
姿図
100
AcDbLine
 10
5506.989001043881
 20
-7578.409138464234
 30
0.0
 11
5506.316760052216
 21
-7578.410189405909
 31
0.0
  0
LINE
  5
1685E2
330
18
100
AcDbEntity
  8
姿図
100
AcDbLine
 10
5507.013171827612
 20
-7575.838136720957
 30
0.0
 11
5506.248409381285
 21
-7575.843393453613
 31
0.0
  0
LINE
  5
1685E3
330
18
100
AcDbEntity
  8
姿図
100
AcDbLine
 10
5505.634788886658
 20
-7575.115695907299
 30
0.0
 11
5505.556982481932
 21
-7577.608060086292
 31
0.0
  0
LINE
  5
1685E4
330
18
100
AcDbEntity
  8
姿図
100
AcDbLine
 10
5477.218060287497
 20
-7573.622660599652
 30
0.0
 11
5477.21296649203
 21
-7577.143774583929
 31
0.0
  0
LINE
  5
1685E5
330
18
100
AcDbEntity
  8
姿図
100
AcDbLine
 10
5489.016034992472
 20
-7556.928210116264
 30
0.0
 11
5488.971631606334
 21
-7561.191976144006
 31
0.0
  0
LINE
  5
1685E6
330
18
100
AcDbEntity
  8
姿図
100
AcDbLine
 10
5494.25490906742
 20
-7557.119027468818
 30
0.0
 11
5494.298446526534
 21
-7561.340089308269
 31
0.0
  0
LINE
  5
1685E7
330
18
100
AcDbEntity
  8
姿図
100
AcDbLine
 10
5492.314613275566
 20
-7556.761127935153
 30
0.0
 11
5492.357029593382
 21
-7561.17674747196
 31
0.0
  0
LINE
  5
1685E8
330
18
100
AcDbEntity
  8
姿図
100
AcDbLine
 10
5491.049804022014
 20
-7556.713370963047
 30
0.0
 11
5491.09425651263
 21
-7561.159727266318
 31
0.0
  0
LINE
  5
1685E9
330
18
100
AcDbEntity
  8
姿図
100
AcDbLine
 10
5498.454601043881
 20
-7555.786205130902
 30
0.0
 11
5496.603245314715
 21
-7556.644149662152
 31
0.0
  0
LINE
  5
1685EA
330
18
100
AcDbEntity
  8
姿図
100
AcDbLine
 10
5496.287134377213
 20
-7554.296071797568
 30
0.0
 11
5493.713267710546
 21
-7556.779616328819
 31
0.0
  0
LINE
  5
1685EB
330
18
100
AcDbEntity
  8
姿図
100
AcDbLine
 10
5493.39722291888
 20
-7553.528416328819
 30
0.0
 11
5492.174495612615
 21
-7556.749039330033
 31
0.0
  0
LINE
  5
1685EC
330
18
100
AcDbEntity
  8
姿図
100
AcDbLine
 10
5490.552389845963
 20
-7553.302660599652
 30
0.0
 11
5491.180828463841
 21
-7556.711970692333
 31
0.0
  0
LINE
  5
1685ED
330
18
100
AcDbEntity
  8
姿図
100
AcDbLine
 10
5487.481834116797
 20
-7553.979993932985
 30
0.0
 11
5489.775220445226
 21
-7556.804235988967
 31
0.0
  0
LINE
  5
1685EE
330
18
100
AcDbEntity
  8
姿図
100
AcDbLine
 10
5484.99825651263
 20
-7555.063727266319
 30
0.0
 11
5487.148492560852
 21
-7556.552362980921
 31
0.0
  0
ELLIPSE
  5
1685EF
330
18
100
AcDbEntity
  8
姿図
100
AcDbEllipse
 10
5491.07173385638
 20
-7596.042327787152
 30
0.0
 11
-15.72127068290483
 21
1.572368522818131
 31
0.0
210
0.0
220
0.0
230
1.0
 40
0.4268081429402281
 41
3.41487396931836
 42
3.77556961069008
  0
ELLIPSE
  5
1685F0
330
18
100
AcDbEntity
  8
姿図
100
AcDbEllipse
 10
5491.07173385638
 20
-7596.042327787152
 30
0.0
 11
15.08197760416667
 21
0.0
 31
0.0
210
0.0
220
0.0
230
1.0
 40
0.359285297639149
 41
7.112852223479593
 42
7.656454855824705
  0
ELLIPSE
  5
1685F1
330
18
100
AcDbEntity
  8
姿図
100
AcDbEllipse
 10
5491.07173385638
 20
-7596.042327787152
 30
0.0
 11
15.08197760416667
 21
0.0
 31
0.0
210
0.0
220
0.0
230
1.0
 40
0.359285297639149
 41
7.825574573037986
 42
8.547289682742333
  0
ELLIPSE
  5
1685F2
330
18
100
AcDbEntity
  8
姿図
100
AcDbEllipse
 10
5491.07173385638
 20
-7596.042327787152
 30
0.0
 11
15.08197760416667
 21
0.0
 31
0.0
210
0.0
220
0.0
230
1.0
 40
0.359285297639149
 41
8.914808065990233
 42
9.337446565053689
  0
ELLIPSE
  5
1685F3
330
18
100
AcDbEntity
  8
姿図
100
AcDbEllipse
 10
5491.184628257422
 20
-7595.161794453818
 30
0.0
 11
-15.23373145994704
 21
0.2106274502766241
 31
0.0
210
0.0
220
0.0
230
1.0
 40
0.4186036671425239
 41
3.202482138794768
 42
3.703239094700399
  0
ELLIPSE
  5
1685F4
330
18
100
AcDbEntity
  8
姿図
100
AcDbEllipse
 10
5491.184628257422
 20
-7595.161794453818
 30
0.0
 11
15.172283203125
 21
0.0
 31
0.0
210
0.0
220
0.0
230
1.0
 40
0.4062539168738495
 41
7.129382602215342
 42
7.660879420274057
  0
ELLIPSE
  5
1685F5
330
18
100
AcDbEntity
  8
姿図
100
AcDbEllipse
 10
5491.184628257422
 20
-7595.161794453818
 30
0.0
 11
15.172283203125
 21
0.0
 31
0.0
210
0.0
220
0.0
230
1.0
 40
0.4062539168738495
 41
7.833746855100951
 42
8.54882710759696
  0
ELLIPSE
  5
1685F6
330
18
100
AcDbEntity
  8
姿図
100
AcDbEllipse
 10
5491.184628257422
 20
-7595.161794453818
 30
0.0
 11
15.172283203125
 21
0.0
 31
0.0
210
0.0
220
0.0
230
1.0
 40
0.4062539168738495
 41
8.919585895043166
 42
9.351902541126062
  0
LINE
  5
1685F7
330
18
100
AcDbEntity
  8
姿図
100
AcDbLine
 10
5477.907643375641
 20
-7592.178666380783
 30
0.0
 11
5477.908799088817
 21
-7593.397168095037
 31
0.0
  0
LINE
  5
1685F8
330
18
100
AcDbEntity
  8
姿図
100
AcDbLine
 10
5504.125102002787
 20
-7591.943855233377
 30
0.0
 11
5504.13554598593
 21
-7593.334478110206
 31
0.0
  0
LINE
  5
1685F9
330
18
100
AcDbEntity
  8
姿図
100
AcDbLine
 10
5501.241352613
 20
-7590.546555546272
 30
0.0
 11
5501.254289585547
 21
-7592.091238724653
 31
0.0
  0
LINE
  5
1685FA
330
18
100
AcDbEntity
  8
姿図
100
AcDbLine
 10
5494.096255681483
 20
-7589.112557631508
 30
0.0
 11
5494.031493588881
 21
-7590.728962596037
 31
0.0
  0
LINE
  5
1685FB
330
18
100
AcDbEntity
  8
姿図
100
AcDbLine
 10
5491.491615102939
 20
-7588.999256803946
 30
0.0
 11
5491.500110893865
 21
-7590.625781180956
 31
0.0
  0
LINE
  5
1685FC
330
18
100
AcDbEntity
  8
姿図
100
AcDbLine
 10
5481.470319841392
 20
-7590.427055555581
 30
0.0
 11
5481.43306798613
 21
-7591.87458474933
 31
0.0
  0
LINE
  5
1685FD
330
18
100
AcDbEntity
  8
姿図
100
AcDbLine
 10
5498.815889585547
 20
-7572.538927266319
 30
0.0
 11
5499.08682291888
 21
-7573.622660599652
 31
0.0
  0
LINE
  5
1685FE
330
18
100
AcDbEntity
  8
姿図
100
AcDbLine
 10
5498.130715610168
 20
-7572.282891768092
 30
0.0
 11
5498.426674313903
 21
-7573.42460604755
 31
0.0
  0
LINE
  5
1685FF
330
18
100
AcDbEntity
  8
姿図
100
AcDbLine
 10
5485.05593507551
 20
-7572.253766920848
 30
0.0
 11
5484.854816969755
 21
-7573.208949048529
 31
0.0
  0
LINE
  5
168600
330
18
100
AcDbEntity
  8
姿図
100
AcDbLine
 10
5485.856780997161
 20
-7571.994246986914
 30
0.0
 11
5485.647475805101
 21
-7573.040711630335
 31
0.0
  0
LINE
  5
168601
330
18
100
AcDbEntity
  8
姿図
100
AcDbLine
 10
5489.333189845964
 20
-7571.281380823664
 30
0.0
 11
5489.142133407093
 21
-7572.586348850073
 31
0.0
  0
LINE
  5
168602
330
18
100
AcDbEntity
  8
姿図
100
AcDbLine
 10
5490.28145651263
 20
-7571.197387725453
 30
0.0
 11
5490.28145651263
 21
-7572.530222936864
 31
0.0
  0
LINE
  5
168603
330
18
100
AcDbEntity
  8
姿図
100
AcDbLine
 10
5493.939089585547
 20
-7571.301169859319
 30
0.0
 11
5493.939089585547
 21
-7572.639425469936
 31
0.0
  0
LINE
  5
168604
330
18
100
AcDbEntity
  8
姿図
100
AcDbLine
 10
5494.778076727751
 20
-7571.421487917059
 30
0.0
 11
5495.101435454423
 21
-7572.768802787362
 31
0.0
  0
LINE
  5
168605
330
18
100
AcDbEntity
  8
姿図
100
AcDbLine
 10
5501.461722726684
 20
-7563.312364378306
 30
0.0
 11
5502.563778648047
 21
-7575.067616328819
 31
0.0
  0
LINE
  5
168606
330
18
100
AcDbEntity
  8
姿図
100
AcDbLine
 10
5481.880843847055
 20
-7562.577871157466
 30
0.0
 11
5480.781545259203
 21
-7574.578536225532
 31
0.0
  0
LINE
  5
168607
330
18
100
AcDbEntity
  8
姿図
100
AcDbLine
 10
5484.18545651263
 20
-7558.856793932984
 30
0.0
 11
5483.992845065713
 21
-7561.938753435472
 31
0.0
  0
LINE
  5
168608
330
18
100
AcDbEntity
  8
姿図
100
AcDbLine
 10
5484.682178648047
 20
-7555.199193932986
 30
0.0
 11
5484.448698870759
 21
-7561.829684453156
 31
0.0
  0
LINE
  5
168609
330
18
100
AcDbEntity
  8
姿図
100
AcDbLine
 10
5484.99825651263
 20
-7555.063727266319
 30
0.0
 11
5484.906970613114
 21
-7561.729202957837
 31
0.0
  0
LINE
  5
16860A
330
18
100
AcDbEntity
  8
姿図
100
AcDbLine
 10
5487.210900783464
 20
-7554.025138464235
 30
0.0
 11
5487.029433805241
 21
-7561.373654046671
 31
0.0
  0
LINE
  5
16860B
330
18
100
AcDbEntity
  8
姿図
100
AcDbLine
 10
5487.481834116797
 20
-7553.979993932985
 30
0.0
 11
5487.390519094633
 21
-7561.329933714057
 31
0.0
  0
LINE
  5
16860C
330
18
100
AcDbEntity
  8
姿図
100
AcDbLine
 10
5490.19116745013
 20
-7553.302660599652
 30
0.0
 11
5490.14555589313
 21
-7561.144008484851
 31
0.0
  0
LINE
  5
16860D
330
18
100
AcDbEntity
  8
姿図
100
AcDbLine
 10
5490.552389845963
 20
-7553.302660599652
 30
0.0
 11
5490.68517851391
 21
-7561.137192008484
 31
0.0
  0
LINE
  5
16860E
330
18
100
AcDbEntity
  8
姿図
100
AcDbLine
 10
5498.777115401829
 20
-7555.874607892545
 30
0.0
 11
5499.088144461907
 21
-7562.361311259129
 31
0.0
  0
LINE
  5
16860F
330
18
100
AcDbEntity
  8
姿図
100
AcDbLine
 10
5498.454601043881
 20
-7555.786205130902
 30
0.0
 11
5498.63208398827
 21
-7562.219165758848
 31
0.0
  0
LINE
  5
168610
330
18
100
AcDbEntity
  8
姿図
100
AcDbLine
 10
5496.512956252214
 20
-7554.341216328819
 30
0.0
 11
5496.787311568703
 21
-7561.748809874046
 31
0.0
  0
LINE
  5
168611
330
18
100
AcDbEntity
  8
姿図
100
AcDbLine
 10
5496.287134377213
 20
-7554.296071797568
 30
0.0
 11
5496.287134377213
 21
-7561.656416328819
 31
0.0
  0
LINE
  5
168612
330
18
100
AcDbEntity
  8
姿図
100
AcDbLine
 10
5493.57780104388
 20
-7553.527933920806
 30
0.0
 11
5493.851811073549
 21
-7561.291019294958
 31
0.0
  0
LINE
  5
168613
330
18
100
AcDbEntity
  8
姿図
100
AcDbLine
 10
5493.39722291888
 20
-7553.528416328819
 30
0.0
 11
5493.442084211156
 21
-7561.252123187474
 31
0.0
  0
ELLIPSE
  5
168614
330
18
100
AcDbEntity
  8
姿図
100
AcDbEllipse
 10
5491.207183986588
 20
-7580.057228047568
 30
0.0
 11
15.172283203125
 21
0.0
 31
0.0
210
0.0
220
0.0
230
1.0
 40
0.4970283540701101
 41
6.361584542067506
 42
9.229399068880687
  0
ELLIPSE
  5
168615
330
18
100
AcDbEntity
  8
姿図
100
AcDbEllipse
 10
5491.286211720964
 20
-7589.031927787151
 30
0.0
 11
14.93523307291667
 21
0.0
 31
0.0
210
0.0
220
0.0
230
1.0
 40
0.4603164409801034
 41
6.262193097272712
 42
9.42477796076938
  0
ELLIPSE
  5
168616
330
18
100
AcDbEntity
  8
姿図
100
AcDbEllipse
 10
5491.184578648046
 20
-7598.819394453818
 30
0.0
 11
14.85846326965584
 21
0.0
 31
0.0
210
0.0
220
0.0
230
1.0
 40
0.4148342508443969
 41
0.095859086798415
 42
3.053076739676217
  0
ELLIPSE
  5
168617
330
18
100
AcDbEntity
  8
姿図
100
AcDbEllipse
 10
5491.105583986589
 20
-7605.254127266318
 30
0.0
 11
17.08012747395833
 21
0.0
 31
0.0
210
0.0
220
0.0
230
1.0
 40
0.3542648350204007
 41
6.580440520601806
 42
9.099788009899381
  0
ELLIPSE
  5
168618
330
18
100
AcDbEntity
  8
姿図
100
AcDbEllipse
 10
5491.207183986588
 20
-7597.532461120485
 30
0.0
 11
15.172283203125
 21
0.0
 31
0.0
210
0.0
220
0.0
230
1.0
 40
0.4062539168738495
 41
6.102070736612631
 42
9.604636669081895
  0
ELLIPSE
  5
168619
330
18
100
AcDbEntity
  8
姿図
100
AcDbEllipse
 10
5491.229739715755
 20
-7593.942594453819
 30
0.0
 11
15.172283203125
 21
0.0
 31
0.0
210
0.0
220
0.0
230
1.0
 40
0.4434548040623525
 41
6.277624879366126
 42
9.42477796076938
  0
ELLIPSE
  5
16861A
330
18
100
AcDbEntity
  8
姿図
100
AcDbEllipse
 10
5491.297473049089
 20
-7603.809237682985
 30
0.0
 11
18.15254986979166
 21
0.0
 31
0.0
210
0.0
220
0.0
230
1.0
 40
0.3420334162633325
 41
5.904820112344892
 42
9.76390562288067
  0
ELLIPSE
  5
16861B
330
18
100
AcDbEntity
  8
姿図
100
AcDbEllipse
 10
5491.229739715755
 20
-7602.996437682985
 30
0.0
 11
18.15254986979166
 21
0.0
 31
0.0
210
0.0
220
0.0
230
1.0
 40
0.3420334162633325
 41
6.246151198549605
 42
9.51880220902288
  0
ELLIPSE
  5
16861C
330
18
100
AcDbEntity
  8
姿図
100
AcDbEllipse
 10
5491.139417580339
 20
-7613.494972057985
 30
0.0
 11
19.84585013020833
 21
0.0
 31
0.0
210
0.0
220
0.0
230
1.0
 40
0.232082104645421
 41
6.220206681354293
 42
9.52870417718492
  0
ELLIPSE
  5
16861D
330
18
100
AcDbEntity
  8
姿図
100
AcDbEllipse
 10
5491.207150913671
 20
-7614.262660599652
 30
0.0
 11
19.84585013020833
 21
0.0
 31
0.0
210
0.0
220
0.0
230
1.0
 40
0.232082104645421
 41
0.0
 42
6.283185307179586
  0
ELLIPSE
  5
16861E
330
18
100
AcDbEntity
  8
姿図
100
AcDbEllipse
 10
5491.071684247005
 20
-7614.635193932984
 30
0.0
 11
18.062227734375
 21
0.0
 31
0.0
210
0.0
220
0.0
230
1.0
 40
0.225622489741088
 41
0.0
 42
6.283185307179586
  0
ARC
  5
16861F
330
18
100
AcDbEntity
  8
姿図
100
AcDbCircle
 10
5569.262107060803
 20
-7582.939339979526
 30
0.0
 40
93.04010526863462
100
AcDbArc
 50
174.2529884563951
 51
183.4469198872945
  0
ARC
  5
168620
330
18
100
AcDbEntity
  8
姿図
100
AcDbCircle
 10
5347.113315402343
 20
-7581.365276510437
 30
0.0
 40
159.2308680130216
100
AcDbArc
 50
357.4187120087766
 51
2.250399010489077
  0
LINE
  5
168621
330
18
100
AcDbEntity
  8
姿図
100
AcDbLine
 10
5506.221378648048
 20
-7575.112793932985
 30
0.0
 11
5505.634788886658
 21
-7575.115695907299
 31
0.0
  0
LINE
  5
168622
330
18
100
AcDbEntity
  8
姿図
100
AcDbLine
 10
5476.689645314713
 20
-7573.622660599652
 30
0.0
 11
5477.218060287497
 21
-7573.622660599652
 31
0.0
  0
ARC
  5
168623
330
18
100
AcDbEntity
  8
姿図
100
AcDbCircle
 10
5491.551747319718
 20
-7590.933612730488
 30
0.0
 40
19.77706288061811
100
AcDbArc
 50
68.45071832715597
 51
70.5699069262483
  0
ARC
  5
168624
330
18
100
AcDbEntity
  8
姿図
100
AcDbCircle
 10
5491.551747319718
 20
-7590.933612730488
 30
0.0
 40
19.77706288061811
100
AcDbArc
 50
80.6110951949801
 51
83.06676485220326
  0
ARC
  5
168625
330
18
100
AcDbEntity
  8
姿図
100
AcDbCircle
 10
5491.551747319718
 20
-7590.933612730488
 30
0.0
 40
19.77706288061811
100
AcDbArc
 50
93.68267220367096
 51
96.4409008326219
  0
ARC
  5
168626
330
18
100
AcDbEntity
  8
姿図
100
AcDbCircle
 10
5491.551747319718
 20
-7590.933612730488
 30
0.0
 40
19.77706288061811
100
AcDbArc
 50
106.7357525055275
 51
109.1748340181636
  0
LINE
  5
168627
330
18
100
AcDbEntity
  8
姿図
100
AcDbLine
 10
5498.130715610168
 20
-7572.282891768092
 30
0.0
 11
5498.11918582722
 21
-7573.344172249733
 31
0.0
  0
LINE
  5
168628
330
18
100
AcDbEntity
  8
姿図
100
AcDbLine
 10
5493.939089585547
 20
-7571.301169859319
 30
0.0
 11
5493.774124267311
 21
-7572.624884093157
 31
0.0
  0
LINE
  5
168629
330
18
100
AcDbEntity
  8
姿図
100
AcDbLine
 10
5485.856780997161
 20
-7571.994246986914
 30
0.0
 11
5485.86660600241
 21
-7572.998788335342
 31
0.0
  0
LINE
  5
16862A
330
18
100
AcDbEntity
  8
姿図
100
AcDbLine
 10
5476.05745651263
 20
-7593.942594453819
 30
0.0
 11
5476.034900783463
 21
-7597.532461120485
 31
0.0
  0
LINE
  5
16862B
330
18
100
AcDbEntity
  8
姿図
100
AcDbLine
 10
5506.402022918881
 20
-7593.942594453819
 30
0.0
 11
5506.379417977389
 21
-7597.548160215596
 31
0.0
  0
LINE
  5
16862C
330
18
100
AcDbEntity
  8
姿図
100
AcDbLine
 10
5473.077189845963
 20
-7602.996437682985
 30
0.0
 11
5473.15102471406
 21
-7603.970204146616
 31
0.0
  0
LINE
  5
16862D
330
18
100
AcDbEntity
  8
姿図
100
AcDbLine
 10
5484.18545651263
 20
-7558.856793932984
 30
0.0
 11
5484.549915211501
 21
-7558.95528566981
 31
0.0
  0
LINE
  5
16862E
330
18
100
AcDbEntity
  8
姿図
100
AcDbLine
 10
5484.682178648047
 20
-7555.199193932986
 30
0.0
 11
5484.99825651263
 21
-7555.063727266319
 31
0.0
  0
LINE
  5
16862F
330
18
100
AcDbEntity
  8
姿図
100
AcDbLine
 10
5487.210900783464
 20
-7554.025138464235
 30
0.0
 11
5487.481834116797
 21
-7553.979993932985
 31
0.0
  0
LINE
  5
168630
330
18
100
AcDbEntity
  8
姿図
100
AcDbLine
 10
5490.19116745013
 20
-7553.302660599652
 30
0.0
 11
5490.552389845963
 21
-7553.302660599652
 31
0.0
  0
LINE
  5
168631
330
18
100
AcDbEntity
  8
姿図
100
AcDbLine
 10
5493.39722291888
 20
-7553.528416328819
 30
0.0
 11
5493.57780104388
 21
-7553.527933920806
 31
0.0
  0
LINE
  5
168632
330
18
100
AcDbEntity
  8
姿図
100
AcDbLine
 10
5496.512956252214
 20
-7554.341216328819
 30
0.0
 11
5496.287134377213
 21
-7554.296071797568
 31
0.0
  0
LINE
  5
168633
330
18
100
AcDbEntity
  8
姿図
100
AcDbLine
 10
5498.777115401829
 20
-7555.874607892545
 30
0.0
 11
5498.454601043881
 21
-7555.786205130902
 31
0.0
  0
LINE
  5
168634
330
18
100
AcDbEntity
  8
姿図
100
AcDbLine
 10
5490.28145651263
 20
-7571.197387725453
 30
0.0
 11
5490.098036739722
 21
-7572.53635025958
 31
0.0
  0
ELLIPSE
  5
168635
330
18
100
AcDbEntity
  8
姿図
100
AcDbEllipse
 10
5491.071684247005
 20
-7613.678797370864
 30
0.0
 11
18.062227734375
 21
0.0
 31
0.0
210
0.0
220
0.0
230
1.0
 40
0.225622489741088
 41
3.259205843112263
 42
6.165572117657116
  0
ELLIPSE
  5
168636
330
18
100
AcDbEntity
  8
姿図
100
AcDbEllipse
 10
5491.071684247005
 20
-7612.722400808744
 30
0.0
 11
18.062227734375
 21
0.0
 31
0.0
210
0.0
220
0.0
230
1.0
 40
0.225622489741088
 41
3.378486587795002
 42
6.046291372973831
  0
ELLIPSE
  5
168637
330
18
100
AcDbEntity
  8
姿図
100
AcDbEllipse
 10
5491.071684247005
 20
-7611.766004246624
 30
0.0
 11
18.062227734375
 21
0.0
 31
0.0
210
0.0
220
0.0
230
1.0
 40
0.225622489741088
 41
3.501328144222833
 42
5.923449816546546
  0
ELLIPSE
  5
168638
330
18
100
AcDbEntity
  8
姿図
100
AcDbEllipse
 10
5491.071684247005
 20
-7610.809607684504
 30
0.0
 11
18.062227734375
 21
0.0
 31
0.0
210
0.0
220
0.0
230
1.0
 40
0.225622489741088
 41
3.63016856358607
 42
5.79460939718331
  0
ELLIPSE
  5
168639
330
18
100
AcDbEntity
  8
姿図
100
AcDbEllipse
 10
5491.071684247005
 20
-7609.853211122384
 30
0.0
 11
18.062227734375
 21
0.0
 31
0.0
210
0.0
220
0.0
230
1.0
 40
0.225622489741088
 41
3.768584113835247
 42
5.656193846934133
  0
ELLIPSE
  5
16863A
330
18
100
AcDbEntity
  8
姿図
100
AcDbEllipse
 10
5491.071684247005
 20
-7608.896814560264
 30
0.0
 11
18.062227734375
 21
0.0
 31
0.0
210
0.0
220
0.0
230
1.0
 40
0.225622489741088
 41
3.922681862114014
 42
5.502096098655365
  0
ELLIPSE
  5
16863B
330
18
100
AcDbEntity
  8
姿図
100
AcDbEllipse
 10
5491.071684247005
 20
-7607.940417998144
 30
0.0
 11
18.062227734375
 21
0.0
 31
0.0
210
0.0
220
0.0
230
1.0
 40
0.225622489741088
 41
4.105446184484467
 42
5.319331776284911
  0
ELLIPSE
  5
16863C
330
18
100
AcDbEntity
  8
姿図
100
AcDbEllipse
 10
5491.071684247005
 20
-7606.984021436024
 30
0.0
 11
18.062227734375
 21
0.0
 31
0.0
210
0.0
220
0.0
230
1.0
 40
0.225622489741088
 41
4.360541984088902
 42
5.064235976680477
  0
ENDSEC
  0
SECTION
  2
OBJECTS
  0
DICTIONARY
  5
C
330
0
100
AcDbDictionary
281
     1
  3
ACAD_GROUP
350
D
  3
ACAD_IMAGE_VARS
350
168802
  3
ACAD_LAYOUT
350
617
  3
ACAD_MLINESTYLE
350
E
  3
ACAD_PLOTSETTINGS
350
618
  3
ACAD_PLOTSTYLENAME
350
615
  3
ACAD_SCALELIST
350
A36
  3
AcadDim
350
AB4
  3
AcDbVariableDictionary
350
6DE
  3
APPDATA
350
168801
  3
DWGPROPS
350
168826
  0
DICTIONARY
  5
8BF
330
2
100
AcDbDictionary
280
     1
281
     1
  3
ACAD_LAYERSTATES
360
8C0
  0
DICTIONARY
  5
A60
330
F
100
AcDbDictionary
280
     1
281
     1
  3
ADSK_XREC_LAYER_RECONCILED
360
A61
  0
DICTIONARY
  5
A66
330
34
100
AcDbDictionary
280
     1
281
     1
  3
ADSK_XREC_LAYER_RECONCILED
360
A67
  0
DICTIONARY
  5
A6E
330
2F4
100
AcDbDictionary
280
     1
281
     1
  3
ADSK_XREC_LAYER_RECONCILED
360
A6F
  0
DICTIONARY
  5
A72
330
305
100
AcDbDictionary
280
     1
281
     1
  3
ADSK_XREC_LAYER_RECONCILED
360
A73
  0
DICTIONARY
  5
143F
330
18
100
AcDbDictionary
280
     1
281
     1
  3
ACAD_SORTENTS
360
1440
  0
DICTIONARY
  5
D
102
{ACAD_REACTORS
330
C
102
}
330
C
100
AcDbDictionary
281
     1
  0
RASTERVARIABLES
  5
168802
102
{ACAD_REACTORS
330
C
102
}
330
C
100
AcDbRasterVariables
 90
        0
 70
     1
 71
     1
 72
     0
  0
DICTIONARY
  5
617
102
{ACAD_REACTORS
330
C
102
}
330
C
100
AcDbDictionary
281
     1
  3
Model
350
619
  3
ﾚｲｱｳﾄ1
350
61A
  0
DICTIONARY
  5
E
102
{ACAD_REACTORS
330
C
102
}
330
C
100
AcDbDictionary
281
     1
  3
STANDARD
350
1B
  0
DICTIONARY
  5
618
102
{ACAD_REACTORS
330
C
102
}
330
C
100
AcDbDictionary
281
     1
  0
ACDBDICTIONARYWDFLT
  5
615
102
{ACAD_REACTORS
330
C
102
}
330
C
100
AcDbDictionary
281
     1
  3
Normal
350
616
100
AcDbDictionaryWithDefault
340
616
  0
DICTIONARY
  5
A36
102
{ACAD_REACTORS
330
C
102
}
330
C
100
AcDbDictionary
281
     1
  3
A0
350
A37
  3
A1
350
A38
  3
A2
350
A39
  3
A3
350
A3A
  3
A4
350
A3B
  3
A5
350
A3C
  3
A6
350
A3D
  3
A7
350
A3E
  3
A8
350
A3F
  3
A9
350
A40
  3
B0
350
A41
  3
B1
350
A42
  3
B2
350
A43
  3
B3
350
A44
  3
B4
350
A45
  3
B5
350
A46
  3
B6
350
A47
  3
B7
350
A48
  3
B8
350
A49
  3
B9
350
A4A
  3
C0
350
A4B
  3
C1
350
A4C
  3
C2
350
A4D
  3
C3
350
A4E
  3
C4
350
A4F
  3
C5
350
A50
  3
C6
350
A51
  3
C7
350
A52
  3
C8
350
A53
  3
C9
350
A54
  3
D0
350
A55
  3
D1
350
A56
  3
D2
350
A57
  0
XRECORD
  5
AB4
102
{ACAD_REACTORS
330
C
102
}
330
C
100
AcDbXrecord
280
     1
 90
   990106
  3
OPEN
 60
     0
 61
     0
 62
     1
 63
     3
 64
     1
 65
     0
 66
     0
 67
     3
 68
     1
 69
     0
 70
     0
 71
     0
 72
     0
 40
0.0
170
     2
  0
DICTIONARY
  5
6DE
102
{ACAD_REACTORS
330
C
102
}
330
C
100
AcDbDictionary
281
     1
  3
DIMASSOC
350
6DF
  3
INDEXCTL
350
A93
  3
PROJECTNAME
350
6E0
  3
SORTENTS
350
A92
  0
DICTIONARY
  5
168801
102
{ACAD_REACTORS
330
C
102
}
330
C
100
AcDbDictionary
281
     1
  0
XRECORD
  5
168826
102
{ACAD_REACTORS
330
C
102
}
330
C
100
AcDbXrecord
280
     1
  1
DWGPROPS COOKIE
  2

  3

  4

  6

  7

  8
SPAX
  9

300
=
301
=
302
=
303
=
304
=
305
=
306
=
307
=
308
=
309
=
 40
0.0
 41
2448636.244629629
 42
2456821.19608346
  1

 90
        0
  0
DICTIONARY
  5
8C0
102
{ACAD_REACTORS
330
8BF
102
}
330
8BF
100
AcDbDictionary
281
     1
  0
XRECORD
  5
A61
102
{ACAD_REACTORS
330
A60
102
}
330
A60
100
AcDbXrecord
280
     1
290
     1
  0
XRECORD
  5
A67
102
{ACAD_REACTORS
330
A66
102
}
330
A66
100
AcDbXrecord
280
     1
290
     1
  0
XRECORD
  5
A6F
102
{ACAD_REACTORS
330
A6E
102
}
330
A6E
100
AcDbXrecord
280
     1
290
     1
  0
XRECORD
  5
A73
102
{ACAD_REACTORS
330
A72
102
}
330
A72
100
AcDbXrecord
280
     1
290
     1
  0
SORTENTSTABLE
  5
1440
102
{ACAD_REACTORS
330
143F
102
}
330
143F
100
AcDbSortentsTable
330
18
331
0
  5
1520F0
331
D0CC6
  5
D0CC6
331
F6D77
  5
F6D77
331
F6D78
  5
F6D78
  0
LAYOUT
  5
619
102
{ACAD_REACTORS
330
617
102
}
330
617
100
AcDbPlotSettings
  1

  2
JUST PDF 2
  4
A4
  6

 40
3.174999952316284
 41
3.174999952316284
 42
3.175003051757812
 43
3.17498779296875
 44
209.8886566162109
 45
297.0530090332031
 46
14.27171755861536
 47
9.855173074625782
 48
5440.118950815492
 49
-8031.365971294936
140
5790.109387805304
141
-7489.380621017603
142
1.0
143
2.0
 70
  3748
 72
     1
 73
     0
 74
     4
  7
spax form.ctb
 75
    16
147
1.0
148
-5440.118950815492
149
8031.365971294936
100
AcDbLayout
  1
Model
 70
     1
 71
     0
 10
0.0
 20
0.0
 11
12.0
 21
9.0
 12
0.0
 22
0.0
 32
0.0
 14
5444.67406244697
 24
-7642.766442236936
 34
0.0
 15
5520.507395780303
 25
-7553.302660599652
 35
0.0
146
0.0
 13
0.0
 23
0.0
 33
0.0
 16
1.0
 26
0.0
 36
0.0
 17
0.0
 27
1.0
 37
0.0
 76
     0
330
18
331
163878
1001
ACAD_PSEXT
1000
JUST PDF 2
1000
JUST PDF 2
1000
JUST PDF 2 Port:
1000

1070
     0
  0
LAYOUT
  5
61A
102
{ACAD_REACTORS
330
617
102
}
330
617
100
AcDbPlotSettings
  1

  2
Canon LASER SHOT LBP-750
  4

  6

 40
0.0
 41
0.0
 42
0.0
 43
0.0
 44
0.0
 45
0.0
 46
0.0
 47
0.0
 48
0.0
 49
0.0
140
0.0
141
0.0
142
1.0
143
1.0
 70
   688
 72
     0
 73
     0
 74
     5
  7
spax form.ctb
 75
    16
147
1.0
148
0.0
149
0.0
100
AcDbLayout
  1
ﾚｲｱｳﾄ1
 70
     0
 71
     1
 10
0.0
 20
0.0
 11
12.0
 21
9.0
 12
0.0
 22
0.0
 32
0.0
 14
1.000000000000000E+20
 24
1.000000000000000E+20
 34
1.000000000000000E+20
 15
-1.000000000000000E+20
 25
-1.000000000000000E+20
 35
-1.000000000000000E+20
146
0.0
 13
0.0
 23
0.0
 33
0.0
 16
1.0
 26
0.0
 36
0.0
 17
0.0
 27
1.0
 37
0.0
 76
     0
330
15
  0
MLINESTYLE
  5
1B
102
{ACAD_REACTORS
330
E
102
}
330
E
100
AcDbMlineStyle
  2
STANDARD
 70
     0
  3

 62
     0
 51
90.0
 52
90.0
 71
     2
 49
0.5
 62
   256
  6
BYLAYER
 49
-0.5
 62
   256
  6
BYLAYER
  0
ACDBPLACEHOLDER
  5
616
102
{ACAD_REACTORS
330
615
102
}
330
615
  0
SCALE
  5
A37
102
{ACAD_REACTORS
330
A36
102
}
330
A36
100
AcDbScale
 70
     0
300
1:1
140
1.0
141
1.0
290
     1
  0
SCALE
  5
A38
102
{ACAD_REACTORS
330
A36
102
}
330
A36
100
AcDbScale
 70
     0
300
1:2
140
1.0
141
2.0
290
     0
  0
SCALE
  5
A39
102
{ACAD_REACTORS
330
A36
102
}
330
A36
100
AcDbScale
 70
     0
300
1:4
140
1.0
141
4.0
290
     0
  0
SCALE
  5
A3A
102
{ACAD_REACTORS
330
A36
102
}
330
A36
100
AcDbScale
 70
     0
300
1:5
140
1.0
141
5.0
290
     0
  0
SCALE
  5
A3B
102
{ACAD_REACTORS
330
A36
102
}
330
A36
100
AcDbScale
 70
     0
300
1:8
140
1.0
141
8.0
290
     0
  0
SCALE
  5
A3C
102
{ACAD_REACTORS
330
A36
102
}
330
A36
100
AcDbScale
 70
     0
300
1:10
140
1.0
141
10.0
290
     0
  0
SCALE
  5
A3D
102
{ACAD_REACTORS
330
A36
102
}
330
A36
100
AcDbScale
 70
     0
300
1:16
140
1.0
141
16.0
290
     0
  0
SCALE
  5
A3E
102
{ACAD_REACTORS
330
A36
102
}
330
A36
100
AcDbScale
 70
     0
300
1:20
140
1.0
141
20.0
290
     0
  0
SCALE
  5
A3F
102
{ACAD_REACTORS
330
A36
102
}
330
A36
100
AcDbScale
 70
     0
300
1:30
140
1.0
141
30.0
290
     0
  0
SCALE
  5
A40
102
{ACAD_REACTORS
330
A36
102
}
330
A36
100
AcDbScale
 70
     0
300
1:40
140
1.0
141
40.0
290
     0
  0
SCALE
  5
A41
102
{ACAD_REACTORS
330
A36
102
}
330
A36
100
AcDbScale
 70
     0
300
1:50
140
1.0
141
50.0
290
     0
  0
SCALE
  5
A42
102
{ACAD_REACTORS
330
A36
102
}
330
A36
100
AcDbScale
 70
     0
300
1:100
140
1.0
141
100.0
290
     0
  0
SCALE
  5
A43
102
{ACAD_REACTORS
330
A36
102
}
330
A36
100
AcDbScale
 70
     0
300
2:1
140
2.0
141
1.0
290
     0
  0
SCALE
  5
A44
102
{ACAD_REACTORS
330
A36
102
}
330
A36
100
AcDbScale
 70
     0
300
4:1
140
4.0
141
1.0
290
     0
  0
SCALE
  5
A45
102
{ACAD_REACTORS
330
A36
102
}
330
A36
100
AcDbScale
 70
     0
300
8:1
140
8.0
141
1.0
290
     0
  0
SCALE
  5
A46
102
{ACAD_REACTORS
330
A36
102
}
330
A36
100
AcDbScale
 70
     0
300
10:1
140
10.0
141
1.0
290
     0
  0
SCALE
  5
A47
102
{ACAD_REACTORS
330
A36
102
}
330
A36
100
AcDbScale
 70
     0
300
100:1
140
100.0
141
1.0
290
     0
  0
SCALE
  5
A48
102
{ACAD_REACTORS
330
A36
102
}
330
A36
100
AcDbScale
 70
     0
300
1/128" = 1'-0"
140
0.0078125
141
12.0
290
     0
  0
SCALE
  5
A49
102
{ACAD_REACTORS
330
A36
102
}
330
A36
100
AcDbScale
 70
     0
300
1/64" = 1'-0"
140
0.015625
141
12.0
290
     0
  0
SCALE
  5
A4A
102
{ACAD_REACTORS
330
A36
102
}
330
A36
100
AcDbScale
 70
     0
300
1/32" = 1'-0"
140
0.03125
141
12.0
290
     0
  0
SCALE
  5
A4B
102
{ACAD_REACTORS
330
A36
102
}
330
A36
100
AcDbScale
 70
     0
300
1/16" = 1'-0"
140
0.0625
141
12.0
290
     0
  0
SCALE
  5
A4C
102
{ACAD_REACTORS
330
A36
102
}
330
A36
100
AcDbScale
 70
     0
300
3/32" = 1'-0"
140
0.09375
141
12.0
290
     0
  0
SCALE
  5
A4D
102
{ACAD_REACTORS
330
A36
102
}
330
A36
100
AcDbScale
 70
     0
300
1/8" = 1'-0"
140
0.125
141
12.0
290
     0
  0
SCALE
  5
A4E
102
{ACAD_REACTORS
330
A36
102
}
330
A36
100
AcDbScale
 70
     0
300
3/16" = 1'-0"
140
0.1875
141
12.0
290
     0
  0
SCALE
  5
A4F
102
{ACAD_REACTORS
330
A36
102
}
330
A36
100
AcDbScale
 70
     0
300
1/4" = 1'-0"
140
0.25
141
12.0
290
     0
  0
SCALE
  5
A50
102
{ACAD_REACTORS
330
A36
102
}
330
A36
100
AcDbScale
 70
     0
300
3/8" = 1'-0"
140
0.375
141
12.0
290
     0
  0
SCALE
  5
A51
102
{ACAD_REACTORS
330
A36
102
}
330
A36
100
AcDbScale
 70
     0
300
1/2" = 1'-0"
140
0.5
141
12.0
290
     0
  0
SCALE
  5
A52
102
{ACAD_REACTORS
330
A36
102
}
330
A36
100
AcDbScale
 70
     0
300
3/4" = 1'-0"
140
0.75
141
12.0
290
     0
  0
SCALE
  5
A53
102
{ACAD_REACTORS
330
A36
102
}
330
A36
100
AcDbScale
 70
     0
300
1" = 1'-0"
140
1.0
141
12.0
290
     0
  0
SCALE
  5
A54
102
{ACAD_REACTORS
330
A36
102
}
330
A36
100
AcDbScale
 70
     0
300
1-1/2" = 1'-0"
140
1.5
141
12.0
290
     0
  0
SCALE
  5
A55
102
{ACAD_REACTORS
330
A36
102
}
330
A36
100
AcDbScale
 70
     0
300
3" = 1'-0"
140
3.0
141
12.0
290
     0
  0
SCALE
  5
A56
102
{ACAD_REACTORS
330
A36
102
}
330
A36
100
AcDbScale
 70
     0
300
6" = 1'-0"
140
6.0
141
12.0
290
     0
  0
SCALE
  5
A57
102
{ACAD_REACTORS
330
A36
102
}
330
A36
100
AcDbScale
 70
     0
300
1'-0" = 1'-0"
140
12.0
141
12.0
290
     0
  0
DICTIONARYVAR
  5
6DF
102
{ACAD_REACTORS
330
6DE
102
}
330
6DE
100
DictionaryVariables
280
     0
  1
1
  0
DICTIONARYVAR
  5
A93
102
{ACAD_REACTORS
330
6DE
102
}
330
6DE
100
DictionaryVariables
280
     0
  1
0
  0
DICTIONARYVAR
  5
6E0
102
{ACAD_REACTORS
330
6DE
102
}
330
6DE
100
DictionaryVariables
280
     0
  1

  0
DICTIONARYVAR
  5
A92
102
{ACAD_REACTORS
330
6DE
102
}
330
6DE
100
DictionaryVariables
280
     0
  1
127
  0
ENDSEC
  0
EOF
