  0
SECTION
  2
HEADER
  9
$ACADVER
  1
AC1015
  9
$ACADMAINTVER
 70
     6
  9
$DWGCODEPAGE
  3
ANSI_932
  9
$INSBASE
 10
0.0
 20
0.0
 30
0.0
  9
$EXTMIN
 10
1587.511362050397
 20
-3941.723764377253
 30
0.0
  9
$EXTMAX
 10
1610.511362050397
 20
-3908.116782215828
 30
0.0
  9
$LIMMIN
 10
0.0
 20
0.0
  9
$LIMMAX
 10
420.0
 20
297.0
  9
$ORTHOMODE
 70
     1
  9
$REGENMODE
 70
     1
  9
$FILLMODE
 70
     1
  9
$QTEXTMODE
 70
     0
  9
$MIRRTEXT
 70
     1
  9
$LTSCALE
 40
5.0
  9
$ATTMODE
 70
     0
  9
$TEXTSIZE
 40
4.0
  9
$TRACEWID
 40
1.0
  9
$TEXTSTYLE
  7
STANDARD
  9
$CLAYER
  8
0
  9
$CELTYPE
  6
BYLAYER
  9
$CECOLOR
 62
   256
  9
$CELTSCALE
 40
1.0
  9
$DISPSILH
 70
     0
  9
$DIMSCALE
 40
1.0
  9
$DIMASZ
 40
2.5
  9
$DIMEXO
 40
1.5
  9
$DIMDLI
 40
5.0
  9
$DIMRND
 40
0.0
  9
$DIMDLE
 40
0.0
  9
$DIMEXE
 40
1.0
  9
$DIMTP
 40
0.0
  9
$DIMTM
 40
0.0
  9
$DIMTXT
 40
3.0
  9
$DIMCEN
 40
0.0
  9
$DIMTSZ
 40
0.0
  9
$DIMTOL
 70
     0
  9
$DIMLIM
 70
     0
  9
$DIMTIH
 70
     0
  9
$DIMTOH
 70
     0
  9
$DIMSE1
 70
     0
  9
$DIMSE2
 70
     0
  9
$DIMTAD
 70
     3
  9
$DIMZIN
 70
     8
  9
$DIMBLK
  1
Open30
  9
$DIMASO
 70
     1
  9
$DIMSHO
 70
     0
  9
$DIMPOST
  1

  9
$DIMAPOST
  1

  9
$DIMALT
 70
     0
  9
$DIMALTD
 70
     0
  9
$DIMALTF
 40
25.4
  9
$DIMLFAC
 40
1.0
  9
$DIMTOFL
 70
     1
  9
$DIMTVP
 40
0.0
  9
$DIMTIX
 70
     0
  9
$DIMSOXD
 70
     0
  9
$DIMSAH
 70
     0
  9
$DIMBLK1
  1

  9
$DIMBLK2
  1

  9
$DIMSTYLE
  2
STANDARD
  9
$DIMCLRD
 70
     8
  9
$DIMCLRE
 70
     8
  9
$DIMCLRT
 70
   256
  9
$DIMTFAC
 40
1.0
  9
$DIMGAP
 40
1.0
  9
$DIMJUST
 70
     0
  9
$DIMSD1
 70
     0
  9
$DIMSD2
 70
     0
  9
$DIMTOLJ
 70
     1
  9
$DIMTZIN
 70
     0
  9
$DIMALTZ
 70
     0
  9
$DIMALTTZ
 70
     0
  9
$DIMUPT
 70
     0
  9
$DIMDEC
 70
     2
  9
$DIMTDEC
 70
     2
  9
$DIMALTU
 70
     2
  9
$DIMALTTD
 70
     0
  9
$DIMTXSTY
  7
STANDARD
  9
$DIMAUNIT
 70
     0
  9
$DIMADEC
 70
     2
  9
$DIMALTRND
 40
0.0
  9
$DIMAZIN
 70
     2
  9
$DIMDSEP
 70
    46
  9
$DIMATFIT
 70
     3
  9
$DIMFRAC
 70
     0
  9
$DIMLDRBLK
  1
Open30
  9
$DIMLUNIT
 70
     2
  9
$DIMLWD
 70
    -2
  9
$DIMLWE
 70
    -2
  9
$DIMTMOVE
 70
     0
  9
$LUNITS
 70
     2
  9
$LUPREC
 70
     2
  9
$SKETCHINC
 40
0.1
  9
$FILLETRAD
 40
0.5
  9
$AUNITS
 70
     0
  9
$AUPREC
 70
     1
  9
$MENU
  1
FM
  9
$ELEVATION
 40
0.0
  9
$PELEVATION
 40
0.0
  9
$THICKNESS
 40
0.0
  9
$LIMCHECK
 70
     0
  9
$CHAMFERA
 40
0.0
  9
$CHAMFERB
 40
0.0
  9
$CHAMFERC
 40
0.0
  9
$CHAMFERD
 40
0.0
  9
$SKPOLY
 70
     0
  9
$TDCREATE
 40
2448636.619629629
  9
$TDUCREATE
 40
2448636.244629629
  9
$TDUPDATE
 40
2456822.848406609
  9
$TDUUPDATE
 40
2456822.473406609
  9
$TDINDWG
 40
28.7945045255
  9
$TDUSRTIMER
 40
2456822.473125579
  9
$USRTIMER
 70
     1
  9
$ANGBASE
 50
0.0
  9
$ANGDIR
 70
     0
  9
$PDMODE
 70
     3
  9
$PDSIZE
 40
0.0
  9
$PLINEWID
 40
0.0
  9
$SPLFRAME
 70
     0
  9
$SPLINETYPE
 70
     6
  9
$SPLINESEGS
 70
     8
  9
$HANDSEED
  5
88B06
  9
$SURFTAB1
 70
     6
  9
$SURFTAB2
 70
     6
  9
$SURFTYPE
 70
     6
  9
$SURFU
 70
     6
  9
$SURFV
 70
     6
  9
$UCSBASE
  2

  9
$UCSNAME
  2

  9
$UCSORG
 10
0.0
 20
0.0
 30
0.0
  9
$UCSXDIR
 10
1.0
 20
0.0
 30
0.0
  9
$UCSYDIR
 10
0.0
 20
1.0
 30
0.0
  9
$UCSORTHOREF
  2

  9
$UCSORTHOVIEW
 70
     0
  9
$UCSORGTOP
 10
0.0
 20
0.0
 30
0.0
  9
$UCSORGBOTTOM
 10
0.0
 20
0.0
 30
0.0
  9
$UCSORGLEFT
 10
0.0
 20
0.0
 30
0.0
  9
$UCSORGRIGHT
 10
0.0
 20
0.0
 30
0.0
  9
$UCSORGFRONT
 10
0.0
 20
0.0
 30
0.0
  9
$UCSORGBACK
 10
0.0
 20
0.0
 30
0.0
  9
$PUCSBASE
  2

  9
$PUCSNAME
  2

  9
$PUCSORG
 10
0.0
 20
0.0
 30
0.0
  9
$PUCSXDIR
 10
1.0
 20
0.0
 30
0.0
  9
$PUCSYDIR
 10
0.0
 20
1.0
 30
0.0
  9
$PUCSORTHOREF
  2

  9
$PUCSORTHOVIEW
 70
     0
  9
$PUCSORGTOP
 10
0.0
 20
0.0
 30
0.0
  9
$PUCSORGBOTTOM
 10
0.0
 20
0.0
 30
0.0
  9
$PUCSORGLEFT
 10
0.0
 20
0.0
 30
0.0
  9
$PUCSORGRIGHT
 10
0.0
 20
0.0
 30
0.0
  9
$PUCSORGFRONT
 10
0.0
 20
0.0
 30
0.0
  9
$PUCSORGBACK
 10
0.0
 20
0.0
 30
0.0
  9
$USERI1
 70
     0
  9
$USERI2
 70
     0
  9
$USERI3
 70
     0
  9
$USERI4
 70
     0
  9
$USERI5
 70
     0
  9
$USERR1
 40
0.0
  9
$USERR2
 40
0.0
  9
$USERR3
 40
0.0
  9
$USERR4
 40
0.0
  9
$USERR5
 40
0.0
  9
$WORLDVIEW
 70
     0
  9
$SHADEDGE
 70
     3
  9
$SHADEDIF
 70
    70
  9
$TILEMODE
 70
     1
  9
$MAXACTVP
 70
    16
  9
$PINSBASE
 10
0.0
 20
0.0
 30
0.0
  9
$PLIMCHECK
 70
     0
  9
$PEXTMIN
 10
1.000000000000000E+20
 20
1.000000000000000E+20
 30
1.000000000000000E+20
  9
$PEXTMAX
 10
-1.000000000000000E+20
 20
-1.000000000000000E+20
 30
-1.000000000000000E+20
  9
$PLIMMIN
 10
0.0
 20
0.0
  9
$PLIMMAX
 10
0.0
 20
0.0
  9
$UNITMODE
 70
     0
  9
$VISRETAIN
 70
     0
  9
$PLINEGEN
 70
     0
  9
$PSLTSCALE
 70
     0
  9
$TREEDEPTH
 70
  3020
  9
$CMLSTYLE
  2
STANDARD
  9
$CMLJUST
 70
     0
  9
$CMLSCALE
 40
1.0
  9
$PROXYGRAPHICS
 70
     1
  9
$MEASUREMENT
 70
     0
  9
$CELWEIGHT
370
    -1
  9
$ENDCAPS
280
     0
  9
$JOINSTYLE
280
     0
  9
$LWDISPLAY
290
     0
  9
$INSUNITS
 70
     0
  9
$HYPERLINKBASE
  1

  9
$STYLESHEET
  1
spax form.ctb
  9
$XEDIT
290
     1
  9
$CEPSNTYPE
380
     0
  9
$PSTYLEMODE
290
     1
  9
$FINGERPRINTGUID
  2
{E5B35D22-A717-11D3-9160-00E0294F7E09}
  9
$VERSIONGUID
  2
{A83E0D54-684A-4453-963F-4EF4B314B1DA}
  9
$EXTNAMES
290
     1
  9
$PSVPSCALE
 40
0.0
  9
$OLESTARTUP
290
     0
  0
ENDSEC
  0
SECTION
  2
CLASSES
  0
CLASS
  1
LWPOLYLINE
  2
AcDbPolyline
  3
ObjectDBX Classes
 90
        0
280
     0
281
     1
  0
CLASS
  1
ACDBDICTIONARYWDFLT
  2
AcDbDictionaryWithDefault
  3
ObjectDBX Classes
 90
        0
280
     0
281
     0
  0
CLASS
  1
ACDBPLACEHOLDER
  2
AcDbPlaceHolder
  3
ObjectDBX Classes
 90
        0
280
     0
281
     0
  0
CLASS
  1
LAYOUT
  2
AcDbLayout
  3
ObjectDBX Classes
 90
        0
280
     0
281
     0
  0
CLASS
  1
DICTIONARYVAR
  2
AcDbDictionaryVar
  3
ObjectDBX Classes
 90
        0
280
     0
281
     0
  0
CLASS
  1
MATERIAL
  2
AcDbMaterial
  3
ObjectDBX Classes
 90
     1153
280
     0
281
     0
  0
CLASS
  1
SORTENTSTABLE
  2
AcDbSortentsTable
  3
ObjectDBX Classes
 90
        0
280
     0
281
     0
  0
CLASS
  1
VISUALSTYLE
  2
AcDbVisualStyle
  3
ObjectDBX Classes
 90
     4095
280
     0
281
     0
  0
CLASS
  1
TABLESTYLE
  2
AcDbTableStyle
  3
ObjectDBX Classes
 90
     4095
280
     0
281
     0
  0
CLASS
  1
SCALE
  2
AcDbScale
  3
ObjectDBX Classes
 90
     1153
280
     0
281
     0
  0
CLASS
  1
MLEADERSTYLE
  2
AcDbMLeaderStyle
  3
ACDB_MLEADERSTYLE_CLASS
 90
     4095
280
     0
281
     0
  0
CLASS
  1
CELLSTYLEMAP
  2
AcDbCellStyleMap
  3
ObjectDBX Classes
 90
     1152
280
     0
281
     0
  0
CLASS
  1
SUN
  2
AcDbSun
  3
SCENEOE
 90
     1153
280
     0
281
     0
  0
CLASS
  1
RASTERVARIABLES
  2
AcDbRasterVariables
  3
ISM
 90
        0
280
     0
281
     0
  0
ENDSEC
  0
SECTION
  2
TABLES
  0
TABLE
  2
VPORT
  5
8
330
0
100
AcDbSymbolTable
 70
     1
  0
VPORT
  5
880DC
330
8
100
AcDbSymbolTableRecord
100
AcDbViewportTableRecord
  2
*Active
 70
     0
 10
0.0
 20
0.0
 11
1.0
 21
1.0
 12
1599.011362050397
 22
-3924.92027329654
 13
0.0
 23
0.0
 14
1.0
 24
1.0
 15
20.0
 25
20.0
 16
0.0
 26
0.0
 36
1.0
 17
0.0
 27
0.0
 37
0.0
 40
34.2791218046536
 41
2.398097826086957
 42
50.0
 43
0.0
 44
0.0
 50
0.0
 51
0.0
 71
    16
 72
   100
 73
     1
 74
     0
 75
     0
 76
     0
 77
     0
 78
     1
281
     0
 65
     1
110
0.0
120
0.0
130
0.0
111
1.0
121
0.0
131
0.0
112
0.0
122
1.0
132
0.0
 79
     0
146
0.0
  0
ENDTAB
  0
TABLE
  2
LTYPE
  5
5
330
0
100
AcDbSymbolTable
 70
     3
  0
LTYPE
  5
12
330
5
100
AcDbSymbolTableRecord
100
AcDbLinetypeTableRecord
  2
BYBLOCK
 70
     0
  3

 72
    65
 73
     0
 40
0.0
  0
LTYPE
  5
13
330
5
100
AcDbSymbolTableRecord
100
AcDbLinetypeTableRecord
  2
BYLAYER
 70
     0
  3

 72
    65
 73
     0
 40
0.0
  0
LTYPE
  5
14
330
5
100
AcDbSymbolTableRecord
100
AcDbLinetypeTableRecord
  2
CONTINUOUS
 70
     0
  3
Solid line
 72
    65
 73
     0
 40
0.0
  0
LTYPE
  5
25
330
5
100
AcDbSymbolTableRecord
100
AcDbLinetypeTableRecord
  2
CENTER
 70
     0
  3
____ _ ____ _ ____ _ ____ _ ____ _ ____ _ ____
 72
    65
 73
     4
 40
2.0
 49
1.25
 74
     0
 49
-0.25
 74
     0
 49
0.25
 74
     0
 49
-0.25
 74
     0
  0
LTYPE
  5
27
330
5
100
AcDbSymbolTableRecord
100
AcDbLinetypeTableRecord
  2
HIDDEN
 70
     0
  3
_ _ _ _ _ _ _ _ _ _ _ _ _ _ _ _ _ _ _ _ _ _ _
 72
    65
 73
     2
 40
0.375
 49
0.25
 74
     0
 49
-0.125
 74
     0
  0
ENDTAB
  0
TABLE
  2
LAYER
  5
2
102
{ACAD_XDICTIONARY
360
5CD8C
102
}
330
0
100
AcDbSymbolTable
 70
     9
  0
LAYER
  5
F
102
{ACAD_XDICTIONARY
360
7C60B
102
}
330
2
100
AcDbSymbolTableRecord
100
AcDbLayerTableRecord
  2
0
 70
     0
 62
     7
  6
CONTINUOUS
370
    -3
390
352
  0
LAYER
  5
34
102
{ACAD_XDICTIONARY
360
7C611
102
}
330
2
100
AcDbSymbolTableRecord
100
AcDbLayerTableRecord
  2
寸法線
 70
     0
 62
     7
  6
CONTINUOUS
370
    -3
390
352
  0
LAYER
  5
36
330
2
100
AcDbSymbolTableRecord
100
AcDbLayerTableRecord
  2
DEFPOINTS
 70
     0
 62
     7
  6
CONTINUOUS
290
     0
370
    -3
390
352
  0
LAYER
  5
2F4
102
{ACAD_XDICTIONARY
360
7C619
102
}
330
2
100
AcDbSymbolTableRecord
100
AcDbLayerTableRecord
  2
文字
 70
     0
 62
     7
  6
CONTINUOUS
370
    -3
390
352
  0
LAYER
  5
305
102
{ACAD_XDICTIONARY
360
7C61B
102
}
330
2
100
AcDbSymbolTableRecord
100
AcDbLayerTableRecord
  2
姿図
 70
     0
 62
     8
  6
CONTINUOUS
370
    -3
390
352
  0
ENDTAB
  0
TABLE
  2
STYLE
  5
3
330
0
100
AcDbSymbolTable
 70
     1
  0
STYLE
  5
10
330
3
100
AcDbSymbolTableRecord
100
AcDbTextStyleTableRecord
  2
STANDARD
 70
     0
 40
0.0
 41
1.0
 50
0.0
 71
     0
 42
4.0
  3
MONOTXT
  4
BIGFONT
  0
ENDTAB
  0
TABLE
  2
VIEW
  5
6
330
0
100
AcDbSymbolTable
 70
     0
  0
ENDTAB
  0
TABLE
  2
UCS
  5
7
330
0
100
AcDbSymbolTable
 70
     0
  0
ENDTAB
  0
TABLE
  2
APPID
  5
9
330
0
100
AcDbSymbolTable
 70
     4
  0
APPID
  5
11
330
9
100
AcDbSymbolTableRecord
100
AcDbRegAppTableRecord
  2
ACAD
 70
     0
  0
APPID
  5
7C602
330
9
100
AcDbSymbolTableRecord
100
AcDbRegAppTableRecord
  2
ACAD_MLEADERVER
 70
     0
  0
APPID
  5
7DE15
330
9
100
AcDbSymbolTableRecord
100
AcDbRegAppTableRecord
  2
ACAD_EXEMPT_FROM_CAD_STANDARDS
 70
     0
  0
APPID
  5
7F25E
330
9
100
AcDbSymbolTableRecord
100
AcDbRegAppTableRecord
  2
ACAD_PSEXT
 70
     0
  0
ENDTAB
  0
TABLE
  2
DIMSTYLE
  5
A
330
0
100
AcDbSymbolTable
 70
     2
100
AcDbDimStyleTable
  0
DIMSTYLE
105
1CC
330
A
100
AcDbSymbolTableRecord
100
AcDbDimStyleTableRecord
  2
STANDARD
 70
     0
 41
2.5
 42
1.5
 43
5.0
 44
1.0
 73
     0
 74
     0
 77
     3
 78
     8
 79
     2
140
3.0
141
0.0
147
1.0
171
     0
172
     1
176
     8
177
     8
271
     2
178
   256
179
     2
271
     2
272
     2
274
     0
340
10
341
26836
342
26836
  0
ENDTAB
  0
TABLE
  2
BLOCK_RECORD
  5
1
330
0
100
AcDbSymbolTable
 70
     8
  0
BLOCK_RECORD
  5
18
102
{ACAD_XDICTIONARY
360
87BA1
102
}
330
1
100
AcDbSymbolTableRecord
100
AcDbBlockTableRecord
  2
*MODEL_SPACE
340
355
  0
BLOCK_RECORD
  5
15
330
1
100
AcDbSymbolTableRecord
100
AcDbBlockTableRecord
  2
*PAPER_SPACE
340
356
  0
BLOCK_RECORD
  5
23B39
330
1
100
AcDbSymbolTableRecord
100
AcDbBlockTableRecord
  2
SUN
340
0
  0
BLOCK_RECORD
  5
26836
330
1
100
AcDbSymbolTableRecord
100
AcDbBlockTableRecord
  2
_Open30
340
0
102
{BLKREFS
331
7F24C
331
7F24D
331
87FFB
331
87FFC
331
88627
331
88628
331
8863A
331
8863B
331
88AA6
331
88AA7
331
88AB1
331
88AB2
102
}
  0
ENDTAB
  0
ENDSEC
  0
SECTION
  2
BLOCKS
  0
BLOCK
  5
39
330
18
100
AcDbEntity
  8
0
100
AcDbBlockBegin
  2
*MODEL_SPACE
 70
     0
 10
0.0
 20
0.0
 30
0.0
  3
*MODEL_SPACE
  1
*MODEL_SPACE
  0
ENDBLK
  5
3A
330
18
100
AcDbEntity
  8
0
100
AcDbBlockEnd
  0
BLOCK
  5
37
330
15
100
AcDbEntity
 67
     1
  8
0
100
AcDbBlockBegin
  2
*PAPER_SPACE
 70
     0
 10
0.0
 20
0.0
 30
0.0
  3
*PAPER_SPACE
  1
*PAPER_SPACE
  0
ENDBLK
  5
38
330
15
100
AcDbEntity
 67
     1
  8
0
100
AcDbBlockEnd
  0
BLOCK
  5
23B3A
330
23B39
100
AcDbEntity
  8
0
100
AcDbBlockBegin
  2
SUN
 70
     0
 10
0.0
 20
0.0
 30
0.0
  3
SUN
  1
SUN
  0
LINE
  5
23B3B
330
23B39
100
AcDbEntity
  8
0
100
AcDbLine
 10
-0.0000000000000568
 20
0.0
 30
0.0
 11
-1.500000000000057
 21
0.0
 31
0.0
  0
LINE
  5
23B3C
330
23B39
100
AcDbEntity
  8
0
100
AcDbLine
 10
-0.0000000000000568
 20
0.0000000000000284
 30
0.0
 11
-1.500000000000057
 21
0.401923788646684
 31
0.0
  0
LINE
  5
23B3D
330
23B39
100
AcDbEntity
  8
0
100
AcDbLine
 10
-0.0000000000000568
 20
0.0000000000000284
 30
0.0
 11
-1.500000000000057
 21
-0.4019237886466556
 31
0.0
  0
ENDBLK
  5
23B3E
330
23B39
100
AcDbEntity
  8
0
100
AcDbBlockEnd
  0
BLOCK
  5
2683A
330
26836
100
AcDbEntity
  8
0
100
AcDbBlockBegin
  2
_Open30
 70
     0
 10
0.0
 20
0.0
 30
0.0
  3
_Open30
  1
_Open30
  0
LINE
  5
26837
330
26836
100
AcDbEntity
  8
0
  6
ByBlock
 62
     0
370
    -2
100
AcDbLine
 10
-1.0
 20
0.26794919
 30
0.0
 11
0.0
 21
0.0
 31
0.0
  0
LINE
  5
26838
330
26836
100
AcDbEntity
  8
0
  6
ByBlock
 62
     0
370
    -2
100
AcDbLine
 10
0.0
 20
0.0
 30
0.0
 11
-1.0
 21
-0.26794919
 31
0.0
  0
LINE
  5
26839
330
26836
100
AcDbEntity
  8
0
  6
ByBlock
 62
     0
370
    -2
100
AcDbLine
 10
0.0
 20
0.0
 30
0.0
 11
-1.0
 21
0.0
 31
0.0
  0
ENDBLK
  5
2683B
330
26836
100
AcDbEntity
  8
0
100
AcDbBlockEnd
  0
ENDSEC
  0
SECTION
  2
ENTITIES
  0
MTEXT
  5
68A6
330
18
100
AcDbEntity
  8
寸法線
100
AcDbMText
 10
-486.1068371296387
 20
-852.0661175366167
 30
0.0
 40
2.5
 41
0.0
 71
     7
 72
     1
  1

 73
     1
 44
1.0
  0
MTEXT
  5
13080
330
18
100
AcDbEntity
  8
寸法線
100
AcDbMText
 10
866.6245758726407
 20
-636.1836758483898
 30
0.0
 40
2.5
 41
0.0
 71
     9
 72
     1
  1

 73
     1
 44
1.0
  0
TEXT
  5
7B85D
330
18
100
AcDbEntity
  8
寸法線
100
AcDbText
 10
2518.386867623842
 20
-2446.199490078899
 30
0.0
 40
1.5
  1

100
AcDbText
  0
MTEXT
  5
7B9B2
330
18
100
AcDbEntity
  8
寸法線
100
AcDbMText
 10
1450.460729016278
 20
-3350.58621324552
 30
0.0
 40
3.0
 41
0.0
 71
     9
 72
     1
  1
\A1;
 73
     1
 44
1.0
  0
TEXT
  5
88930
330
18
100
AcDbEntity
  8
文字
100
AcDbText
 10
1587.511362050397
 20
-3941.723764377253
 30
0.0
 40
3.0
  1
SA-2HC02
100
AcDbText
  0
LWPOLYLINE
  5
889E8
330
18
100
AcDbEntity
  8
姿図
100
AcDbPolyline
 90
        3
 70
     0
 43
0.0
 10
1600.931748742118
 20
-3909.628743688462
 10
1600.931748742118
 20
-3909.68763092683
 10
1601.951104541656
 20
-3910.276156272094
  0
LWPOLYLINE
  5
889E9
330
18
100
AcDbEntity
  8
姿図
100
AcDbPolyline
 90
        5
 70
     0
 43
0.0
 10
1598.550498742118
 20
-3909.002025712765
 10
1598.550498742118
 20
-3909.68763092683
 10
1599.741123742118
 20
-3910.375038591084
 10
1600.931748742118
 20
-3909.68763092683
 10
1600.931748742118
 20
-3909.628743688462
  0
LWPOLYLINE
  5
889EA
330
18
100
AcDbEntity
  8
姿図
100
AcDbPolyline
 90
        5
 70
     0
 43
0.0
 10
1596.169248742118
 20
-3909.496900620998
 10
1596.169248742118
 20
-3909.68763092683
 10
1597.359873742118
 20
-3910.375038591084
 10
1598.550498742118
 20
-3909.68763092683
 10
1598.550498742118
 20
-3909.002025712765
  0
ELLIPSE
  5
889EB
330
18
100
AcDbEntity
  8
姿図
100
AcDbEllipse
 10
1598.841790942423
 20
-3920.951903663114
 30
0.0
 11
-1.781230919329616E-16
 21
12.83512144728587
 31
0.0
210
0.0
220
0.0
230
1.0
 40
0.7206397650689728
 41
-0.0000000000000004
 42
6.283185307179586
  0
ELLIPSE
  5
889EC
330
18
100
AcDbEntity
  8
姿図
100
AcDbEllipse
 10
1601.366254393949
 20
-3920.951903663114
 30
0.0
 11
-0.002177517301305309
 21
12.84204089171078
 31
0.0
210
0.0
220
0.0
230
1.0
 40
0.648631037601602
 41
3.220253851415999
 42
6.205710941724045
  0
LWPOLYLINE
  5
889ED
330
18
100
AcDbEntity
  8
姿図
100
AcDbPolyline
 90
        6
 70
     1
 43
0.0
 10
1603.312998742118
 20
-3912.437261583847
 10
1602.122373742118
 20
-3911.749853919592
 10
1600.931748742118
 20
-3912.437261583847
 10
1600.931748742118
 20
-3913.812076912354
 10
1602.122373742118
 20
-3914.499484576608
 10
1603.312998742118
 20
-3913.812076912354
  0
LWPOLYLINE
  5
889EE
330
18
100
AcDbEntity
  8
姿図
100
AcDbPolyline
 90
        6
 70
     1
 43
0.0
 10
1603.312998742118
 20
-3916.56170756937
 10
1602.122373742118
 20
-3915.874299905116
 10
1600.931748742118
 20
-3916.56170756937
 10
1600.931748742118
 20
-3917.936522897878
 10
1602.122373742118
 20
-3918.623930562132
 10
1603.312998742118
 20
-3917.936522897878
  0
LWPOLYLINE
  5
889EF
330
18
100
AcDbEntity
  8
姿図
100
AcDbPolyline
 90
        6
 70
     1
 43
0.0
 10
1603.312998742118
 20
-3926.185414868924
 10
1602.122373742118
 20
-3926.872822533178
 10
1600.931748742118
 20
-3926.185414868924
 10
1600.931748742118
 20
-3924.810599540417
 10
1602.122373742118
 20
-3924.123191876163
 10
1603.312998742118
 20
-3924.810599540417
  0
LWPOLYLINE
  5
889F0
330
18
100
AcDbEntity
  8
姿図
100
AcDbPolyline
 90
        6
 70
     1
 43
0.0
 10
1603.312998742118
 20
-3930.309860854448
 10
1602.122373742118
 20
-3930.997268518702
 10
1600.931748742118
 20
-3930.309860854448
 10
1600.931748742118
 20
-3928.93504552594
 10
1602.122373742118
 20
-3928.247637861686
 10
1603.312998742118
 20
-3928.93504552594
  0
LWPOLYLINE
  5
889F1
330
18
100
AcDbEntity
  8
姿図
100
AcDbPolyline
 90
        6
 70
     1
 43
0.0
 10
1600.931748742118
 20
-3920.686153554893
 10
1602.122373742118
 20
-3919.998745890639
 10
1603.312998742118
 20
-3920.686153554893
 10
1603.312998742118
 20
-3922.060968883401
 10
1602.122373742118
 20
-3922.748376547655
 10
1600.931748742118
 20
-3922.060968883401
  0
LWPOLYLINE
  5
889F2
330
18
100
AcDbEntity
  8
姿図
100
AcDbPolyline
 90
        6
 70
     1
 43
0.0
 10
1604.503623742118
 20
-3928.247637861686
 10
1603.312998742118
 20
-3928.93504552594
 10
1602.122373742118
 20
-3928.247637861686
 10
1602.122373742118
 20
-3926.872822533178
 10
1603.312998742118
 20
-3926.185414868924
 10
1604.503623742118
 20
-3926.872822533178
  0
LWPOLYLINE
  5
889F3
330
18
100
AcDbEntity
  8
姿図
100
AcDbPolyline
 90
        3
 70
     0
 43
0.0
 10
1602.122373742118
 20
-3931.492685957231
 10
1602.122373742118
 20
-3930.997268518702
 10
1603.303561053594
 20
-3930.315309706458
  0
LWPOLYLINE
  5
889F4
330
18
100
AcDbEntity
  8
姿図
100
AcDbPolyline
 90
        6
 70
     1
 43
0.0
 10
1604.503623742118
 20
-3914.499484576608
 10
1603.312998742118
 20
-3913.812076912354
 10
1602.122373742118
 20
-3914.499484576608
 10
1602.122373742118
 20
-3915.874299905116
 10
1603.312998742118
 20
-3916.56170756937
 10
1604.503623742118
 20
-3915.874299905116
  0
LWPOLYLINE
  5
889F5
330
18
100
AcDbEntity
  8
姿図
100
AcDbPolyline
 90
        6
 70
     1
 43
0.0
 10
1604.503623742118
 20
-3924.123191876163
 10
1603.312998742118
 20
-3924.810599540417
 10
1602.122373742118
 20
-3924.123191876163
 10
1602.122373742118
 20
-3922.748376547655
 10
1603.312998742118
 20
-3922.060968883401
 10
1604.503623742118
 20
-3922.748376547655
  0
LWPOLYLINE
  5
889F6
330
18
100
AcDbEntity
  8
姿図
100
AcDbPolyline
 90
        6
 70
     1
 43
0.0
 10
1604.503623742118
 20
-3918.623930562132
 10
1603.312998742118
 20
-3917.936522897878
 10
1602.122373742118
 20
-3918.623930562132
 10
1602.122373742118
 20
-3919.998745890639
 10
1603.312998742118
 20
-3920.686153554893
 10
1604.503623742118
 20
-3919.998745890639
  0
LWPOLYLINE
  5
889F7
330
18
100
AcDbEntity
  8
姿図
100
AcDbPolyline
 90
        4
 70
     0
 43
0.0
 10
1602.122373742118
 20
-3910.411121368997
 10
1602.122373742118
 20
-3911.749853919592
 10
1603.312998742118
 20
-3912.437261583847
 10
1603.758053993799
 20
-3912.180308814484
  0
LWPOLYLINE
  5
889F8
330
18
100
AcDbEntity
  8
姿図
100
AcDbPolyline
 90
        7
 70
     0
 43
0.0
 10
1598.277342874005
 20
-3932.901784897478
 10
1597.359873742118
 20
-3932.37208384721
 10
1597.359873742118
 20
-3930.997268518702
 10
1598.550498742118
 20
-3930.309860854448
 10
1599.741123742118
 20
-3930.997268518702
 10
1599.741123742118
 20
-3932.37208384721
 10
1598.852773822184
 20
-3932.884972912618
  0
LWPOLYLINE
  5
889F9
330
18
100
AcDbEntity
  8
姿図
100
AcDbPolyline
 90
        6
 70
     0
 43
0.0
 10
1600.150909330762
 20
-3932.608673667123
 10
1599.741123742118
 20
-3932.37208384721
 10
1599.741123742118
 20
-3930.997268518702
 10
1600.931748742118
 20
-3930.309860854448
 10
1602.122373742118
 20
-3930.997268518702
 10
1602.122373742118
 20
-3931.492685957231
  0
LWPOLYLINE
  5
889FA
330
18
100
AcDbEntity
  8
姿図
100
AcDbPolyline
 90
        4
 70
     0
 43
0.0
 10
1593.607336409095
 20
-3930.414166301051
 10
1593.787998742118
 20
-3930.309860854448
 10
1594.978623742118
 20
-3930.997268518702
 10
1594.978623742118
 20
-3931.704243208392
  0
LWPOLYLINE
  5
889FB
330
18
100
AcDbEntity
  8
姿図
100
AcDbPolyline
 90
        6
 70
     0
 43
0.0
 10
1594.978623742118
 20
-3931.704243208392
 10
1594.978623742118
 20
-3930.997268518702
 10
1596.169248742118
 20
-3930.309860854448
 10
1597.359873742118
 20
-3930.997268518702
 10
1597.359873742118
 20
-3932.37208384721
 10
1596.851513148256
 20
-3932.665585972922
  0
LWPOLYLINE
  5
889FC
330
18
100
AcDbEntity
  8
姿図
100
AcDbPolyline
 90
        3
 70
     0
 43
0.0
 10
1598.852773822184
 20
-3932.884972912618
 10
1599.741123742118
 20
-3932.37208384721
 10
1600.150909330762
 20
-3932.608673667123
  0
LINE
  5
889FD
330
18
100
AcDbEntity
  8
姿図
100
AcDbLine
 10
1602.022977496304
 20
-3933.754123446363
 30
0.0
 11
1598.608219810175
 21
-3933.754123446363
 31
0.0
  0
LINE
  5
889FE
330
18
100
AcDbEntity
  8
姿図
100
AcDbLine
 10
1596.851513148256
 20
-3932.665585972922
 30
0.0
 11
1597.359873742118
 21
-3932.37208384721
 31
0.0
  0
LINE
  5
889FF
330
18
100
AcDbEntity
  8
姿図
100
AcDbLine
 10
1597.359873742118
 20
-3932.37208384721
 30
0.0
 11
1598.277342874005
 21
-3932.901784897478
 31
0.0
  0
LWPOLYLINE
  5
88A00
330
18
100
AcDbEntity
  8
姿図
100
AcDbPolyline
 90
        4
 70
     0
 43
0.0
 10
1594.846903442296
 20
-3910.298989840524
 10
1594.978623742118
 20
-3910.375038591084
 10
1596.169248742118
 20
-3909.68763092683
 10
1596.169248742118
 20
-3909.496900620998
  0
LWPOLYLINE
  5
88A01
330
18
100
AcDbEntity
  8
姿図
100
AcDbPolyline
 90
        6
 70
     1
 43
0.0
 10
1596.169248742118
 20
-3912.437261583847
 10
1594.978623742118
 20
-3911.749853919592
 10
1593.787998742118
 20
-3912.437261583847
 10
1593.787998742118
 20
-3913.812076912354
 10
1594.978623742118
 20
-3914.499484576608
 10
1596.169248742118
 20
-3913.812076912354
  0
LWPOLYLINE
  5
88A02
330
18
100
AcDbEntity
  8
姿図
100
AcDbPolyline
 90
        6
 70
     1
 43
0.0
 10
1594.978623742118
 20
-3918.623930562132
 10
1593.787998742118
 20
-3917.936522897878
 10
1592.597373742118
 20
-3918.623930562132
 10
1592.597373742118
 20
-3919.998745890639
 10
1593.787998742118
 20
-3920.686153554893
 10
1594.978623742118
 20
-3919.998745890639
  0
LWPOLYLINE
  5
88A03
330
18
100
AcDbEntity
  8
姿図
100
AcDbPolyline
 90
        6
 70
     1
 43
0.0
 10
1596.169248742118
 20
-3916.56170756937
 10
1594.978623742118
 20
-3915.874299905116
 10
1593.787998742118
 20
-3916.56170756937
 10
1593.787998742118
 20
-3917.936522897878
 10
1594.978623742118
 20
-3918.623930562132
 10
1596.169248742118
 20
-3917.936522897878
  0
LWPOLYLINE
  5
88A04
330
18
100
AcDbEntity
  8
姿図
100
AcDbPolyline
 90
        6
 70
     1
 43
0.0
 10
1594.978623742118
 20
-3914.499484576608
 10
1593.787998742118
 20
-3913.812076912354
 10
1592.597373742118
 20
-3914.499484576608
 10
1592.597373742118
 20
-3915.874299905116
 10
1593.787998742118
 20
-3916.56170756937
 10
1594.978623742118
 20
-3915.874299905116
  0
LWPOLYLINE
  5
88A05
330
18
100
AcDbEntity
  8
姿図
100
AcDbPolyline
 90
        6
 70
     1
 43
0.0
 10
1596.169248742118
 20
-3926.185414868924
 10
1594.978623742118
 20
-3926.872822533178
 10
1593.787998742118
 20
-3926.185414868924
 10
1593.787998742118
 20
-3924.810599540417
 10
1594.978623742118
 20
-3924.123191876163
 10
1596.169248742118
 20
-3924.810599540417
  0
LWPOLYLINE
  5
88A06
330
18
100
AcDbEntity
  8
姿図
100
AcDbPolyline
 90
        6
 70
     1
 43
0.0
 10
1596.169248742118
 20
-3930.309860854448
 10
1594.978623742118
 20
-3930.997268518702
 10
1593.787998742118
 20
-3930.309860854448
 10
1593.787998742118
 20
-3928.93504552594
 10
1594.978623742118
 20
-3928.247637861686
 10
1596.169248742118
 20
-3928.93504552594
  0
LWPOLYLINE
  5
88A07
330
18
100
AcDbEntity
  8
姿図
100
AcDbPolyline
 90
        6
 70
     1
 43
0.0
 10
1594.978623742118
 20
-3928.247637861686
 10
1593.787998742118
 20
-3928.93504552594
 10
1592.597373742118
 20
-3928.247637861686
 10
1592.597373742118
 20
-3926.872822533178
 10
1593.787998742118
 20
-3926.185414868924
 10
1594.978623742118
 20
-3926.872822533178
  0
LWPOLYLINE
  5
88A08
330
18
100
AcDbEntity
  8
姿図
100
AcDbPolyline
 90
        6
 70
     1
 43
0.0
 10
1596.169248742118
 20
-3920.686153554893
 10
1594.978623742118
 20
-3919.998745890639
 10
1593.787998742118
 20
-3920.686153554893
 10
1593.787998742118
 20
-3922.060968883401
 10
1594.978623742118
 20
-3922.748376547655
 10
1596.169248742118
 20
-3922.060968883401
  0
LWPOLYLINE
  5
88A09
330
18
100
AcDbEntity
  8
姿図
100
AcDbPolyline
 90
        6
 70
     1
 43
0.0
 10
1594.978623742118
 20
-3924.123191876163
 10
1593.787998742118
 20
-3924.810599540417
 10
1592.597373742118
 20
-3924.123191876163
 10
1592.597373742118
 20
-3922.748376547655
 10
1593.787998742118
 20
-3922.060968883401
 10
1594.978623742118
 20
-3922.748376547655
  0
LWPOLYLINE
  5
88A0A
330
18
100
AcDbEntity
  8
姿図
100
AcDbPolyline
 90
        5
 70
     0
 43
0.0
 10
1593.150005726901
 20
-3912.06891614477
 10
1593.787998742118
 20
-3912.437261583847
 10
1594.978623742118
 20
-3911.749853919592
 10
1594.978623742118
 20
-3910.375038591084
 10
1594.846903442296
 20
-3910.298989840524
  0
LWPOLYLINE
  5
88A0B
330
18
100
AcDbEntity
  8
姿図
100
AcDbPolyline
 90
        6
 70
     0
 43
0.0
 10
1590.561549906983
 20
-3920.19817777991
 10
1591.406748742118
 20
-3920.686153554893
 10
1592.597373742118
 20
-3919.998745890639
 10
1592.597373742118
 20
-3918.623930562132
 10
1591.406748742118
 20
-3917.936522897878
 10
1590.738701229939
 20
-3918.322220308865
  0
LWPOLYLINE
  5
88A0C
330
18
100
AcDbEntity
  8
姿図
100
AcDbPolyline
 90
        4
 70
     0
 43
0.0
 10
1590.613796618587
 20
-3922.518780005376
 10
1591.406748742118
 20
-3922.060968883401
 10
1591.406748742118
 20
-3920.686153554893
 10
1590.561549906983
 20
-3920.19817777991
  0
LWPOLYLINE
  5
88A0D
330
18
100
AcDbEntity
  8
姿図
100
AcDbPolyline
 90
        6
 70
     1
 43
0.0
 10
1593.787998742118
 20
-3920.686153554893
 10
1592.597373742118
 20
-3919.998745890639
 10
1591.406748742118
 20
-3920.686153554893
 10
1591.406748742118
 20
-3922.060968883401
 10
1592.597373742118
 20
-3922.748376547655
 10
1593.787998742118
 20
-3922.060968883401
  0
LWPOLYLINE
  5
88A0E
330
18
100
AcDbEntity
  8
姿図
100
AcDbPolyline
 90
        4
 70
     0
 43
0.0
 10
1590.904872246292
 20
-3924.520841010452
 10
1591.406748742118
 20
-3924.810599540417
 10
1591.406748742118
 20
-3926.185414868924
 10
1591.350734692047
 20
-3926.217754595811
  0
LWPOLYLINE
  5
88A0F
330
18
100
AcDbEntity
  8
姿図
100
AcDbPolyline
 90
        6
 70
     0
 43
0.0
 10
1590.613796618587
 20
-3922.518780005376
 10
1591.406748742118
 20
-3922.060968883401
 10
1592.597373742118
 20
-3922.748376547655
 10
1592.597373742118
 20
-3924.123191876163
 10
1591.406748742118
 20
-3924.810599540417
 10
1590.904872246292
 20
-3924.520841010452
  0
LWPOLYLINE
  5
88A10
330
18
100
AcDbEntity
  8
姿図
100
AcDbPolyline
 90
        6
 70
     1
 43
0.0
 10
1593.787998742118
 20
-3926.185414868924
 10
1592.597373742118
 20
-3926.872822533178
 10
1591.406748742118
 20
-3926.185414868924
 10
1591.406748742118
 20
-3924.810599540417
 10
1592.597373742118
 20
-3924.123191876163
 10
1593.787998742118
 20
-3924.810599540417
  0
LWPOLYLINE
  5
88A11
330
18
100
AcDbEntity
  8
姿図
100
AcDbPolyline
 90
        5
 70
     0
 43
0.0
 10
1592.277520489639
 20
-3928.432305223106
 10
1592.597373742118
 20
-3928.247637861686
 10
1593.787998742118
 20
-3928.93504552594
 10
1593.787998742118
 20
-3930.309860854448
 10
1593.607336409095
 20
-3930.414166301051
  0
LWPOLYLINE
  5
88A12
330
18
100
AcDbEntity
  8
姿図
100
AcDbPolyline
 90
        5
 70
     0
 43
0.0
 10
1591.350734692047
 20
-3926.217754595811
 10
1591.406748742118
 20
-3926.185414868924
 10
1592.597373742118
 20
-3926.872822533178
 10
1592.597373742118
 20
-3928.247637861686
 10
1592.277520489639
 20
-3928.432305223106
  0
LWPOLYLINE
  5
88A13
330
18
100
AcDbEntity
  8
姿図
100
AcDbPolyline
 90
        4
 70
     0
 43
0.0
 10
1590.738701229939
 20
-3918.322220308865
 10
1591.406748742118
 20
-3917.936522897878
 10
1591.406748742118
 20
-3916.56170756937
 10
1591.137220731208
 20
-3916.406095499717
  0
LWPOLYLINE
  5
88A14
330
18
100
AcDbEntity
  8
姿図
100
AcDbPolyline
 90
        5
 70
     0
 43
0.0
 10
1591.137220731208
 20
-3916.406095499717
 10
1591.406748742118
 20
-3916.56170756937
 10
1592.597373742118
 20
-3915.874299905116
 10
1592.597373742118
 20
-3914.499484576608
 10
1591.954317525116
 20
-3914.128215896618
  0
LWPOLYLINE
  5
88A15
330
18
100
AcDbEntity
  8
姿図
100
AcDbPolyline
 90
        5
 70
     0
 43
0.0
 10
1591.954317525116
 20
-3914.128215896618
 10
1592.597373742118
 20
-3914.499484576608
 10
1593.787998742118
 20
-3913.812076912354
 10
1593.787998742118
 20
-3912.437261583847
 10
1593.150005726901
 20
-3912.06891614477
  0
LWPOLYLINE
  5
88A16
330
18
100
AcDbEntity
  8
姿図
100
AcDbPolyline
 90
        6
 70
     1
 43
0.0
 10
1593.787998742118
 20
-3916.56170756937
 10
1592.597373742118
 20
-3915.874299905116
 10
1591.406748742118
 20
-3916.56170756937
 10
1591.406748742118
 20
-3917.936522897878
 10
1592.597373742118
 20
-3918.623930562132
 10
1593.787998742118
 20
-3917.936522897878
  0
LWPOLYLINE
  5
88A17
330
18
100
AcDbEntity
  8
姿図
100
AcDbPolyline
 90
        6
 70
     1
 43
0.0
 10
1599.741123742118
 20
-3918.623930562132
 10
1598.550498742118
 20
-3917.936522897878
 10
1597.359873742118
 20
-3918.623930562132
 10
1597.359873742118
 20
-3919.998745890639
 10
1598.550498742118
 20
-3920.686153554893
 10
1599.741123742118
 20
-3919.998745890639
  0
LWPOLYLINE
  5
88A18
330
18
100
AcDbEntity
  8
姿図
100
AcDbPolyline
 90
        6
 70
     1
 43
0.0
 10
1602.122373742118
 20
-3918.623930562132
 10
1600.931748742118
 20
-3917.936522897878
 10
1599.741123742118
 20
-3918.623930562132
 10
1599.741123742118
 20
-3919.998745890639
 10
1600.931748742118
 20
-3920.686153554893
 10
1602.122373742118
 20
-3919.998745890639
  0
LWPOLYLINE
  5
88A19
330
18
100
AcDbEntity
  8
姿図
100
AcDbPolyline
 90
        6
 70
     1
 43
0.0
 10
1600.931748742118
 20
-3920.686153554893
 10
1599.741123742118
 20
-3919.998745890639
 10
1598.550498742118
 20
-3920.686153554893
 10
1598.550498742118
 20
-3922.060968883401
 10
1599.741123742118
 20
-3922.748376547655
 10
1600.931748742118
 20
-3922.060968883401
  0
LWPOLYLINE
  5
88A1A
330
18
100
AcDbEntity
  8
姿図
100
AcDbPolyline
 90
        6
 70
     1
 43
0.0
 10
1597.359873742118
 20
-3918.623930562132
 10
1596.169248742118
 20
-3917.936522897878
 10
1594.978623742118
 20
-3918.623930562132
 10
1594.978623742118
 20
-3919.998745890639
 10
1596.169248742118
 20
-3920.686153554893
 10
1597.359873742118
 20
-3919.998745890639
  0
LWPOLYLINE
  5
88A1B
330
18
100
AcDbEntity
  8
姿図
100
AcDbPolyline
 90
        6
 70
     1
 43
0.0
 10
1598.550498742118
 20
-3920.686153554893
 10
1597.359873742118
 20
-3919.998745890639
 10
1596.169248742118
 20
-3920.686153554893
 10
1596.169248742118
 20
-3922.060968883401
 10
1597.359873742118
 20
-3922.748376547655
 10
1598.550498742118
 20
-3922.060968883401
  0
LWPOLYLINE
  5
88A1C
330
18
100
AcDbEntity
  8
姿図
100
AcDbPolyline
 90
        6
 70
     1
 43
0.0
 10
1599.741123742118
 20
-3928.247637861686
 10
1598.550498742118
 20
-3928.93504552594
 10
1597.359873742118
 20
-3928.247637861686
 10
1597.359873742118
 20
-3926.872822533178
 10
1598.550498742118
 20
-3926.185414868924
 10
1599.741123742118
 20
-3926.872822533178
  0
LWPOLYLINE
  5
88A1D
330
18
100
AcDbEntity
  8
姿図
100
AcDbPolyline
 90
        6
 70
     1
 43
0.0
 10
1600.931748742118
 20
-3930.309860854448
 10
1599.741123742118
 20
-3930.997268518702
 10
1598.550498742118
 20
-3930.309860854448
 10
1598.550498742118
 20
-3928.93504552594
 10
1599.741123742118
 20
-3928.247637861686
 10
1600.931748742118
 20
-3928.93504552594
  0
LWPOLYLINE
  5
88A1E
330
18
100
AcDbEntity
  8
姿図
100
AcDbPolyline
 90
        6
 70
     1
 43
0.0
 10
1600.931748742118
 20
-3926.185414868924
 10
1599.741123742118
 20
-3926.872822533178
 10
1598.550498742118
 20
-3926.185414868924
 10
1598.550498742118
 20
-3924.810599540417
 10
1599.741123742118
 20
-3924.123191876163
 10
1600.931748742118
 20
-3924.810599540417
  0
LWPOLYLINE
  5
88A1F
330
18
100
AcDbEntity
  8
姿図
100
AcDbPolyline
 90
        6
 70
     1
 43
0.0
 10
1599.741123742118
 20
-3924.123191876163
 10
1598.550498742118
 20
-3924.810599540417
 10
1597.359873742118
 20
-3924.123191876163
 10
1597.359873742118
 20
-3922.748376547655
 10
1598.550498742118
 20
-3922.060968883401
 10
1599.741123742118
 20
-3922.748376547655
  0
LWPOLYLINE
  5
88A20
330
18
100
AcDbEntity
  8
姿図
100
AcDbPolyline
 90
        6
 70
     1
 43
0.0
 10
1598.550498742118
 20
-3926.185414868924
 10
1597.359873742118
 20
-3926.872822533178
 10
1596.169248742118
 20
-3926.185414868924
 10
1596.169248742118
 20
-3924.810599540417
 10
1597.359873742118
 20
-3924.123191876163
 10
1598.550498742118
 20
-3924.810599540417
  0
LWPOLYLINE
  5
88A21
330
18
100
AcDbEntity
  8
姿図
100
AcDbPolyline
 90
        6
 70
     1
 43
0.0
 10
1597.359873742118
 20
-3928.247637861686
 10
1596.169248742118
 20
-3928.93504552594
 10
1594.978623742118
 20
-3928.247637861686
 10
1594.978623742118
 20
-3926.872822533178
 10
1596.169248742118
 20
-3926.185414868924
 10
1597.359873742118
 20
-3926.872822533178
  0
LWPOLYLINE
  5
88A22
330
18
100
AcDbEntity
  8
姿図
100
AcDbPolyline
 90
        6
 70
     1
 43
0.0
 10
1598.550498742118
 20
-3930.309860854448
 10
1597.359873742118
 20
-3930.997268518702
 10
1596.169248742118
 20
-3930.309860854448
 10
1596.169248742118
 20
-3928.93504552594
 10
1597.359873742118
 20
-3928.247637861686
 10
1598.550498742118
 20
-3928.93504552594
  0
LWPOLYLINE
  5
88A23
330
18
100
AcDbEntity
  8
姿図
100
AcDbPolyline
 90
        6
 70
     1
 43
0.0
 10
1597.359873742118
 20
-3924.123191876163
 10
1596.169248742118
 20
-3924.810599540417
 10
1594.978623742118
 20
-3924.123191876163
 10
1594.978623742118
 20
-3922.748376547655
 10
1596.169248742118
 20
-3922.060968883401
 10
1597.359873742118
 20
-3922.748376547655
  0
LWPOLYLINE
  5
88A24
330
18
100
AcDbEntity
  8
姿図
100
AcDbPolyline
 90
        6
 70
     1
 43
0.0
 10
1602.122373742118
 20
-3928.247637861686
 10
1600.931748742118
 20
-3928.93504552594
 10
1599.741123742118
 20
-3928.247637861686
 10
1599.741123742118
 20
-3926.872822533178
 10
1600.931748742118
 20
-3926.185414868924
 10
1602.122373742118
 20
-3926.872822533178
  0
LWPOLYLINE
  5
88A25
330
18
100
AcDbEntity
  8
姿図
100
AcDbPolyline
 90
        6
 70
     1
 43
0.0
 10
1602.122373742118
 20
-3924.123191876163
 10
1600.931748742118
 20
-3924.810599540417
 10
1599.741123742118
 20
-3924.123191876163
 10
1599.741123742118
 20
-3922.748376547655
 10
1600.931748742118
 20
-3922.060968883401
 10
1602.122373742118
 20
-3922.748376547655
  0
LWPOLYLINE
  5
88A26
330
18
100
AcDbEntity
  8
姿図
100
AcDbPolyline
 90
        6
 70
     1
 43
0.0
 10
1599.741123742118
 20
-3914.499484576608
 10
1598.550498742118
 20
-3913.812076912354
 10
1597.359873742118
 20
-3914.499484576608
 10
1597.359873742118
 20
-3915.874299905116
 10
1598.550498742118
 20
-3916.56170756937
 10
1599.741123742118
 20
-3915.874299905116
  0
LWPOLYLINE
  5
88A27
330
18
100
AcDbEntity
  8
姿図
100
AcDbPolyline
 90
        6
 70
     1
 43
0.0
 10
1600.931748742118
 20
-3916.56170756937
 10
1599.741123742118
 20
-3915.874299905116
 10
1598.550498742118
 20
-3916.56170756937
 10
1598.550498742118
 20
-3917.936522897878
 10
1599.741123742118
 20
-3918.623930562132
 10
1600.931748742118
 20
-3917.936522897878
  0
LWPOLYLINE
  5
88A28
330
18
100
AcDbEntity
  8
姿図
100
AcDbPolyline
 90
        6
 70
     1
 43
0.0
 10
1600.931748742118
 20
-3912.437261583847
 10
1599.741123742118
 20
-3911.749853919592
 10
1598.550498742118
 20
-3912.437261583847
 10
1598.550498742118
 20
-3913.812076912354
 10
1599.741123742118
 20
-3914.499484576608
 10
1600.931748742118
 20
-3913.812076912354
  0
LWPOLYLINE
  5
88A29
330
18
100
AcDbEntity
  8
姿図
100
AcDbPolyline
 90
        6
 70
     1
 43
0.0
 10
1599.741123742118
 20
-3910.375038591084
 10
1598.550498742118
 20
-3909.68763092683
 10
1597.359873742118
 20
-3910.375038591084
 10
1597.359873742118
 20
-3911.749853919592
 10
1598.550498742118
 20
-3912.437261583847
 10
1599.741123742118
 20
-3911.749853919592
  0
LWPOLYLINE
  5
88A2A
330
18
100
AcDbEntity
  8
姿図
100
AcDbPolyline
 90
        6
 70
     1
 43
0.0
 10
1597.359873742118
 20
-3914.499484576608
 10
1596.169248742118
 20
-3913.812076912354
 10
1594.978623742118
 20
-3914.499484576608
 10
1594.978623742118
 20
-3915.874299905116
 10
1596.169248742118
 20
-3916.56170756937
 10
1597.359873742118
 20
-3915.874299905116
  0
LWPOLYLINE
  5
88A2B
330
18
100
AcDbEntity
  8
姿図
100
AcDbPolyline
 90
        6
 70
     1
 43
0.0
 10
1598.550498742118
 20
-3912.437261583847
 10
1597.359873742118
 20
-3911.749853919592
 10
1596.169248742118
 20
-3912.437261583847
 10
1596.169248742118
 20
-3913.812076912354
 10
1597.359873742118
 20
-3914.499484576608
 10
1598.550498742118
 20
-3913.812076912354
  0
LWPOLYLINE
  5
88A2C
330
18
100
AcDbEntity
  8
姿図
100
AcDbPolyline
 90
        6
 70
     1
 43
0.0
 10
1598.550498742118
 20
-3916.56170756937
 10
1597.359873742118
 20
-3915.874299905116
 10
1596.169248742118
 20
-3916.56170756937
 10
1596.169248742118
 20
-3917.936522897878
 10
1597.359873742118
 20
-3918.623930562132
 10
1598.550498742118
 20
-3917.936522897878
  0
LWPOLYLINE
  5
88A2D
330
18
100
AcDbEntity
  8
姿図
100
AcDbPolyline
 90
        6
 70
     1
 43
0.0
 10
1597.359873742118
 20
-3910.375038591084
 10
1596.169248742118
 20
-3909.68763092683
 10
1594.978623742118
 20
-3910.375038591084
 10
1594.978623742118
 20
-3911.749853919592
 10
1596.169248742118
 20
-3912.437261583847
 10
1597.359873742118
 20
-3911.749853919592
  0
LWPOLYLINE
  5
88A2E
330
18
100
AcDbEntity
  8
姿図
100
AcDbPolyline
 90
        6
 70
     1
 43
0.0
 10
1602.122373742118
 20
-3914.499484576608
 10
1600.931748742118
 20
-3913.812076912354
 10
1599.741123742118
 20
-3914.499484576608
 10
1599.741123742118
 20
-3915.874299905116
 10
1600.931748742118
 20
-3916.56170756937
 10
1602.122373742118
 20
-3915.874299905116
  0
LWPOLYLINE
  5
88A2F
330
18
100
AcDbEntity
  8
姿図
100
AcDbPolyline
 90
        6
 70
     1
 43
0.0
 10
1602.122373742118
 20
-3910.375038591084
 10
1600.931748742118
 20
-3909.68763092683
 10
1599.741123742118
 20
-3910.375038591084
 10
1599.741123742118
 20
-3911.749853919592
 10
1600.931748742118
 20
-3912.437261583847
 10
1602.122373742118
 20
-3911.749853919592
  0
LWPOLYLINE
  5
88A30
330
18
100
AcDbEntity
  8
姿図
100
AcDbPolyline
 90
        6
 70
     0
 43
0.0
 10
1606.271931766277
 20
-3920.352628105389
 10
1605.694248742118
 20
-3920.686153554893
 10
1604.503623742118
 20
-3919.998745890639
 10
1604.503623742118
 20
-3918.623930562132
 10
1605.694248742118
 20
-3917.936522897878
 10
1606.062415241909
 20
-3918.149083925638
  0
LWPOLYLINE
  5
88A31
330
18
100
AcDbEntity
  8
姿図
100
AcDbPolyline
 90
        4
 70
     0
 43
0.0
 10
1606.226389615522
 20
-3922.368200559908
 10
1605.694248742118
 20
-3922.060968883401
 10
1605.694248742118
 20
-3920.686153554893
 10
1606.271931766277
 20
-3920.352628105389
  0
LWPOLYLINE
  5
88A32
330
18
100
AcDbEntity
  8
姿図
100
AcDbPolyline
 90
        6
 70
     1
 43
0.0
 10
1603.312998742118
 20
-3920.686153554893
 10
1604.503623742118
 20
-3919.998745890639
 10
1605.694248742118
 20
-3920.686153554893
 10
1605.694248742118
 20
-3922.060968883401
 10
1604.503623742118
 20
-3922.748376547655
 10
1603.312998742118
 20
-3922.060968883401
  0
LWPOLYLINE
  5
88A33
330
18
100
AcDbEntity
  8
姿図
100
AcDbPolyline
 90
        3
 70
     0
 43
0.0
 10
1605.884791423377
 20
-3924.7005896721
 10
1605.694248742118
 20
-3924.810599540417
 10
1605.694248742118
 20
-3925.483827176166
  0
LWPOLYLINE
  5
88A34
330
18
100
AcDbEntity
  8
姿図
100
AcDbPolyline
 90
        7
 70
     0
 43
0.0
 10
1605.694248742118
 20
-3925.483827176166
 10
1605.694248742118
 20
-3924.810599540417
 10
1604.503623742118
 20
-3924.123191876163
 10
1603.312998742118
 20
-3924.810599540417
 10
1603.312998742118
 20
-3926.185414868924
 10
1604.503623742118
 20
-3926.872822533178
 10
1605.439383739004
 20
-3926.332561247079
  0
LINE
  5
88A35
330
18
100
AcDbEntity
  8
姿図
100
AcDbLine
 10
1604.503623742118
 20
-3928.247637861686
 30
0.0
 11
1604.613421717103
 21
-3928.3110297521
 31
0.0
  0
LWPOLYLINE
  5
88A36
330
18
100
AcDbEntity
  8
姿図
100
AcDbPolyline
 90
        4
 70
     0
 43
0.0
 10
1604.613421717103
 20
-3928.3110297521
 10
1604.503623742118
 20
-3928.247637861686
 10
1604.503623742118
 20
-3926.872822533178
 10
1605.439383739004
 20
-3926.332561247079
  0
LINE
  5
88A37
330
18
100
AcDbEntity
  8
姿図
100
AcDbLine
 10
1603.312998742118
 20
-3928.93504552594
 30
0.0
 11
1604.503623742118
 21
-3928.247637861686
 31
0.0
  0
LINE
  5
88A38
330
18
100
AcDbEntity
  8
姿図
100
AcDbLine
 10
1603.312998742118
 20
-3930.309860854448
 30
0.0
 11
1603.312998742118
 21
-3928.93504552594
 31
0.0
  0
LWPOLYLINE
  5
88A39
330
18
100
AcDbEntity
  8
姿図
100
AcDbPolyline
 90
        6
 70
     0
 43
0.0
 10
1606.226389615522
 20
-3922.368200559908
 10
1605.694248742118
 20
-3922.060968883401
 10
1604.503623742118
 20
-3922.748376547655
 10
1604.503623742118
 20
-3924.123191876163
 10
1605.694248742118
 20
-3924.810599540417
 10
1605.884791423377
 20
-3924.7005896721
  0
LWPOLYLINE
  5
88A3A
330
18
100
AcDbEntity
  8
姿図
100
AcDbPolyline
 90
        4
 70
     0
 43
0.0
 10
1606.062415241909
 20
-3918.149083925638
 10
1605.694248742118
 20
-3917.936522897878
 10
1605.694248742118
 20
-3916.56170756937
 10
1605.726878015878
 20
-3916.542869049381
  0
LWPOLYLINE
  5
88A3B
330
18
100
AcDbEntity
  8
姿図
100
AcDbPolyline
 90
        5
 70
     0
 43
0.0
 10
1604.929920120778
 20
-3914.253362247634
 10
1604.503623742118
 20
-3914.499484576608
 10
1604.503623742118
 20
-3915.874299905116
 10
1605.694248742118
 20
-3916.56170756937
 10
1605.726878015878
 20
-3916.542869049381
  0
LWPOLYLINE
  5
88A3C
330
18
100
AcDbEntity
  8
姿図
100
AcDbPolyline
 90
        5
 70
     0
 43
0.0
 10
1603.758053993799
 20
-3912.180308814484
 10
1603.312998742118
 20
-3912.437261583847
 10
1603.312998742118
 20
-3913.812076912354
 10
1604.503623742118
 20
-3914.499484576608
 10
1604.929920120778
 20
-3914.253362247634
  0
LWPOLYLINE
  5
88A3D
330
18
100
AcDbEntity
  8
姿図
100
AcDbPolyline
 90
        6
 70
     1
 43
0.0
 10
1603.312998742118
 20
-3916.56170756937
 10
1604.503623742118
 20
-3915.874299905116
 10
1605.694248742118
 20
-3916.56170756937
 10
1605.694248742118
 20
-3917.936522897878
 10
1604.503623742118
 20
-3918.623930562132
 10
1603.312998742118
 20
-3917.936522897878
  0
LINE
  5
88A3E
330
18
100
AcDbEntity
  8
姿図
100
AcDbLine
 10
1602.008779825041
 20
-3908.148274927084
 30
0.0
 11
1598.622417481438
 21
-3908.148274927084
 31
0.0
  0
ELLIPSE
  5
88A3F
330
18
100
AcDbEntity
  8
姿図
100
AcDbEllipse
 10
1598.41385854569
 20
-3920.951903663114
 30
0.0
 11
-1.658628845454672E-16
 21
11.95168040053699
 31
0.0
210
0.0
220
0.0
230
1.0
 40
0.6583149733943624
 41
-0.0000000000000004
 42
6.283185307179586
  0
ENDSEC
  0
SECTION
  2
OBJECTS
  0
DICTIONARY
  5
C
330
0
100
AcDbDictionary
281
     1
  3
ACAD_GROUP
350
D
  3
ACAD_IMAGE_VARS
350
88B04
  3
ACAD_LAYOUT
350
353
  3
ACAD_MLINESTYLE
350
E
  3
ACAD_PLOTSETTINGS
350
354
  3
ACAD_PLOTSTYLENAME
350
351
  3
ACAD_SCALELIST
350
7C5DE
  3
AcadDim
350
7BC47
  3
AcDbVariableDictionary
350
E12
  3
APPDATA
350
88B02
  3
DWGPROPS
350
88B05
  0
DICTIONARY
  5
5CD8C
330
2
100
AcDbDictionary
280
     1
281
     1
  3
ACAD_LAYERSTATES
360
5CD8D
  0
DICTIONARY
  5
7C60B
330
F
100
AcDbDictionary
280
     1
281
     1
  3
ADSK_XREC_LAYER_RECONCILED
360
7C60C
  0
DICTIONARY
  5
7C611
330
34
100
AcDbDictionary
280
     1
281
     1
  3
ADSK_XREC_LAYER_RECONCILED
360
7C612
  0
DICTIONARY
  5
7C619
330
2F4
100
AcDbDictionary
280
     1
281
     1
  3
ADSK_XREC_LAYER_RECONCILED
360
7C61A
  0
DICTIONARY
  5
7C61B
330
305
100
AcDbDictionary
280
     1
281
     1
  3
ADSK_XREC_LAYER_RECONCILED
360
7C61C
  0
DICTIONARY
  5
87BA1
330
18
100
AcDbDictionary
280
     1
281
     1
  3
ACAD_SORTENTS
360
87BA2
  0
DICTIONARY
  5
D
102
{ACAD_REACTORS
330
C
102
}
330
C
100
AcDbDictionary
281
     1
  3
*A1
350
E9C
  3
*A10
350
13AB
  3
*A100
350
E1D7
  3
*A101
350
3288E
  3
*A102
350
476AB
  3
*A103
350
499A5
  3
*A104
350
6210D
  3
*A105
350
7AFA1
  3
*A106
350
7BC30
  3
*A107
350
7BB78
  3
*A108
350
E207
  3
*A109
350
ECBD
  3
*A11
350
13589
  3
*A110
350
7DDCC
  3
*A111
350
2F1A3
  3
*A112
350
7BB72
  3
*A113
350
7BAC8
  3
*A114
350
475D4
  3
*A115
350
8061
  3
*A116
350
157B6
  3
*A117
350
3E339
  3
*A118
350
7B9C4
  3
*A119
350
7BB7C
  3
*A12
350
157B9
  3
*A120
350
72BD3
  3
*A121
350
E1EE
  3
*A122
350
906A
  3
*A123
350
159D1
  3
*A124
350
23EED
  3
*A125
350
49F45
  3
*A126
350
7BC1A
  3
*A127
350
7BACA
  3
*A128
350
7BC2F
  3
*A129
350
7AFA4
  3
*A13
350
8014
  3
*A130
350
7AFAA
  3
*A131
350
3E322
  3
*A132
350
15417
  3
*A133
350
7BC32
  3
*A134
350
4CB95
  3
*A135
350
5C064
  3
*A136
350
7AFA2
  3
*A137
350
334C0
  3
*A138
350
476AA
  3
*A139
350
85AD4
  3
*A14
350
1358B
  3
*A140
350
4A0B6
  3
*A141
350
159D0
  3
*A142
350
73458
  3
*A143
350
18840
  3
*A144
350
90C3
  3
*A145
350
32A85
  3
*A146
350
49D4D
  3
*A147
350
73457
  3
*A148
350
77C45
  3
*A149
350
7AFA0
  3
*A15
350
1862A
  3
*A150
350
60B69
  3
*A151
350
4230
  3
*A152
350
1358A
  3
*A153
350
47785
  3
*A154
350
4A1B1
  3
*A155
350
70793
  3
*A156
350
75E60
  3
*A157
350
78CDF
  3
*A158
350
78CE1
  3
*A159
350
49AD6
  3
*A16
350
5ED98
  3
*A160
350
47786
  3
*A161
350
6CC3E
  3
*A162
350
7AFA5
  3
*A163
350
77C43
  3
*A164
350
3C464
  3
*A165
350
7BC31
  3
*A166
350
7E760
  3
*A167
350
7DDCF
  3
*A168
350
13587
  3
*A169
350
734D3
  3
*A17
350
7BAB7
  3
*A170
350
5CBAD
  3
*A171
350
6CBF4
  3
*A172
350
62130
  3
*A173
350
7AFA7
  3
*A174
350
5EE02
  3
*A175
350
3CA72
  3
*A176
350
5C32C
  3
*A177
350
13588
  3
*A178
350
1901
  3
*A179
350
7DDCD
  3
*A18
350
82363
  3
*A180
350
49AD5
  3
*A181
350
7BAB5
  3
*A182
350
4764C
  3
*A183
350
61FA3
  3
*A184
350
5CB38
  3
*A185
350
5CBC8
  3
*A186
350
5BF4F
  3
*A187
350
7459B
  3
*A188
350
5C131
  3
*A189
350
1859B
  3
*A19
350
7DDCA
  3
*A190
350
F059
  3
*A191
350
13585
  3
*A192
350
475D2
  3
*A193
350
7AFA8
  3
*A194
350
7DDD0
  3
*A195
350
499A6
  3
*A196
350
3288D
  3
*A197
350
18587
  3
*A198
350
75B78
  3
*A199
350
13586
  3
*A2
350
17DF
  3
*A20
350
15415
  3
*A200
350
157B7
  3
*A201
350
5CBAC
  3
*A202
350
8130
  3
*A203
350
7BB70
  3
*A204
350
3268C
  3
*A205
350
5CAE8
  3
*A206
350
3C462
  3
*A207
350
17DE
  3
*A208
350
82362
  3
*A209
350
3596C
  3
*A21
350
5CBB4
  3
*A210
350
3C463
  3
*A211
350
32B0D
  3
*A212
350
1945
  3
*A213
350
47787
  3
*A214
350
88AB7
  3
*A215
350
2F170
  3
*A216
350
7DDD1
  3
*A217
350
7DDD2
  3
*A218
350
70792
  3
*A219
350
13584
  3
*A22
350
49C02
  3
*A220
350
47788
  3
*A221
350
3596E
  3
*A222
350
7AFA3
  3
*A223
350
7BAC9
  3
*A224
350
32A84
  3
*A225
350
334BE
  3
*A226
350
1861D
  3
*A227
350
1AFD
  3
*A228
350
77C44
  3
*A229
350
4A0B5
  3
*A23
350
7459D
  3
*A230
350
6C310
  3
*A231
350
7DDD3
  3
*A232
350
2F172
  3
*A233
350
3C48F
  3
*A234
350
7AFA9
  3
*A235
350
49D66
  3
*A236
350
23EEC
  3
*A237
350
5CAC5
  3
*A238
350
2F1BB
  3
*A239
350
32A83
  3
*A24
350
7DDD5
  3
*A240
350
6CBE3
  3
*A241
350
7B9C0
  3
*A242
350
7B9B6
  3
*A243
350
15B15
  3
*A244
350
7563A
  3
*A25
350
8115
  3
*A26
350
157B8
  3
*A27
350
7AFAB
  3
*A28
350
8015
  3
*A29
350
7459E
  3
*A3
350
13CA
  3
*A30
350
77C42
  3
*A31
350
7078E
  3
*A32
350
E21F
  3
*A33
350
7DDD4
  3
*A34
350
7078F
  3
*A35
350
7DDD7
  3
*A36
350
7332A
  3
*A37
350
334BF
  3
*A38
350
70790
  3
*A39
350
85AD2
  3
*A4
350
75BE8
  3
*A40
350
ED21
  3
*A41
350
1883D
  3
*A42
350
32B1A
  3
*A43
350
32B14
  3
*A44
350
475D3
  3
*A45
350
3288F
  3
*A46
350
15416
  3
*A47
350
73460
  3
*A48
350
707AD
  3
*A49
350
3268D
  3
*A5
350
7DDC9
  3
*A50
350
1861E
  3
*A51
350
7BB71
  3
*A52
350
60B5E
  3
*A53
350
61DF0
  3
*A54
350
7563B
  3
*A55
350
5CAE9
  3
*A56
350
82364
  3
*A57
350
5C07B
  3
*A58
350
4CB96
  3
*A59
350
7DDCB
  3
*A6
350
49A73
  3
*A60
350
49C03
  3
*A61
350
85AD3
  3
*A62
350
498A7
  3
*A63
350
7DDD6
  3
*A64
350
78CE0
  3
*A65
350
32A19
  3
*A66
350
757B0
  3
*A67
350
F05A
  3
*A68
350
3C490
  3
*A69
350
7AFA6
  3
*A7
350
4CBAD
  3
*A70
350
60B43
  3
*A71
350
1AF0
  3
*A72
350
7F085
  3
*A73
350
2F1D7
  3
*A74
350
707BF
  3
*A75
350
61DF1
  3
*A76
350
15418
  3
*A77
350
60B7F
  3
*A78
350
49C01
  3
*A79
350
7DDCE
  3
*A8
350
5E8EB
  3
*A80
350
70794
  3
*A81
350
885D0
  3
*A82
350
8768A
  3
*A83
350
8768B
  3
*A84
350
70791
  3
*A85
350
47665
  3
*A86
350
8768C
  3
*A87
350
9040
  3
*A88
350
135C2
  3
*A89
350
49FC6
  3
*A9
350
3596D
  3
*A90
350
32A18
  3
*A91
350
60B74
  3
*A92
350
3268B
  3
*A93
350
7BAB6
  3
*A94
350
7B9BC
  3
*A95
350
5C30C
  3
*A96
350
1858A
  3
*A97
350
80ED
  3
*A98
350
4A1B0
  3
*A99
350
78CDE
  0
RASTERVARIABLES
  5
88B04
102
{ACAD_REACTORS
330
C
102
}
330
C
100
AcDbRasterVariables
 90
        0
 70
     1
 71
     1
 72
     0
  0
DICTIONARY
  5
353
102
{ACAD_REACTORS
330
C
102
}
330
C
100
AcDbDictionary
281
     1
  3
Model
350
355
  3
ﾚｲｱｳﾄ1
350
356
  0
DICTIONARY
  5
E
102
{ACAD_REACTORS
330
C
102
}
330
C
100
AcDbDictionary
281
     1
  3
STANDARD
350
1B
  0
DICTIONARY
  5
354
102
{ACAD_REACTORS
330
C
102
}
330
C
100
AcDbDictionary
281
     1
  0
ACDBDICTIONARYWDFLT
  5
351
102
{ACAD_REACTORS
330
C
102
}
330
C
100
AcDbDictionary
281
     1
  3
Normal
350
352
100
AcDbDictionaryWithDefault
340
352
  0
DICTIONARY
  5
7C5DE
102
{ACAD_REACTORS
330
C
102
}
330
C
100
AcDbDictionary
281
     1
  3
A0
350
7C5DF
  3
A1
350
7C5E0
  3
A2
350
7C5E1
  3
A3
350
7C5E2
  3
A4
350
7C5E3
  3
A5
350
7C5E4
  3
A6
350
7C5E5
  3
A7
350
7C5E6
  3
A8
350
7C5E7
  3
A9
350
7C5E8
  3
B0
350
7C5E9
  3
B1
350
7C5EA
  3
B2
350
7C5EB
  3
B3
350
7C5EC
  3
B4
350
7C5ED
  3
B5
350
7C5EE
  3
B6
350
7C5EF
  3
B7
350
7C5F0
  3
B8
350
7C5F1
  3
B9
350
7C5F2
  3
C0
350
7C5F3
  3
C1
350
7C5F4
  3
C2
350
7C5F5
  3
C3
350
7C5F6
  3
C4
350
7C5F7
  3
C5
350
7C5F8
  3
C6
350
7C5F9
  3
C7
350
7C5FA
  3
C8
350
7C5FB
  3
C9
350
7C5FC
  3
D0
350
7C5FD
  3
D1
350
7C5FE
  3
D2
350
7C5FF
  0
XRECORD
  5
7BC47
102
{ACAD_REACTORS
330
C
102
}
330
C
100
AcDbXrecord
280
     1
 90
   990106
  3

 60
     0
 61
     0
 62
     4
 63
     4
 64
     1
 65
     0
 66
     0
 67
     3
 68
     1
 69
     0
 70
     0
 71
     0
 72
     0
 40
0.0
170
     0
340
0
  0
DICTIONARY
  5
E12
102
{ACAD_REACTORS
330
C
102
}
330
C
100
AcDbDictionary
281
     1
  3
DIMASSOC
350
18B05
  3
INDEXCTL
350
7C694
  3
PROJECTNAME
350
19B39
  3
SORTENTS
350
E13
  0
DICTIONARY
  5
88B02
102
{ACAD_REACTORS
330
C
102
}
330
C
100
AcDbDictionary
281
     1
  0
XRECORD
  5
88B05
102
{ACAD_REACTORS
330
C
102
}
330
C
100
AcDbXrecord
280
     1
  1
DWGPROPS COOKIE
  2

  3

  4

  6

  7

  8
SPAX
  9

300
=
301
=
302
=
303
=
304
=
305
=
306
=
307
=
308
=
309
=
 40
0.0
 41
2448636.244629629
 42
2456822.473406609
  1

 90
        0
  0
DICTIONARY
  5
5CD8D
102
{ACAD_REACTORS
330
5CD8C
102
}
330
5CD8C
100
AcDbDictionary
281
     1
  0
XRECORD
  5
7C60C
102
{ACAD_REACTORS
330
7C60B
102
}
330
7C60B
100
AcDbXrecord
280
     1
290
     1
  0
XRECORD
  5
7C612
102
{ACAD_REACTORS
330
7C611
102
}
330
7C611
100
AcDbXrecord
280
     1
290
     1
  0
XRECORD
  5
7C61A
102
{ACAD_REACTORS
330
7C619
102
}
330
7C619
100
AcDbXrecord
280
     1
290
     1
  0
XRECORD
  5
7C61C
102
{ACAD_REACTORS
330
7C61B
102
}
330
7C61B
100
AcDbXrecord
280
     1
290
     1
  0
SORTENTSTABLE
  5
87BA2
102
{ACAD_REACTORS
330
87BA1
102
}
330
87BA1
100
AcDbSortentsTable
330
18
331
68A6
  5
68A6
331
13080
  5
13080
331
7B85D
  5
7B85D
331
7B9B2
  5
7B9B2
331
0
  5
7D9F9
331
0
  5
7D9FA
331
0
  5
7D9FB
331
0
  5
7D9FC
331
0
  5
7D9FD
331
0
  5
7D9FE
331
0
  5
7DA01
331
0
  5
7DA02
331
0
  5
7DA03
331
0
  5
7DA04
331
0
  5
7DA05
331
0
  5
7DA06
331
0
  5
7DA07
331
0
  5
7DA08
331
0
  5
7DA09
331
0
  5
7DA0A
331
0
  5
7DA0B
331
0
  5
7DA0C
331
0
  5
7DA0D
331
0
  5
7DA0E
331
0
  5
7DA0F
331
0
  5
7DA10
331
0
  5
7DA11
331
0
  5
7DA12
331
0
  5
7DA13
331
0
  5
7DA14
331
0
  5
7DA15
331
0
  5
7DA16
331
0
  5
7DA17
331
0
  5
7DA18
331
0
  5
7DA19
331
0
  5
7DA1A
331
0
  5
7DA1B
331
0
  5
7DA1C
331
0
  5
7DA1D
331
0
  5
7DA1E
331
0
  5
7DA1F
331
0
  5
7DA20
331
0
  5
7DA21
331
0
  5
7DA22
331
0
  5
7DA23
331
0
  5
7DA24
331
0
  5
7DA25
331
0
  5
7DA26
331
0
  5
7DA27
331
0
  5
7DA28
331
0
  5
7DA29
331
0
  5
7DA2A
331
0
  5
7DA2B
331
0
  5
7DA2C
331
0
  5
7DA2D
331
0
  5
7DA2E
331
0
  5
7DA2F
331
0
  5
7DA30
331
0
  5
7DA31
331
0
  5
7DA32
331
0
  5
7DA33
331
0
  5
7DA34
331
0
  5
7DA35
331
0
  5
7DA36
331
0
  5
7DA37
331
0
  5
7DA38
331
0
  5
7DA39
331
0
  5
7DA3A
331
0
  5
7DA3B
331
0
  5
7DA3C
331
0
  5
7DA3D
331
0
  5
7DA3E
331
0
  5
7DA3F
331
0
  5
7DA40
331
0
  5
7DA41
331
0
  5
7DA42
331
0
  5
7DA43
331
0
  5
7DA44
331
0
  5
7DA45
331
0
  5
7DA46
331
0
  5
7DA47
331
0
  5
7DA48
331
0
  5
7DA49
331
0
  5
7DA4A
331
0
  5
7DA4B
331
0
  5
7DA4C
331
0
  5
7DA4D
331
0
  5
7DA4E
331
0
  5
7DA4F
331
0
  5
7DA50
331
0
  5
7DA51
331
0
  5
7DA52
331
0
  5
7DA53
331
0
  5
7DA54
331
0
  5
7DA55
331
0
  5
7DA56
331
0
  5
7DA57
331
0
  5
7DA58
331
0
  5
7DA59
331
0
  5
7DA5A
331
0
  5
7DA5B
331
0
  5
7DA5C
331
0
  5
7DA5D
331
0
  5
7DA5E
331
0
  5
7DA5F
331
0
  5
7DA60
331
0
  5
7DA61
331
0
  5
7DA62
331
0
  5
7DA63
331
0
  5
7DA64
331
0
  5
7DA65
331
0
  5
7DA66
331
0
  5
7DA67
331
0
  5
7DA68
331
0
  5
7DA69
331
0
  5
7DA6A
331
0
  5
7DA6B
331
0
  5
7DA6C
331
0
  5
7DA6D
331
0
  5
7DA6E
331
0
  5
7DA6F
331
0
  5
7DA70
331
0
  5
7DA71
331
0
  5
7DA72
331
0
  5
7DA73
331
0
  5
7DA74
331
0
  5
7DA75
331
0
  5
7DA76
331
0
  5
7DA77
331
0
  5
7DA78
331
0
  5
7DA79
331
0
  5
7DA7A
331
0
  5
7DA7B
331
0
  5
7DA7C
331
0
  5
7DA7D
331
0
  5
7DA7E
331
0
  5
7DA7F
331
0
  5
7DA80
331
0
  5
7DA81
331
0
  5
7DA82
331
0
  5
7DA83
331
0
  5
7DA84
331
0
  5
7DA85
331
0
  5
7DA86
331
0
  5
7DA87
331
0
  5
7DA88
331
0
  5
7DA89
331
0
  5
7DA8A
331
0
  5
7DA8B
331
0
  5
7DA8C
331
0
  5
7DA8D
331
0
  5
7DA8E
331
0
  5
7DA8F
331
0
  5
7DA90
331
0
  5
7DA91
331
0
  5
7DA92
331
0
  5
7DA93
331
0
  5
7DA94
331
0
  5
7DA95
331
0
  5
7DA96
331
0
  5
7DA97
331
0
  5
7DA98
331
0
  5
7DA99
331
0
  5
7DA9A
331
0
  5
7DA9B
331
0
  5
7DA9C
331
0
  5
7DA9D
331
0
  5
7DA9E
331
0
  5
7DA9F
331
0
  5
7DAA0
331
0
  5
7DAA1
331
0
  5
7DAA2
331
0
  5
7DAA3
331
0
  5
7DAA4
331
0
  5
7DAA5
331
0
  5
7DAA6
331
0
  5
7DAA7
331
0
  5
7DAA8
331
0
  5
7DAA9
331
0
  5
7DAAA
331
0
  5
7DAAB
331
0
  5
7DAAC
331
0
  5
7DAAD
331
0
  5
7DAAE
331
0
  5
7DAAF
331
0
  5
7DAB0
331
0
  5
7DAB1
331
0
  5
7DAB2
331
0
  5
7DAB3
331
0
  5
7DAB4
331
0
  5
7DAB5
331
0
  5
7DAB6
331
0
  5
7DAB7
331
0
  5
7DAB8
331
0
  5
7DAB9
331
0
  5
7DABA
331
0
  5
7DABB
331
0
  5
7DABC
331
0
  5
7DABD
331
0
  5
7DABE
331
0
  5
7DABF
331
0
  5
7DAC0
331
0
  5
7DAC1
331
0
  5
7DAC2
331
0
  5
7DAC3
331
0
  5
7DAC4
331
0
  5
7DAC5
331
0
  5
7DAC6
331
0
  5
7DAC7
331
0
  5
7DAC8
331
0
  5
7DAC9
331
0
  5
7DACA
331
0
  5
7DACB
331
0
  5
7DACC
331
0
  5
7DACD
331
0
  5
7DACE
331
0
  5
7DACF
331
0
  5
7DAD0
331
0
  5
7DAD1
331
0
  5
7DAD2
331
0
  5
7DAD3
331
0
  5
7DAD4
331
0
  5
7DAD5
331
0
  5
7DAD6
331
0
  5
7DAD7
331
0
  5
7DAD8
331
0
  5
7DAD9
331
0
  5
7DADA
331
0
  5
7DADB
331
0
  5
7DADC
331
0
  5
7DADD
331
0
  5
7DADE
331
0
  5
7DADF
331
0
  5
7DAE0
331
0
  5
7DAE1
331
0
  5
7DAE2
331
0
  5
7DAE3
331
0
  5
7DAE4
331
0
  5
7DAE5
331
0
  5
7DAE6
331
0
  5
7DAE7
331
0
  5
7DAE8
331
0
  5
7DAE9
331
0
  5
7DAEA
331
0
  5
7DAEB
331
0
  5
7DAEC
331
0
  5
7DAED
331
0
  5
7DAEE
331
0
  5
7DAEF
331
0
  5
7DAF0
331
0
  5
7DAF1
331
0
  5
7DAF2
331
0
  5
7DAF3
331
0
  5
7DAF4
331
0
  5
7DAF5
331
0
  5
7DAF6
331
0
  5
7DAF7
331
0
  5
7DAF8
331
0
  5
7DAF9
331
0
  5
7DAFA
331
0
  5
7DAFB
331
0
  5
7DAFC
331
0
  5
7DAFD
331
0
  5
7DAFE
331
0
  5
7DAFF
331
0
  5
7DB00
331
0
  5
7DB01
331
0
  5
7DB02
331
0
  5
7DB03
331
0
  5
7DB04
331
0
  5
7DB05
331
0
  5
7DB06
331
0
  5
7DB07
331
0
  5
7DB08
331
0
  5
7DB09
331
0
  5
7DB0A
331
0
  5
7DB0B
331
0
  5
7DB0C
331
0
  5
7DB0D
331
0
  5
7DB0E
331
0
  5
7DB0F
331
0
  5
7DB10
331
0
  5
7DB11
331
0
  5
7DB12
331
0
  5
7DB13
331
0
  5
7DB14
331
0
  5
7DB15
331
0
  5
7DB16
331
0
  5
7DB17
331
0
  5
7DB18
331
0
  5
7DB19
331
0
  5
7DB1A
331
0
  5
7DB1B
331
0
  5
7DB1C
331
0
  5
7DB1D
331
0
  5
7DB1E
331
0
  5
7DB1F
331
0
  5
7DB20
331
0
  5
7DB21
331
0
  5
7DB22
331
0
  5
7DB23
331
0
  5
7DB24
331
0
  5
7DB25
331
0
  5
7DB26
331
0
  5
7DB27
331
0
  5
7DB28
331
0
  5
7DB29
331
0
  5
7DB2A
331
0
  5
7DB2B
331
0
  5
7DB2C
331
0
  5
7DB2D
331
0
  5
7DB2E
331
0
  5
7DB2F
331
0
  5
7DB30
331
0
  5
7DB31
331
0
  5
7DB32
331
0
  5
7DB33
331
0
  5
7DB34
331
0
  5
7DB35
331
0
  5
7DB36
331
0
  5
7DB37
331
0
  5
7DB38
331
0
  5
7DB39
331
0
  5
7DB3A
331
0
  5
7DB3B
331
0
  5
7DB3C
331
0
  5
7DB3D
331
0
  5
7DB3E
331
0
  5
7DB3F
331
0
  5
7DB40
331
0
  5
7DB41
331
0
  5
7DB42
331
0
  5
7DB43
331
0
  5
7DB44
331
0
  5
7DB45
331
0
  5
7DB46
331
0
  5
7DB47
331
0
  5
7DB48
331
0
  5
7DB49
331
0
  5
7DB4A
331
0
  5
7DB4B
331
0
  5
7DB4C
331
0
  5
7DB4D
331
0
  5
7DB4E
331
0
  5
7DB4F
331
0
  5
7DB50
331
0
  5
7DB51
331
0
  5
7DB52
331
0
  5
7DB53
331
0
  5
7DB54
331
0
  5
7DB55
331
0
  5
7DB56
331
0
  5
7DB57
331
0
  5
7DB58
331
0
  5
7DB59
331
0
  5
7DB5A
331
0
  5
7DB5B
331
0
  5
7DB5C
331
0
  5
7DB5D
331
0
  5
7DB5E
331
0
  5
7DB5F
331
0
  5
7DB60
331
0
  5
7DB61
331
0
  5
7DB62
331
0
  5
7DB63
331
0
  5
7DB64
331
0
  5
7DB65
331
0
  5
7DB66
331
0
  5
7DB67
331
0
  5
7DB68
331
0
  5
7DB69
331
0
  5
7DB6A
331
0
  5
7DB6B
331
0
  5
7DB6C
331
0
  5
7DB6D
331
0
  5
7DB6E
331
0
  5
7DB6F
331
0
  5
7DB70
331
0
  5
7DB71
331
0
  5
7DB72
331
0
  5
7DB73
331
0
  5
7DB74
331
0
  5
7DB75
331
0
  5
7DB76
331
0
  5
7DB77
331
0
  5
7DB78
331
0
  5
7DB79
331
0
  5
7DB7A
331
0
  5
7DB7B
331
0
  5
7DB7C
331
0
  5
7DB7D
331
0
  5
7DB7E
331
0
  5
7DB7F
331
0
  5
7DB80
331
0
  5
7DB81
331
0
  5
7DB82
331
0
  5
7DB83
331
0
  5
7DB84
331
0
  5
7DB85
331
0
  5
7DB86
331
0
  5
7DB87
331
0
  5
7DB88
331
0
  5
7DB89
331
0
  5
7DB8A
331
0
  5
7DB8B
331
0
  5
7DB8C
331
0
  5
7DB8D
331
0
  5
7DB8E
331
0
  5
7DB8F
331
0
  5
7DB90
331
0
  5
7DB91
331
0
  5
7DB92
331
0
  5
7DB93
331
0
  5
7DB94
331
0
  5
7DB95
331
0
  5
7DB96
331
0
  5
7DB97
331
0
  5
7DB98
331
0
  5
7DB99
331
0
  5
7DB9A
331
0
  5
7DB9B
331
0
  5
7DB9C
331
0
  5
7DB9D
331
0
  5
7DB9E
331
0
  5
7DB9F
331
0
  5
7DBA0
331
0
  5
7DBA1
331
0
  5
7DBA2
331
0
  5
7DBA3
331
0
  5
7DBA4
331
0
  5
7DBA5
331
0
  5
7DBA6
331
0
  5
7DBA7
331
0
  5
7DBA8
331
0
  5
7DBA9
331
0
  5
7DBAA
331
0
  5
7DBAB
331
0
  5
7DBAC
331
0
  5
7DBAD
331
0
  5
7DBAE
331
0
  5
7DBAF
331
0
  5
7DBB0
331
0
  5
7DBB1
331
0
  5
7DBB2
331
0
  5
7DBB3
331
0
  5
7DBB4
331
0
  5
7DBB5
331
0
  5
7DBB6
331
0
  5
7DBB7
331
0
  5
7DBB8
331
0
  5
7DBB9
331
0
  5
7DBBA
331
0
  5
7DBBB
331
0
  5
7DBBC
331
0
  5
7DBBD
331
0
  5
7DBBE
331
0
  5
7DBBF
331
0
  5
7DBC0
331
0
  5
7DBC1
331
0
  5
7DBC2
331
0
  5
7DBC3
331
0
  5
7DBC4
331
0
  5
7DBC5
331
0
  5
7DBC6
331
0
  5
7DBC7
331
0
  5
7DBC8
331
0
  5
7DBC9
331
0
  5
7DBCA
331
0
  5
7DBCB
331
0
  5
7DBCC
331
0
  5
7DBCD
331
0
  5
7DBCE
331
0
  5
7DBCF
331
0
  5
7DBD0
331
0
  5
7DBD1
331
0
  5
7DBD2
331
0
  5
7DBD3
331
0
  5
7DBD4
331
0
  5
7DBD5
331
0
  5
7DBD6
331
0
  5
7DBD7
331
0
  5
7DBD8
331
0
  5
7DBD9
331
0
  5
7DBDA
331
0
  5
7DBDB
331
0
  5
7DBDC
331
0
  5
7DBDD
331
0
  5
7DBDE
331
0
  5
7DBDF
331
0
  5
7DBE0
331
0
  5
7DBE1
331
0
  5
7DBE2
331
0
  5
7DBE3
331
0
  5
7DBE4
331
0
  5
7DBE5
331
0
  5
7DBE6
331
0
  5
7DBE7
331
0
  5
7DBE8
331
0
  5
7DBE9
331
0
  5
7DBEA
331
0
  5
7DBEB
331
0
  5
7DBEC
331
0
  5
7DBED
331
0
  5
7DBEE
331
0
  5
7DBEF
331
0
  5
7DBF0
331
0
  5
7DBF1
331
0
  5
7DBF2
331
0
  5
7DBF3
331
0
  5
7DBF4
331
0
  5
7DBF5
331
0
  5
7DBF6
331
0
  5
7DBF7
331
0
  5
7DBF8
331
0
  5
7DBF9
331
0
  5
7DBFA
331
0
  5
7DBFB
331
0
  5
7DBFC
331
0
  5
7DBFD
331
0
  5
7DBFE
331
0
  5
7DBFF
331
0
  5
7DC00
331
0
  5
7DC01
331
0
  5
7DC02
331
0
  5
7DC03
331
0
  5
7DC04
331
0
  5
7DC05
331
0
  5
7DC06
331
0
  5
7DC07
331
0
  5
7DC08
331
0
  5
7DC09
331
0
  5
7DC0A
331
0
  5
7DC0B
331
0
  5
7DC0C
331
0
  5
7DC0D
331
0
  5
7DC0E
331
0
  5
7DC0F
331
0
  5
7DC10
331
0
  5
7DC11
331
0
  5
7DC12
331
0
  5
7DC13
331
0
  5
7DC14
331
0
  5
7DC15
331
0
  5
7DC16
331
0
  5
7DC17
331
0
  5
7DC18
331
0
  5
7DC19
331
0
  5
7DC1A
331
0
  5
7DC1B
331
0
  5
7DC1C
331
0
  5
7DC1D
331
0
  5
7DC1E
331
0
  5
7DC1F
331
0
  5
7DC20
331
0
  5
7DC21
331
0
  5
7DC22
331
0
  5
7DC23
331
0
  5
7DC24
331
0
  5
7DC25
331
0
  5
7DC26
331
0
  5
7DC27
331
0
  5
7DC28
331
0
  5
7DC29
331
0
  5
7DC2A
331
0
  5
7DC2B
331
0
  5
7DC2C
331
0
  5
7DC2D
331
0
  5
7DC2E
331
0
  5
7DC2F
331
0
  5
7DC30
331
0
  5
7DC31
331
0
  5
7DC32
331
0
  5
7DC33
331
0
  5
7DC34
331
0
  5
7DC35
331
0
  5
7DC36
331
0
  5
7DC37
331
0
  5
7DC38
331
0
  5
7DC39
331
0
  5
7DC3A
331
0
  5
7DC3B
331
0
  5
7DC3C
331
0
  5
7DC3D
331
0
  5
7DC3E
331
0
  5
7DC3F
331
0
  5
7DC40
331
0
  5
7DC41
331
0
  5
7DC42
331
0
  5
7DC43
331
0
  5
7DC44
331
0
  5
7DC45
331
0
  5
7DC46
331
0
  5
7DC47
331
0
  5
7DC48
331
0
  5
7DC49
331
0
  5
7DC4A
331
0
  5
7DC4B
331
0
  5
7DC4C
331
0
  5
7DC4D
331
0
  5
7DC4E
331
0
  5
7DC4F
331
0
  5
7DC50
331
0
  5
7DC51
331
0
  5
7DC52
331
0
  5
7DC53
331
0
  5
7DC54
331
0
  5
7DC55
331
0
  5
7DC56
331
0
  5
7DC57
331
0
  5
7DC58
331
0
  5
7DC59
331
0
  5
7DC5A
331
0
  5
7DC5B
331
0
  5
7DC5C
331
0
  5
7DC5D
331
0
  5
7DC5E
331
0
  5
7DC5F
331
0
  5
7DC60
331
0
  5
7DC61
331
0
  5
7DC62
331
0
  5
7DC63
331
0
  5
7DC64
331
0
  5
7DC65
331
0
  5
7DC66
331
0
  5
7DC67
331
0
  5
7DC68
331
0
  5
7DC69
331
0
  5
7DC6A
331
0
  5
7DC6B
331
0
  5
7DC6C
331
0
  5
7DC6D
331
0
  5
7DC6E
331
0
  5
7DC6F
331
0
  5
7DC70
331
0
  5
7DC71
331
0
  5
7DC72
331
0
  5
7DC73
331
0
  5
7DC74
331
0
  5
7DC75
331
0
  5
7DC76
331
0
  5
7DC94
331
0
  5
7DC95
331
0
  5
7DC96
331
0
  5
7DC97
331
0
  5
7DC98
331
0
  5
7DC99
331
0
  5
7DC9A
331
0
  5
7DC9B
331
0
  5
7DC9C
331
0
  5
7DC9D
331
0
  5
7DC9E
331
0
  5
7DC9F
331
0
  5
7DCA0
331
0
  5
7F086
331
0
  5
7F087
331
0
  5
7F088
331
0
  5
7F089
331
0
  5
7F08A
331
0
  5
7F08B
331
0
  5
7F08C
331
0
  5
7F08D
331
0
  5
7F08E
331
0
  5
7F08F
331
0
  5
7F092
331
0
  5
7F093
331
0
  5
7F094
331
0
  5
7F095
331
0
  5
7F096
331
0
  5
7F097
331
0
  5
7F098
331
0
  5
7F099
331
0
  5
7F09A
331
0
  5
7F09B
331
0
  5
7F09C
331
0
  5
7F09D
331
0
  5
7F09E
331
0
  5
7F0A0
331
0
  5
7F0A1
331
0
  5
7F0A3
331
0
  5
7F0A4
331
0
  5
7F0A5
331
0
  5
7F0A6
331
0
  5
7F0A7
331
0
  5
7F0A8
331
0
  5
7F0A9
331
0
  5
7F0AA
331
0
  5
7F0AB
331
0
  5
7F0AC
331
0
  5
7F0AD
331
0
  5
7F0AE
331
0
  5
7F0AF
331
0
  5
7F0B0
331
0
  5
7F0B1
331
0
  5
7F0B2
331
0
  5
7F0B3
331
0
  5
7F0B4
331
0
  5
7F0B5
331
0
  5
7F0B6
331
0
  5
7F0B7
331
0
  5
7F0B8
331
0
  5
7F0B9
331
0
  5
7F0BA
331
0
  5
7F0BB
331
0
  5
7F0BC
331
0
  5
7F0BD
331
0
  5
7F0BE
331
0
  5
7F0BF
331
0
  5
7F0C0
331
0
  5
7F0C1
331
0
  5
7F0C2
331
0
  5
7F0C3
331
0
  5
7F0C4
331
0
  5
7F0C5
331
0
  5
7F0C6
331
0
  5
7F0C7
331
0
  5
7F0C8
331
0
  5
7F0C9
331
0
  5
7F0CA
331
0
  5
7F0CB
331
0
  5
7F0CC
331
0
  5
7F0CD
331
0
  5
7F0CE
331
0
  5
7F0CF
331
0
  5
7F0D0
331
0
  5
7F0D1
331
0
  5
7F0D2
331
0
  5
7F0D3
331
0
  5
7F0D4
331
0
  5
7F0D5
331
0
  5
7F0D6
331
0
  5
7F0D7
331
0
  5
7F0D8
331
0
  5
7F0D9
331
0
  5
7F0DA
331
0
  5
7F0DB
331
0
  5
7F0DC
331
0
  5
7F0DD
331
0
  5
7F0DE
331
0
  5
7F0DF
331
0
  5
7F0E0
331
0
  5
7F0E1
331
0
  5
7F0E2
331
0
  5
7F0E3
331
0
  5
7F0E4
331
0
  5
7F0E5
331
0
  5
7F0E6
331
0
  5
7F0E7
331
0
  5
7F0E8
331
0
  5
7F0E9
331
0
  5
7F0EA
331
0
  5
7F0EB
331
0
  5
7F0EC
331
0
  5
7F0ED
331
0
  5
7F0EE
331
0
  5
7F0EF
331
0
  5
7F0F0
331
0
  5
7F0F1
331
0
  5
7F0F2
331
0
  5
7F0F3
331
0
  5
7F0F4
331
0
  5
7F0F5
331
0
  5
7F0F6
331
0
  5
7F0F7
331
0
  5
7F0F8
331
0
  5
7F0F9
331
0
  5
7F0FA
331
0
  5
7F0FB
331
0
  5
7F0FC
331
0
  5
7F0FD
331
0
  5
7F0FE
331
0
  5
7F0FF
331
0
  5
7F100
331
0
  5
7F101
331
0
  5
7F102
331
0
  5
7F103
331
0
  5
7F104
331
0
  5
7F105
331
0
  5
7F106
331
0
  5
7F107
331
0
  5
7F108
331
0
  5
7F109
331
0
  5
7F10A
331
0
  5
7F10B
331
0
  5
7F10C
331
0
  5
7F10D
331
0
  5
7F10E
331
0
  5
7F10F
331
0
  5
7F110
331
0
  5
7F111
331
0
  5
7F112
331
0
  5
7F113
331
0
  5
7F114
331
0
  5
7F115
331
0
  5
7F116
331
0
  5
7F117
331
0
  5
7F118
331
0
  5
7F119
331
0
  5
7F11A
331
0
  5
7F11B
331
0
  5
7F11C
331
0
  5
7F11D
331
0
  5
7F11E
331
0
  5
7F11F
331
0
  5
7F120
331
0
  5
7F121
331
0
  5
7F122
331
0
  5
7F123
331
0
  5
7F124
331
0
  5
7F125
331
0
  5
7F126
331
0
  5
7F127
331
0
  5
7F128
331
0
  5
7F129
331
0
  5
7F12A
331
0
  5
7F12B
331
0
  5
7F12C
331
0
  5
7F12D
331
0
  5
7F12E
331
0
  5
7F12F
331
0
  5
7F130
331
0
  5
7F131
331
0
  5
7F132
331
0
  5
7F133
331
0
  5
7F134
331
0
  5
7F135
331
0
  5
7F136
331
0
  5
7F137
331
0
  5
7F138
331
0
  5
7F139
331
0
  5
7F13A
331
0
  5
7F13B
331
0
  5
7F13C
331
0
  5
7F13D
331
0
  5
7F13E
331
0
  5
7F13F
331
0
  5
7F197
331
0
  5
7F198
331
0
  5
7F199
331
0
  5
7F19A
331
0
  5
7F19B
331
0
  5
7F19C
331
0
  5
7F19D
331
0
  5
7F19E
331
0
  5
7F19F
331
0
  5
7F1A0
331
0
  5
7F1A1
331
0
  5
7F1A2
331
0
  5
7F1A3
331
0
  5
7F1A4
331
0
  5
7F1A5
331
0
  5
7F1A6
331
0
  5
7F1A7
331
0
  5
7F1A8
331
0
  5
7F1A9
331
0
  5
7F1AA
331
0
  5
7F1AB
331
0
  5
7F1AC
331
0
  5
7F1AD
331
0
  5
7F1AE
331
0
  5
7F1AF
331
0
  5
7F1B0
331
0
  5
7F1B1
331
0
  5
7F1B2
331
0
  5
7F1B3
331
0
  5
7F1B4
331
0
  5
7F1B5
331
0
  5
7F1B6
331
0
  5
7F1B7
331
0
  5
7F1B8
331
0
  5
7F1B9
331
0
  5
7F1BA
331
0
  5
7F1BB
331
0
  5
7F1BC
331
0
  5
7F1BD
331
0
  5
7F1BE
331
0
  5
7F1BF
331
0
  5
7F1C0
331
0
  5
7F1C1
331
0
  5
7F1C2
331
0
  5
7F1C3
331
0
  5
7F1C4
331
0
  5
7F1C5
331
0
  5
7F1C6
331
0
  5
7F1C7
331
0
  5
7F1C8
331
0
  5
7F1C9
331
0
  5
7F1CA
331
0
  5
7F1CB
331
0
  5
7F1CC
331
0
  5
7F1CD
331
0
  5
7F1CE
331
0
  5
7F1CF
331
0
  5
7F1D0
331
0
  5
7F1D1
331
0
  5
7F1D2
331
0
  5
7F1D3
331
0
  5
7F1D4
331
0
  5
7F1D5
331
0
  5
7F1D6
331
0
  5
7F1D7
331
0
  5
7F1D8
331
0
  5
7F1D9
331
0
  5
7F1DA
331
0
  5
7F1DB
331
0
  5
7F1DC
331
0
  5
7F1DD
331
0
  5
7F1DE
331
0
  5
7F1DF
331
0
  5
7F1E0
331
0
  5
7F1E1
331
0
  5
7F1E2
331
0
  5
7F1E3
331
0
  5
7F1E4
331
0
  5
7F1E5
331
0
  5
7F1E6
331
0
  5
7F1E7
331
0
  5
7F1E8
331
0
  5
7F1E9
331
0
  5
7F1EA
331
0
  5
7F1EB
331
0
  5
7F1EC
331
0
  5
7F1ED
331
0
  5
7F1EE
331
0
  5
7F1EF
331
0
  5
7F1F0
331
0
  5
7F1F1
331
0
  5
7F1F2
331
0
  5
7F1F3
331
0
  5
7F1F4
331
0
  5
7F1F5
331
0
  5
7F1F6
331
0
  5
7F1F7
331
0
  5
7F1F8
331
0
  5
7F1F9
331
0
  5
7F1FA
331
0
  5
7F1FB
331
0
  5
7F1FC
331
0
  5
7F1FD
331
0
  5
7F1FE
331
0
  5
7F1FF
331
0
  5
7F200
331
0
  5
7F201
331
0
  5
7F202
331
0
  5
7F203
331
0
  5
7F204
331
0
  5
7F205
331
0
  5
7F206
331
0
  5
7F207
331
0
  5
7F208
331
0
  5
7F209
331
0
  5
7F20A
331
0
  5
7F20B
331
0
  5
7F20C
331
0
  5
7F20D
331
0
  5
7F20E
331
0
  5
7F20F
331
0
  5
7F210
331
0
  5
7F211
331
0
  5
7F254
  0
GROUP
  5
E9C
102
{ACAD_REACTORS
330
D
102
}
330
D
100
AcDbGroup
300

 70
     1
 71
     1
  0
GROUP
  5
13AB
102
{ACAD_REACTORS
330
D
102
}
330
D
100
AcDbGroup
300

 70
     1
 71
     1
  0
GROUP
  5
E1D7
102
{ACAD_REACTORS
330
D
102
}
330
D
100
AcDbGroup
300

 70
     1
 71
     1
  0
GROUP
  5
3288E
102
{ACAD_REACTORS
330
D
102
}
330
D
100
AcDbGroup
300

 70
     1
 71
     1
  0
GROUP
  5
476AB
102
{ACAD_REACTORS
330
D
102
}
330
D
100
AcDbGroup
300

 70
     1
 71
     1
  0
GROUP
  5
499A5
102
{ACAD_REACTORS
330
D
102
}
330
D
100
AcDbGroup
300

 70
     1
 71
     1
  0
GROUP
  5
6210D
102
{ACAD_REACTORS
330
D
102
}
330
D
100
AcDbGroup
300

 70
     1
 71
     1
  0
GROUP
  5
7AFA1
102
{ACAD_REACTORS
330
D
102
}
330
D
100
AcDbGroup
300

 70
     1
 71
     1
  0
GROUP
  5
7BC30
102
{ACAD_REACTORS
330
D
102
}
330
D
100
AcDbGroup
300

 70
     1
 71
     1
  0
GROUP
  5
7BB78
102
{ACAD_REACTORS
330
D
102
}
330
D
100
AcDbGroup
300

 70
     1
 71
     1
  0
GROUP
  5
E207
102
{ACAD_REACTORS
330
D
102
}
330
D
100
AcDbGroup
300

 70
     1
 71
     1
  0
GROUP
  5
ECBD
102
{ACAD_REACTORS
330
D
102
}
330
D
100
AcDbGroup
300

 70
     1
 71
     1
  0
GROUP
  5
13589
102
{ACAD_REACTORS
330
D
102
}
330
D
100
AcDbGroup
300

 70
     1
 71
     1
  0
GROUP
  5
7DDCC
102
{ACAD_REACTORS
330
D
102
}
330
D
100
AcDbGroup
300

 70
     1
 71
     1
  0
GROUP
  5
2F1A3
102
{ACAD_REACTORS
330
D
102
}
330
D
100
AcDbGroup
300

 70
     1
 71
     1
  0
GROUP
  5
7BB72
102
{ACAD_REACTORS
330
D
102
}
330
D
100
AcDbGroup
300

 70
     1
 71
     1
  0
GROUP
  5
7BAC8
102
{ACAD_REACTORS
330
D
102
}
330
D
100
AcDbGroup
300

 70
     1
 71
     1
  0
GROUP
  5
475D4
102
{ACAD_REACTORS
330
D
102
}
330
D
100
AcDbGroup
300

 70
     1
 71
     1
  0
GROUP
  5
8061
102
{ACAD_REACTORS
330
D
102
}
330
D
100
AcDbGroup
300

 70
     1
 71
     1
  0
GROUP
  5
157B6
102
{ACAD_REACTORS
330
D
102
}
330
D
100
AcDbGroup
300

 70
     1
 71
     1
  0
GROUP
  5
3E339
102
{ACAD_REACTORS
330
D
102
}
330
D
100
AcDbGroup
300

 70
     1
 71
     1
  0
GROUP
  5
7B9C4
102
{ACAD_REACTORS
330
D
102
}
330
D
100
AcDbGroup
300

 70
     1
 71
     1
  0
GROUP
  5
7BB7C
102
{ACAD_REACTORS
330
D
102
}
330
D
100
AcDbGroup
300

 70
     1
 71
     1
  0
GROUP
  5
157B9
102
{ACAD_REACTORS
330
D
102
}
330
D
100
AcDbGroup
300

 70
     1
 71
     1
  0
GROUP
  5
72BD3
102
{ACAD_REACTORS
330
D
102
}
330
D
100
AcDbGroup
300

 70
     1
 71
     1
  0
GROUP
  5
E1EE
102
{ACAD_REACTORS
330
D
102
}
330
D
100
AcDbGroup
300

 70
     1
 71
     1
  0
GROUP
  5
906A
102
{ACAD_REACTORS
330
D
102
}
330
D
100
AcDbGroup
300

 70
     1
 71
     1
  0
GROUP
  5
159D1
102
{ACAD_REACTORS
330
D
102
}
330
D
100
AcDbGroup
300

 70
     1
 71
     1
  0
GROUP
  5
23EED
102
{ACAD_REACTORS
330
D
102
}
330
D
100
AcDbGroup
300

 70
     0
 71
     1
  0
GROUP
  5
49F45
102
{ACAD_REACTORS
330
D
102
}
330
D
100
AcDbGroup
300

 70
     1
 71
     1
  0
GROUP
  5
7BC1A
102
{ACAD_REACTORS
330
D
102
}
330
D
100
AcDbGroup
300

 70
     1
 71
     1
  0
GROUP
  5
7BACA
102
{ACAD_REACTORS
330
D
102
}
330
D
100
AcDbGroup
300

 70
     1
 71
     1
  0
GROUP
  5
7BC2F
102
{ACAD_REACTORS
330
D
102
}
330
D
100
AcDbGroup
300

 70
     1
 71
     1
  0
GROUP
  5
7AFA4
102
{ACAD_REACTORS
330
D
102
}
330
D
100
AcDbGroup
300

 70
     1
 71
     1
  0
GROUP
  5
8014
102
{ACAD_REACTORS
330
D
102
}
330
D
100
AcDbGroup
300

 70
     1
 71
     1
  0
GROUP
  5
7AFAA
102
{ACAD_REACTORS
330
D
102
}
330
D
100
AcDbGroup
300

 70
     1
 71
     1
  0
GROUP
  5
3E322
102
{ACAD_REACTORS
330
D
102
}
330
D
100
AcDbGroup
300

 70
     1
 71
     1
  0
GROUP
  5
15417
102
{ACAD_REACTORS
330
D
102
}
330
D
100
AcDbGroup
300

 70
     1
 71
     1
  0
GROUP
  5
7BC32
102
{ACAD_REACTORS
330
D
102
}
330
D
100
AcDbGroup
300

 70
     1
 71
     1
  0
GROUP
  5
4CB95
102
{ACAD_REACTORS
330
D
102
}
330
D
100
AcDbGroup
300

 70
     1
 71
     1
  0
GROUP
  5
5C064
102
{ACAD_REACTORS
330
D
102
}
330
D
100
AcDbGroup
300

 70
     1
 71
     1
  0
GROUP
  5
7AFA2
102
{ACAD_REACTORS
330
D
102
}
330
D
100
AcDbGroup
300

 70
     1
 71
     1
  0
GROUP
  5
334C0
102
{ACAD_REACTORS
330
D
102
}
330
D
100
AcDbGroup
300

 70
     1
 71
     1
  0
GROUP
  5
476AA
102
{ACAD_REACTORS
330
D
102
}
330
D
100
AcDbGroup
300

 70
     1
 71
     1
  0
GROUP
  5
85AD4
102
{ACAD_REACTORS
330
D
102
}
330
D
100
AcDbGroup
300

 70
     1
 71
     1
  0
GROUP
  5
1358B
102
{ACAD_REACTORS
330
D
102
}
330
D
100
AcDbGroup
300

 70
     1
 71
     1
  0
GROUP
  5
4A0B6
102
{ACAD_REACTORS
330
D
102
}
330
D
100
AcDbGroup
300

 70
     1
 71
     1
  0
GROUP
  5
159D0
102
{ACAD_REACTORS
330
D
102
}
330
D
100
AcDbGroup
300

 70
     1
 71
     1
  0
GROUP
  5
73458
102
{ACAD_REACTORS
330
D
102
}
330
D
100
AcDbGroup
300

 70
     1
 71
     1
  0
GROUP
  5
18840
102
{ACAD_REACTORS
330
D
102
}
330
D
100
AcDbGroup
300

 70
     1
 71
     1
  0
GROUP
  5
90C3
102
{ACAD_REACTORS
330
D
102
}
330
D
100
AcDbGroup
300

 70
     1
 71
     1
  0
GROUP
  5
32A85
102
{ACAD_REACTORS
330
D
102
}
330
D
100
AcDbGroup
300

 70
     1
 71
     1
  0
GROUP
  5
49D4D
102
{ACAD_REACTORS
330
D
102
}
330
D
100
AcDbGroup
300

 70
     1
 71
     1
  0
GROUP
  5
73457
102
{ACAD_REACTORS
330
D
102
}
330
D
100
AcDbGroup
300

 70
     1
 71
     1
  0
GROUP
  5
77C45
102
{ACAD_REACTORS
330
D
102
}
330
D
100
AcDbGroup
300

 70
     1
 71
     1
  0
GROUP
  5
7AFA0
102
{ACAD_REACTORS
330
D
102
}
330
D
100
AcDbGroup
300

 70
     1
 71
     1
  0
GROUP
  5
1862A
102
{ACAD_REACTORS
330
D
102
}
330
D
100
AcDbGroup
300

 70
     1
 71
     1
  0
GROUP
  5
60B69
102
{ACAD_REACTORS
330
D
102
}
330
D
100
AcDbGroup
300

 70
     1
 71
     1
  0
GROUP
  5
4230
102
{ACAD_REACTORS
330
D
102
}
330
D
100
AcDbGroup
300

 70
     1
 71
     1
  0
GROUP
  5
1358A
102
{ACAD_REACTORS
330
D
102
}
330
D
100
AcDbGroup
300

 70
     1
 71
     1
  0
GROUP
  5
47785
102
{ACAD_REACTORS
330
D
102
}
330
D
100
AcDbGroup
300

 70
     1
 71
     1
  0
GROUP
  5
4A1B1
102
{ACAD_REACTORS
330
D
102
}
330
D
100
AcDbGroup
300

 70
     1
 71
     1
  0
GROUP
  5
70793
102
{ACAD_REACTORS
330
D
102
}
330
D
100
AcDbGroup
300

 70
     1
 71
     1
  0
GROUP
  5
75E60
102
{ACAD_REACTORS
330
D
102
}
330
D
100
AcDbGroup
300

 70
     1
 71
     1
  0
GROUP
  5
78CDF
102
{ACAD_REACTORS
330
D
102
}
330
D
100
AcDbGroup
300

 70
     1
 71
     1
  0
GROUP
  5
78CE1
102
{ACAD_REACTORS
330
D
102
}
330
D
100
AcDbGroup
300

 70
     1
 71
     1
  0
GROUP
  5
49AD6
102
{ACAD_REACTORS
330
D
102
}
330
D
100
AcDbGroup
300

 70
     1
 71
     1
  0
GROUP
  5
5ED98
102
{ACAD_REACTORS
330
D
102
}
330
D
100
AcDbGroup
300

 70
     1
 71
     1
  0
GROUP
  5
47786
102
{ACAD_REACTORS
330
D
102
}
330
D
100
AcDbGroup
300

 70
     1
 71
     1
  0
GROUP
  5
6CC3E
102
{ACAD_REACTORS
330
D
102
}
330
D
100
AcDbGroup
300

 70
     1
 71
     1
  0
GROUP
  5
7AFA5
102
{ACAD_REACTORS
330
D
102
}
330
D
100
AcDbGroup
300

 70
     1
 71
     1
  0
GROUP
  5
77C43
102
{ACAD_REACTORS
330
D
102
}
330
D
100
AcDbGroup
300

 70
     1
 71
     1
  0
GROUP
  5
3C464
102
{ACAD_REACTORS
330
D
102
}
330
D
100
AcDbGroup
300

 70
     1
 71
     1
  0
GROUP
  5
7BC31
102
{ACAD_REACTORS
330
D
102
}
330
D
100
AcDbGroup
300

 70
     1
 71
     1
  0
GROUP
  5
7E760
102
{ACAD_REACTORS
330
D
102
}
330
D
100
AcDbGroup
300

 70
     1
 71
     1
  0
GROUP
  5
7DDCF
102
{ACAD_REACTORS
330
D
102
}
330
D
100
AcDbGroup
300

 70
     1
 71
     1
  0
GROUP
  5
13587
102
{ACAD_REACTORS
330
D
102
}
330
D
100
AcDbGroup
300

 70
     1
 71
     1
  0
GROUP
  5
734D3
102
{ACAD_REACTORS
330
D
102
}
330
D
100
AcDbGroup
300

 70
     1
 71
     1
  0
GROUP
  5
7BAB7
102
{ACAD_REACTORS
330
D
102
}
330
D
100
AcDbGroup
300

 70
     1
 71
     1
  0
GROUP
  5
5CBAD
102
{ACAD_REACTORS
330
D
102
}
330
D
100
AcDbGroup
300

 70
     1
 71
     1
  0
GROUP
  5
6CBF4
102
{ACAD_REACTORS
330
D
102
}
330
D
100
AcDbGroup
300

 70
     1
 71
     1
  0
GROUP
  5
62130
102
{ACAD_REACTORS
330
D
102
}
330
D
100
AcDbGroup
300

 70
     1
 71
     1
  0
GROUP
  5
7AFA7
102
{ACAD_REACTORS
330
D
102
}
330
D
100
AcDbGroup
300

 70
     1
 71
     1
  0
GROUP
  5
5EE02
102
{ACAD_REACTORS
330
D
102
}
330
D
100
AcDbGroup
300

 70
     1
 71
     1
  0
GROUP
  5
3CA72
102
{ACAD_REACTORS
330
D
102
}
330
D
100
AcDbGroup
300

 70
     1
 71
     1
  0
GROUP
  5
5C32C
102
{ACAD_REACTORS
330
D
102
}
330
D
100
AcDbGroup
300

 70
     1
 71
     1
  0
GROUP
  5
13588
102
{ACAD_REACTORS
330
D
102
}
330
D
100
AcDbGroup
300

 70
     1
 71
     1
  0
GROUP
  5
1901
102
{ACAD_REACTORS
330
D
102
}
330
D
100
AcDbGroup
300

 70
     1
 71
     1
  0
GROUP
  5
7DDCD
102
{ACAD_REACTORS
330
D
102
}
330
D
100
AcDbGroup
300

 70
     1
 71
     1
  0
GROUP
  5
82363
102
{ACAD_REACTORS
330
D
102
}
330
D
100
AcDbGroup
300

 70
     1
 71
     1
  0
GROUP
  5
49AD5
102
{ACAD_REACTORS
330
D
102
}
330
D
100
AcDbGroup
300

 70
     1
 71
     1
  0
GROUP
  5
7BAB5
102
{ACAD_REACTORS
330
D
102
}
330
D
100
AcDbGroup
300

 70
     1
 71
     1
  0
GROUP
  5
4764C
102
{ACAD_REACTORS
330
D
102
}
330
D
100
AcDbGroup
300

 70
     1
 71
     1
  0
GROUP
  5
61FA3
102
{ACAD_REACTORS
330
D
102
}
330
D
100
AcDbGroup
300

 70
     1
 71
     1
  0
GROUP
  5
5CB38
102
{ACAD_REACTORS
330
D
102
}
330
D
100
AcDbGroup
300

 70
     1
 71
     1
  0
GROUP
  5
5CBC8
102
{ACAD_REACTORS
330
D
102
}
330
D
100
AcDbGroup
300

 70
     1
 71
     1
  0
GROUP
  5
5BF4F
102
{ACAD_REACTORS
330
D
102
}
330
D
100
AcDbGroup
300

 70
     1
 71
     1
  0
GROUP
  5
7459B
102
{ACAD_REACTORS
330
D
102
}
330
D
100
AcDbGroup
300

 70
     1
 71
     1
  0
GROUP
  5
5C131
102
{ACAD_REACTORS
330
D
102
}
330
D
100
AcDbGroup
300

 70
     1
 71
     1
  0
GROUP
  5
1859B
102
{ACAD_REACTORS
330
D
102
}
330
D
100
AcDbGroup
300

 70
     1
 71
     1
  0
GROUP
  5
7DDCA
102
{ACAD_REACTORS
330
D
102
}
330
D
100
AcDbGroup
300

 70
     1
 71
     1
  0
GROUP
  5
F059
102
{ACAD_REACTORS
330
D
102
}
330
D
100
AcDbGroup
300

 70
     1
 71
     1
  0
GROUP
  5
13585
102
{ACAD_REACTORS
330
D
102
}
330
D
100
AcDbGroup
300

 70
     1
 71
     1
  0
GROUP
  5
475D2
102
{ACAD_REACTORS
330
D
102
}
330
D
100
AcDbGroup
300

 70
     1
 71
     1
  0
GROUP
  5
7AFA8
102
{ACAD_REACTORS
330
D
102
}
330
D
100
AcDbGroup
300

 70
     1
 71
     1
  0
GROUP
  5
7DDD0
102
{ACAD_REACTORS
330
D
102
}
330
D
100
AcDbGroup
300

 70
     1
 71
     1
  0
GROUP
  5
499A6
102
{ACAD_REACTORS
330
D
102
}
330
D
100
AcDbGroup
300

 70
     1
 71
     1
  0
GROUP
  5
3288D
102
{ACAD_REACTORS
330
D
102
}
330
D
100
AcDbGroup
300

 70
     1
 71
     1
  0
GROUP
  5
18587
102
{ACAD_REACTORS
330
D
102
}
330
D
100
AcDbGroup
300

 70
     1
 71
     1
  0
GROUP
  5
75B78
102
{ACAD_REACTORS
330
D
102
}
330
D
100
AcDbGroup
300

 70
     1
 71
     1
  0
GROUP
  5
13586
102
{ACAD_REACTORS
330
D
102
}
330
D
100
AcDbGroup
300

 70
     1
 71
     1
  0
GROUP
  5
17DF
102
{ACAD_REACTORS
330
D
102
}
330
D
100
AcDbGroup
300

 70
     1
 71
     1
  0
GROUP
  5
15415
102
{ACAD_REACTORS
330
D
102
}
330
D
100
AcDbGroup
300

 70
     1
 71
     1
  0
GROUP
  5
157B7
102
{ACAD_REACTORS
330
D
102
}
330
D
100
AcDbGroup
300

 70
     1
 71
     1
  0
GROUP
  5
5CBAC
102
{ACAD_REACTORS
330
D
102
}
330
D
100
AcDbGroup
300

 70
     1
 71
     1
  0
GROUP
  5
8130
102
{ACAD_REACTORS
330
D
102
}
330
D
100
AcDbGroup
300

 70
     1
 71
     1
  0
GROUP
  5
7BB70
102
{ACAD_REACTORS
330
D
102
}
330
D
100
AcDbGroup
300

 70
     1
 71
     1
  0
GROUP
  5
3268C
102
{ACAD_REACTORS
330
D
102
}
330
D
100
AcDbGroup
300

 70
     1
 71
     1
  0
GROUP
  5
5CAE8
102
{ACAD_REACTORS
330
D
102
}
330
D
100
AcDbGroup
300

 70
     1
 71
     1
  0
GROUP
  5
3C462
102
{ACAD_REACTORS
330
D
102
}
330
D
100
AcDbGroup
300

 70
     1
 71
     1
  0
GROUP
  5
17DE
102
{ACAD_REACTORS
330
D
102
}
330
D
100
AcDbGroup
300

 70
     1
 71
     1
  0
GROUP
  5
82362
102
{ACAD_REACTORS
330
D
102
}
330
D
100
AcDbGroup
300

 70
     1
 71
     1
  0
GROUP
  5
3596C
102
{ACAD_REACTORS
330
D
102
}
330
D
100
AcDbGroup
300

 70
     1
 71
     1
  0
GROUP
  5
5CBB4
102
{ACAD_REACTORS
330
D
102
}
330
D
100
AcDbGroup
300

 70
     1
 71
     1
  0
GROUP
  5
3C463
102
{ACAD_REACTORS
330
D
102
}
330
D
100
AcDbGroup
300

 70
     1
 71
     1
  0
GROUP
  5
32B0D
102
{ACAD_REACTORS
330
D
102
}
330
D
100
AcDbGroup
300

 70
     1
 71
     1
  0
GROUP
  5
1945
102
{ACAD_REACTORS
330
D
102
}
330
D
100
AcDbGroup
300

 70
     1
 71
     1
  0
GROUP
  5
47787
102
{ACAD_REACTORS
330
D
102
}
330
D
100
AcDbGroup
300

 70
     1
 71
     1
  0
GROUP
  5
88AB7
102
{ACAD_REACTORS
330
D
102
}
330
D
100
AcDbGroup
300

 70
     1
 71
     1
  0
GROUP
  5
2F170
102
{ACAD_REACTORS
330
D
102
}
330
D
100
AcDbGroup
300

 70
     1
 71
     1
  0
GROUP
  5
7DDD1
102
{ACAD_REACTORS
330
D
102
}
330
D
100
AcDbGroup
300

 70
     1
 71
     1
  0
GROUP
  5
7DDD2
102
{ACAD_REACTORS
330
D
102
}
330
D
100
AcDbGroup
300

 70
     1
 71
     1
  0
GROUP
  5
70792
102
{ACAD_REACTORS
330
D
102
}
330
D
100
AcDbGroup
300

 70
     1
 71
     1
  0
GROUP
  5
13584
102
{ACAD_REACTORS
330
D
102
}
330
D
100
AcDbGroup
300

 70
     1
 71
     1
  0
GROUP
  5
49C02
102
{ACAD_REACTORS
330
D
102
}
330
D
100
AcDbGroup
300

 70
     1
 71
     1
  0
GROUP
  5
47788
102
{ACAD_REACTORS
330
D
102
}
330
D
100
AcDbGroup
300

 70
     1
 71
     1
  0
GROUP
  5
3596E
102
{ACAD_REACTORS
330
D
102
}
330
D
100
AcDbGroup
300

 70
     1
 71
     1
  0
GROUP
  5
7AFA3
102
{ACAD_REACTORS
330
D
102
}
330
D
100
AcDbGroup
300

 70
     1
 71
     1
  0
GROUP
  5
7BAC9
102
{ACAD_REACTORS
330
D
102
}
330
D
100
AcDbGroup
300

 70
     1
 71
     1
  0
GROUP
  5
32A84
102
{ACAD_REACTORS
330
D
102
}
330
D
100
AcDbGroup
300

 70
     1
 71
     1
  0
GROUP
  5
334BE
102
{ACAD_REACTORS
330
D
102
}
330
D
100
AcDbGroup
300

 70
     1
 71
     1
  0
GROUP
  5
1861D
102
{ACAD_REACTORS
330
D
102
}
330
D
100
AcDbGroup
300

 70
     1
 71
     1
  0
GROUP
  5
1AFD
102
{ACAD_REACTORS
330
D
102
}
330
D
100
AcDbGroup
300

 70
     1
 71
     1
  0
GROUP
  5
77C44
102
{ACAD_REACTORS
330
D
102
}
330
D
100
AcDbGroup
300

 70
     1
 71
     1
  0
GROUP
  5
4A0B5
102
{ACAD_REACTORS
330
D
102
}
330
D
100
AcDbGroup
300

 70
     1
 71
     1
  0
GROUP
  5
7459D
102
{ACAD_REACTORS
330
D
102
}
330
D
100
AcDbGroup
300

 70
     1
 71
     1
  0
GROUP
  5
6C310
102
{ACAD_REACTORS
330
D
102
}
330
D
100
AcDbGroup
300

 70
     1
 71
     1
  0
GROUP
  5
7DDD3
102
{ACAD_REACTORS
330
D
102
}
330
D
100
AcDbGroup
300

 70
     1
 71
     1
  0
GROUP
  5
2F172
102
{ACAD_REACTORS
330
D
102
}
330
D
100
AcDbGroup
300

 70
     1
 71
     1
  0
GROUP
  5
3C48F
102
{ACAD_REACTORS
330
D
102
}
330
D
100
AcDbGroup
300

 70
     1
 71
     1
  0
GROUP
  5
7AFA9
102
{ACAD_REACTORS
330
D
102
}
330
D
100
AcDbGroup
300

 70
     1
 71
     1
  0
GROUP
  5
49D66
102
{ACAD_REACTORS
330
D
102
}
330
D
100
AcDbGroup
300

 70
     1
 71
     1
  0
GROUP
  5
23EEC
102
{ACAD_REACTORS
330
D
102
}
330
D
100
AcDbGroup
300

 70
     0
 71
     1
  0
GROUP
  5
5CAC5
102
{ACAD_REACTORS
330
D
102
}
330
D
100
AcDbGroup
300

 70
     1
 71
     1
  0
GROUP
  5
2F1BB
102
{ACAD_REACTORS
330
D
102
}
330
D
100
AcDbGroup
300

 70
     1
 71
     1
  0
GROUP
  5
32A83
102
{ACAD_REACTORS
330
D
102
}
330
D
100
AcDbGroup
300

 70
     1
 71
     1
  0
GROUP
  5
7DDD5
102
{ACAD_REACTORS
330
D
102
}
330
D
100
AcDbGroup
300

 70
     1
 71
     1
  0
GROUP
  5
6CBE3
102
{ACAD_REACTORS
330
D
102
}
330
D
100
AcDbGroup
300

 70
     1
 71
     1
  0
GROUP
  5
7B9C0
102
{ACAD_REACTORS
330
D
102
}
330
D
100
AcDbGroup
300

 70
     1
 71
     1
  0
GROUP
  5
7B9B6
102
{ACAD_REACTORS
330
D
102
}
330
D
100
AcDbGroup
300

 70
     1
 71
     1
  0
GROUP
  5
15B15
102
{ACAD_REACTORS
330
D
102
}
330
D
100
AcDbGroup
300

 70
     1
 71
     1
  0
GROUP
  5
7563A
102
{ACAD_REACTORS
330
D
102
}
330
D
100
AcDbGroup
300

 70
     1
 71
     1
  0
GROUP
  5
8115
102
{ACAD_REACTORS
330
D
102
}
330
D
100
AcDbGroup
300

 70
     1
 71
     1
  0
GROUP
  5
157B8
102
{ACAD_REACTORS
330
D
102
}
330
D
100
AcDbGroup
300

 70
     1
 71
     1
  0
GROUP
  5
7AFAB
102
{ACAD_REACTORS
330
D
102
}
330
D
100
AcDbGroup
300

 70
     1
 71
     1
  0
GROUP
  5
8015
102
{ACAD_REACTORS
330
D
102
}
330
D
100
AcDbGroup
300

 70
     1
 71
     1
  0
GROUP
  5
7459E
102
{ACAD_REACTORS
330
D
102
}
330
D
100
AcDbGroup
300

 70
     1
 71
     1
  0
GROUP
  5
13CA
102
{ACAD_REACTORS
330
D
102
}
330
D
100
AcDbGroup
300

 70
     1
 71
     1
  0
GROUP
  5
77C42
102
{ACAD_REACTORS
330
D
102
}
330
D
100
AcDbGroup
300

 70
     1
 71
     1
  0
GROUP
  5
7078E
102
{ACAD_REACTORS
330
D
102
}
330
D
100
AcDbGroup
300

 70
     1
 71
     1
  0
GROUP
  5
E21F
102
{ACAD_REACTORS
330
D
102
}
330
D
100
AcDbGroup
300

 70
     1
 71
     1
  0
GROUP
  5
7DDD4
102
{ACAD_REACTORS
330
D
102
}
330
D
100
AcDbGroup
300

 70
     1
 71
     1
  0
GROUP
  5
7078F
102
{ACAD_REACTORS
330
D
102
}
330
D
100
AcDbGroup
300

 70
     1
 71
     1
  0
GROUP
  5
7DDD7
102
{ACAD_REACTORS
330
D
102
}
330
D
100
AcDbGroup
300

 70
     1
 71
     1
  0
GROUP
  5
7332A
102
{ACAD_REACTORS
330
D
102
}
330
D
100
AcDbGroup
300

 70
     1
 71
     1
  0
GROUP
  5
334BF
102
{ACAD_REACTORS
330
D
102
}
330
D
100
AcDbGroup
300

 70
     1
 71
     1
  0
GROUP
  5
70790
102
{ACAD_REACTORS
330
D
102
}
330
D
100
AcDbGroup
300

 70
     1
 71
     1
  0
GROUP
  5
85AD2
102
{ACAD_REACTORS
330
D
102
}
330
D
100
AcDbGroup
300

 70
     1
 71
     1
  0
GROUP
  5
75BE8
102
{ACAD_REACTORS
330
D
102
}
330
D
100
AcDbGroup
300

 70
     1
 71
     1
  0
GROUP
  5
ED21
102
{ACAD_REACTORS
330
D
102
}
330
D
100
AcDbGroup
300

 70
     1
 71
     1
  0
GROUP
  5
1883D
102
{ACAD_REACTORS
330
D
102
}
330
D
100
AcDbGroup
300

 70
     1
 71
     1
  0
GROUP
  5
32B1A
102
{ACAD_REACTORS
330
D
102
}
330
D
100
AcDbGroup
300

 70
     1
 71
     1
  0
GROUP
  5
32B14
102
{ACAD_REACTORS
330
D
102
}
330
D
100
AcDbGroup
300

 70
     1
 71
     1
  0
GROUP
  5
475D3
102
{ACAD_REACTORS
330
D
102
}
330
D
100
AcDbGroup
300

 70
     1
 71
     1
  0
GROUP
  5
3288F
102
{ACAD_REACTORS
330
D
102
}
330
D
100
AcDbGroup
300

 70
     1
 71
     1
  0
GROUP
  5
15416
102
{ACAD_REACTORS
330
D
102
}
330
D
100
AcDbGroup
300

 70
     1
 71
     1
  0
GROUP
  5
73460
102
{ACAD_REACTORS
330
D
102
}
330
D
100
AcDbGroup
300

 70
     1
 71
     1
  0
GROUP
  5
707AD
102
{ACAD_REACTORS
330
D
102
}
330
D
100
AcDbGroup
300

 70
     1
 71
     1
  0
GROUP
  5
3268D
102
{ACAD_REACTORS
330
D
102
}
330
D
100
AcDbGroup
300

 70
     1
 71
     1
  0
GROUP
  5
7DDC9
102
{ACAD_REACTORS
330
D
102
}
330
D
100
AcDbGroup
300

 70
     1
 71
     1
  0
GROUP
  5
1861E
102
{ACAD_REACTORS
330
D
102
}
330
D
100
AcDbGroup
300

 70
     1
 71
     1
  0
GROUP
  5
7BB71
102
{ACAD_REACTORS
330
D
102
}
330
D
100
AcDbGroup
300

 70
     1
 71
     1
  0
GROUP
  5
60B5E
102
{ACAD_REACTORS
330
D
102
}
330
D
100
AcDbGroup
300

 70
     1
 71
     1
  0
GROUP
  5
61DF0
102
{ACAD_REACTORS
330
D
102
}
330
D
100
AcDbGroup
300

 70
     1
 71
     1
  0
GROUP
  5
7563B
102
{ACAD_REACTORS
330
D
102
}
330
D
100
AcDbGroup
300

 70
     1
 71
     1
  0
GROUP
  5
5CAE9
102
{ACAD_REACTORS
330
D
102
}
330
D
100
AcDbGroup
300

 70
     1
 71
     1
  0
GROUP
  5
82364
102
{ACAD_REACTORS
330
D
102
}
330
D
100
AcDbGroup
300

 70
     1
 71
     1
  0
GROUP
  5
5C07B
102
{ACAD_REACTORS
330
D
102
}
330
D
100
AcDbGroup
300

 70
     1
 71
     1
  0
GROUP
  5
4CB96
102
{ACAD_REACTORS
330
D
102
}
330
D
100
AcDbGroup
300

 70
     1
 71
     1
  0
GROUP
  5
7DDCB
102
{ACAD_REACTORS
330
D
102
}
330
D
100
AcDbGroup
300

 70
     1
 71
     1
  0
GROUP
  5
49A73
102
{ACAD_REACTORS
330
D
102
}
330
D
100
AcDbGroup
300

 70
     1
 71
     1
  0
GROUP
  5
49C03
102
{ACAD_REACTORS
330
D
102
}
330
D
100
AcDbGroup
300

 70
     1
 71
     1
  0
GROUP
  5
85AD3
102
{ACAD_REACTORS
330
D
102
}
330
D
100
AcDbGroup
300

 70
     1
 71
     1
  0
GROUP
  5
498A7
102
{ACAD_REACTORS
330
D
102
}
330
D
100
AcDbGroup
300

 70
     1
 71
     1
  0
GROUP
  5
7DDD6
102
{ACAD_REACTORS
330
D
102
}
330
D
100
AcDbGroup
300

 70
     1
 71
     1
  0
GROUP
  5
78CE0
102
{ACAD_REACTORS
330
D
102
}
330
D
100
AcDbGroup
300

 70
     1
 71
     1
  0
GROUP
  5
32A19
102
{ACAD_REACTORS
330
D
102
}
330
D
100
AcDbGroup
300

 70
     1
 71
     1
  0
GROUP
  5
757B0
102
{ACAD_REACTORS
330
D
102
}
330
D
100
AcDbGroup
300

 70
     1
 71
     1
  0
GROUP
  5
F05A
102
{ACAD_REACTORS
330
D
102
}
330
D
100
AcDbGroup
300

 70
     1
 71
     1
  0
GROUP
  5
3C490
102
{ACAD_REACTORS
330
D
102
}
330
D
100
AcDbGroup
300

 70
     1
 71
     1
  0
GROUP
  5
7AFA6
102
{ACAD_REACTORS
330
D
102
}
330
D
100
AcDbGroup
300

 70
     1
 71
     1
  0
GROUP
  5
4CBAD
102
{ACAD_REACTORS
330
D
102
}
330
D
100
AcDbGroup
300

 70
     1
 71
     1
  0
GROUP
  5
60B43
102
{ACAD_REACTORS
330
D
102
}
330
D
100
AcDbGroup
300

 70
     1
 71
     1
  0
GROUP
  5
1AF0
102
{ACAD_REACTORS
330
D
102
}
330
D
100
AcDbGroup
300

 70
     1
 71
     1
  0
GROUP
  5
7F085
102
{ACAD_REACTORS
330
D
102
}
330
D
100
AcDbGroup
300

 70
     1
 71
     1
  0
GROUP
  5
2F1D7
102
{ACAD_REACTORS
330
D
102
}
330
D
100
AcDbGroup
300

 70
     1
 71
     1
  0
GROUP
  5
707BF
102
{ACAD_REACTORS
330
D
102
}
330
D
100
AcDbGroup
300

 70
     1
 71
     1
  0
GROUP
  5
61DF1
102
{ACAD_REACTORS
330
D
102
}
330
D
100
AcDbGroup
300

 70
     1
 71
     1
  0
GROUP
  5
15418
102
{ACAD_REACTORS
330
D
102
}
330
D
100
AcDbGroup
300

 70
     1
 71
     1
  0
GROUP
  5
60B7F
102
{ACAD_REACTORS
330
D
102
}
330
D
100
AcDbGroup
300

 70
     1
 71
     1
  0
GROUP
  5
49C01
102
{ACAD_REACTORS
330
D
102
}
330
D
100
AcDbGroup
300

 70
     1
 71
     1
  0
GROUP
  5
7DDCE
102
{ACAD_REACTORS
330
D
102
}
330
D
100
AcDbGroup
300

 70
     1
 71
     1
  0
GROUP
  5
5E8EB
102
{ACAD_REACTORS
330
D
102
}
330
D
100
AcDbGroup
300

 70
     1
 71
     1
  0
GROUP
  5
70794
102
{ACAD_REACTORS
330
D
102
}
330
D
100
AcDbGroup
300

 70
     1
 71
     1
  0
GROUP
  5
885D0
102
{ACAD_REACTORS
330
D
102
}
330
D
100
AcDbGroup
300

 70
     1
 71
     1
  0
GROUP
  5
8768A
102
{ACAD_REACTORS
330
D
102
}
330
D
100
AcDbGroup
300

 70
     1
 71
     1
  0
GROUP
  5
8768B
102
{ACAD_REACTORS
330
D
102
}
330
D
100
AcDbGroup
300

 70
     1
 71
     1
  0
GROUP
  5
70791
102
{ACAD_REACTORS
330
D
102
}
330
D
100
AcDbGroup
300

 70
     1
 71
     1
  0
GROUP
  5
47665
102
{ACAD_REACTORS
330
D
102
}
330
D
100
AcDbGroup
300

 70
     1
 71
     1
  0
GROUP
  5
8768C
102
{ACAD_REACTORS
330
D
102
}
330
D
100
AcDbGroup
300

 70
     1
 71
     1
  0
GROUP
  5
9040
102
{ACAD_REACTORS
330
D
102
}
330
D
100
AcDbGroup
300

 70
     1
 71
     1
  0
GROUP
  5
135C2
102
{ACAD_REACTORS
330
D
102
}
330
D
100
AcDbGroup
300

 70
     1
 71
     1
  0
GROUP
  5
49FC6
102
{ACAD_REACTORS
330
D
102
}
330
D
100
AcDbGroup
300

 70
     1
 71
     1
  0
GROUP
  5
3596D
102
{ACAD_REACTORS
330
D
102
}
330
D
100
AcDbGroup
300

 70
     1
 71
     1
  0
GROUP
  5
32A18
102
{ACAD_REACTORS
330
D
102
}
330
D
100
AcDbGroup
300

 70
     1
 71
     1
  0
GROUP
  5
60B74
102
{ACAD_REACTORS
330
D
102
}
330
D
100
AcDbGroup
300

 70
     1
 71
     1
  0
GROUP
  5
3268B
102
{ACAD_REACTORS
330
D
102
}
330
D
100
AcDbGroup
300

 70
     1
 71
     1
  0
GROUP
  5
7BAB6
102
{ACAD_REACTORS
330
D
102
}
330
D
100
AcDbGroup
300

 70
     1
 71
     1
  0
GROUP
  5
7B9BC
102
{ACAD_REACTORS
330
D
102
}
330
D
100
AcDbGroup
300

 70
     1
 71
     1
  0
GROUP
  5
5C30C
102
{ACAD_REACTORS
330
D
102
}
330
D
100
AcDbGroup
300

 70
     1
 71
     1
  0
GROUP
  5
1858A
102
{ACAD_REACTORS
330
D
102
}
330
D
100
AcDbGroup
300

 70
     1
 71
     1
  0
GROUP
  5
80ED
102
{ACAD_REACTORS
330
D
102
}
330
D
100
AcDbGroup
300

 70
     1
 71
     1
  0
GROUP
  5
4A1B0
102
{ACAD_REACTORS
330
D
102
}
330
D
100
AcDbGroup
300

 70
     1
 71
     1
  0
GROUP
  5
78CDE
102
{ACAD_REACTORS
330
D
102
}
330
D
100
AcDbGroup
300

 70
     1
 71
     1
  0
LAYOUT
  5
355
102
{ACAD_REACTORS
330
353
102
}
330
353
100
AcDbPlotSettings
  1

  2
JUST PDF 2
  4
A4
  6

 40
3.174999952316284
 41
3.174999952316284
 42
3.175003051757812
 43
3.17498779296875
 44
209.8886566162109
 45
297.0530090332031
 46
14.27171755861548
 47
9.855173074625782
 48
1580.206988746161
 49
-4152.423350342624
140
1755.202207241067
141
-3881.430675203957
142
1.0
143
1.0
 70
  3748
 72
     1
 73
     0
 74
     4
  7
spax form.ctb
 75
     0
147
1.072733870534196
148
-1580.206988746161
149
4152.423350342624
100
AcDbLayout
  1
Model
 70
     1
 71
     0
 10
0.0
 20
0.0
 11
12.0
 21
9.0
 12
0.0
 22
0.0
 32
0.0
 14
1587.511362050397
 24
-3941.723764377253
 34
0.0
 15
1610.511362050397
 25
-3908.116782215828
 35
0.0
146
0.0
 13
0.0
 23
0.0
 33
0.0
 16
1.0
 26
0.0
 36
0.0
 17
0.0
 27
1.0
 37
0.0
 76
     0
330
18
331
880DC
1001
ACAD_PSEXT
1000
JUST PDF 2
1000
JUST PDF 2
1000
JUST PDF 2 Port:
1000

1070
     0
  0
LAYOUT
  5
356
102
{ACAD_REACTORS
330
353
102
}
330
353
100
AcDbPlotSettings
  1

  2
Canon LASER SHOT LBP-750
  4

  6

 40
0.0
 41
0.0
 42
0.0
 43
0.0
 44
0.0
 45
0.0
 46
0.0
 47
0.0
 48
0.0
 49
0.0
140
0.0
141
0.0
142
1.0
143
1.0
 70
   688
 72
     0
 73
     0
 74
     5
  7
spax form.ctb
 75
    16
147
1.0
148
0.0
149
0.0
100
AcDbLayout
  1
ﾚｲｱｳﾄ1
 70
     0
 71
     1
 10
0.0
 20
0.0
 11
12.0
 21
9.0
 12
0.0
 22
0.0
 32
0.0
 14
1.000000000000000E+20
 24
1.000000000000000E+20
 34
1.000000000000000E+20
 15
-1.000000000000000E+20
 25
-1.000000000000000E+20
 35
-1.000000000000000E+20
146
0.0
 13
0.0
 23
0.0
 33
0.0
 16
1.0
 26
0.0
 36
0.0
 17
0.0
 27
1.0
 37
0.0
 76
     0
330
15
  0
MLINESTYLE
  5
1B
102
{ACAD_REACTORS
330
E
102
}
330
E
100
AcDbMlineStyle
  2
STANDARD
 70
     0
  3

 62
     0
 51
90.0
 52
90.0
 71
     2
 49
0.5
 62
   256
  6
BYLAYER
 49
-0.5
 62
   256
  6
BYLAYER
  0
ACDBPLACEHOLDER
  5
352
102
{ACAD_REACTORS
330
351
102
}
330
351
  0
SCALE
  5
7C5DF
102
{ACAD_REACTORS
330
7C5DE
102
}
330
7C5DE
100
AcDbScale
 70
     0
300
1:1
140
1.0
141
1.0
290
     1
1001
ACAD
1000
AcRTDxfName
1000
SCALE
1000
AcRTDxfName
1000
SCALE
  0
SCALE
  5
7C5E0
102
{ACAD_REACTORS
330
7C5DE
102
}
330
7C5DE
100
AcDbScale
 70
     0
300
1:2
140
1.0
141
2.0
290
     0
1001
ACAD
1000
AcRTDxfName
1000
SCALE
1000
AcRTDxfName
1000
SCALE
  0
SCALE
  5
7C5E1
102
{ACAD_REACTORS
330
7C5DE
102
}
330
7C5DE
100
AcDbScale
 70
     0
300
1:4
140
1.0
141
4.0
290
     0
1001
ACAD
1000
AcRTDxfName
1000
SCALE
1000
AcRTDxfName
1000
SCALE
  0
SCALE
  5
7C5E2
102
{ACAD_REACTORS
330
7C5DE
102
}
330
7C5DE
100
AcDbScale
 70
     0
300
1:5
140
1.0
141
5.0
290
     0
1001
ACAD
1000
AcRTDxfName
1000
SCALE
1000
AcRTDxfName
1000
SCALE
  0
SCALE
  5
7C5E3
102
{ACAD_REACTORS
330
7C5DE
102
}
330
7C5DE
100
AcDbScale
 70
     0
300
1:8
140
1.0
141
8.0
290
     0
1001
ACAD
1000
AcRTDxfName
1000
SCALE
1000
AcRTDxfName
1000
SCALE
  0
SCALE
  5
7C5E4
102
{ACAD_REACTORS
330
7C5DE
102
}
330
7C5DE
100
AcDbScale
 70
     0
300
1:10
140
1.0
141
10.0
290
     0
1001
ACAD
1000
AcRTDxfName
1000
SCALE
1000
AcRTDxfName
1000
SCALE
  0
SCALE
  5
7C5E5
102
{ACAD_REACTORS
330
7C5DE
102
}
330
7C5DE
100
AcDbScale
 70
     0
300
1:16
140
1.0
141
16.0
290
     0
1001
ACAD
1000
AcRTDxfName
1000
SCALE
1000
AcRTDxfName
1000
SCALE
  0
SCALE
  5
7C5E6
102
{ACAD_REACTORS
330
7C5DE
102
}
330
7C5DE
100
AcDbScale
 70
     0
300
1:20
140
1.0
141
20.0
290
     0
1001
ACAD
1000
AcRTDxfName
1000
SCALE
1000
AcRTDxfName
1000
SCALE
  0
SCALE
  5
7C5E7
102
{ACAD_REACTORS
330
7C5DE
102
}
330
7C5DE
100
AcDbScale
 70
     0
300
1:30
140
1.0
141
30.0
290
     0
1001
ACAD
1000
AcRTDxfName
1000
SCALE
1000
AcRTDxfName
1000
SCALE
  0
SCALE
  5
7C5E8
102
{ACAD_REACTORS
330
7C5DE
102
}
330
7C5DE
100
AcDbScale
 70
     0
300
1:40
140
1.0
141
40.0
290
     0
1001
ACAD
1000
AcRTDxfName
1000
SCALE
1000
AcRTDxfName
1000
SCALE
  0
SCALE
  5
7C5E9
102
{ACAD_REACTORS
330
7C5DE
102
}
330
7C5DE
100
AcDbScale
 70
     0
300
1:50
140
1.0
141
50.0
290
     0
1001
ACAD
1000
AcRTDxfName
1000
SCALE
1000
AcRTDxfName
1000
SCALE
  0
SCALE
  5
7C5EA
102
{ACAD_REACTORS
330
7C5DE
102
}
330
7C5DE
100
AcDbScale
 70
     0
300
1:100
140
1.0
141
100.0
290
     0
1001
ACAD
1000
AcRTDxfName
1000
SCALE
1000
AcRTDxfName
1000
SCALE
  0
SCALE
  5
7C5EB
102
{ACAD_REACTORS
330
7C5DE
102
}
330
7C5DE
100
AcDbScale
 70
     0
300
2:1
140
2.0
141
1.0
290
     0
1001
ACAD
1000
AcRTDxfName
1000
SCALE
1000
AcRTDxfName
1000
SCALE
  0
SCALE
  5
7C5EC
102
{ACAD_REACTORS
330
7C5DE
102
}
330
7C5DE
100
AcDbScale
 70
     0
300
4:1
140
4.0
141
1.0
290
     0
1001
ACAD
1000
AcRTDxfName
1000
SCALE
1000
AcRTDxfName
1000
SCALE
  0
SCALE
  5
7C5ED
102
{ACAD_REACTORS
330
7C5DE
102
}
330
7C5DE
100
AcDbScale
 70
     0
300
8:1
140
8.0
141
1.0
290
     0
1001
ACAD
1000
AcRTDxfName
1000
SCALE
1000
AcRTDxfName
1000
SCALE
  0
SCALE
  5
7C5EE
102
{ACAD_REACTORS
330
7C5DE
102
}
330
7C5DE
100
AcDbScale
 70
     0
300
10:1
140
10.0
141
1.0
290
     0
1001
ACAD
1000
AcRTDxfName
1000
SCALE
1000
AcRTDxfName
1000
SCALE
  0
SCALE
  5
7C5EF
102
{ACAD_REACTORS
330
7C5DE
102
}
330
7C5DE
100
AcDbScale
 70
     0
300
100:1
140
100.0
141
1.0
290
     0
1001
ACAD
1000
AcRTDxfName
1000
SCALE
1000
AcRTDxfName
1000
SCALE
  0
SCALE
  5
7C5F0
102
{ACAD_REACTORS
330
7C5DE
102
}
330
7C5DE
100
AcDbScale
 70
     0
300
1/128" = 1'-0"
140
0.0078125
141
12.0
290
     0
1001
ACAD
1000
AcRTDxfName
1000
SCALE
1000
AcRTDxfName
1000
SCALE
  0
SCALE
  5
7C5F1
102
{ACAD_REACTORS
330
7C5DE
102
}
330
7C5DE
100
AcDbScale
 70
     0
300
1/64" = 1'-0"
140
0.015625
141
12.0
290
     0
1001
ACAD
1000
AcRTDxfName
1000
SCALE
1000
AcRTDxfName
1000
SCALE
  0
SCALE
  5
7C5F2
102
{ACAD_REACTORS
330
7C5DE
102
}
330
7C5DE
100
AcDbScale
 70
     0
300
1/32" = 1'-0"
140
0.03125
141
12.0
290
     0
1001
ACAD
1000
AcRTDxfName
1000
SCALE
1000
AcRTDxfName
1000
SCALE
  0
SCALE
  5
7C5F3
102
{ACAD_REACTORS
330
7C5DE
102
}
330
7C5DE
100
AcDbScale
 70
     0
300
1/16" = 1'-0"
140
0.0625
141
12.0
290
     0
1001
ACAD
1000
AcRTDxfName
1000
SCALE
1000
AcRTDxfName
1000
SCALE
  0
SCALE
  5
7C5F4
102
{ACAD_REACTORS
330
7C5DE
102
}
330
7C5DE
100
AcDbScale
 70
     0
300
3/32" = 1'-0"
140
0.09375
141
12.0
290
     0
1001
ACAD
1000
AcRTDxfName
1000
SCALE
1000
AcRTDxfName
1000
SCALE
  0
SCALE
  5
7C5F5
102
{ACAD_REACTORS
330
7C5DE
102
}
330
7C5DE
100
AcDbScale
 70
     0
300
1/8" = 1'-0"
140
0.125
141
12.0
290
     0
1001
ACAD
1000
AcRTDxfName
1000
SCALE
1000
AcRTDxfName
1000
SCALE
  0
SCALE
  5
7C5F6
102
{ACAD_REACTORS
330
7C5DE
102
}
330
7C5DE
100
AcDbScale
 70
     0
300
3/16" = 1'-0"
140
0.1875
141
12.0
290
     0
1001
ACAD
1000
AcRTDxfName
1000
SCALE
1000
AcRTDxfName
1000
SCALE
  0
SCALE
  5
7C5F7
102
{ACAD_REACTORS
330
7C5DE
102
}
330
7C5DE
100
AcDbScale
 70
     0
300
1/4" = 1'-0"
140
0.25
141
12.0
290
     0
1001
ACAD
1000
AcRTDxfName
1000
SCALE
1000
AcRTDxfName
1000
SCALE
  0
SCALE
  5
7C5F8
102
{ACAD_REACTORS
330
7C5DE
102
}
330
7C5DE
100
AcDbScale
 70
     0
300
3/8" = 1'-0"
140
0.375
141
12.0
290
     0
1001
ACAD
1000
AcRTDxfName
1000
SCALE
1000
AcRTDxfName
1000
SCALE
  0
SCALE
  5
7C5F9
102
{ACAD_REACTORS
330
7C5DE
102
}
330
7C5DE
100
AcDbScale
 70
     0
300
1/2" = 1'-0"
140
0.5
141
12.0
290
     0
1001
ACAD
1000
AcRTDxfName
1000
SCALE
1000
AcRTDxfName
1000
SCALE
  0
SCALE
  5
7C5FA
102
{ACAD_REACTORS
330
7C5DE
102
}
330
7C5DE
100
AcDbScale
 70
     0
300
3/4" = 1'-0"
140
0.75
141
12.0
290
     0
1001
ACAD
1000
AcRTDxfName
1000
SCALE
1000
AcRTDxfName
1000
SCALE
  0
SCALE
  5
7C5FB
102
{ACAD_REACTORS
330
7C5DE
102
}
330
7C5DE
100
AcDbScale
 70
     0
300
1" = 1'-0"
140
1.0
141
12.0
290
     0
1001
ACAD
1000
AcRTDxfName
1000
SCALE
1000
AcRTDxfName
1000
SCALE
  0
SCALE
  5
7C5FC
102
{ACAD_REACTORS
330
7C5DE
102
}
330
7C5DE
100
AcDbScale
 70
     0
300
1-1/2" = 1'-0"
140
1.5
141
12.0
290
     0
1001
ACAD
1000
AcRTDxfName
1000
SCALE
1000
AcRTDxfName
1000
SCALE
  0
SCALE
  5
7C5FD
102
{ACAD_REACTORS
330
7C5DE
102
}
330
7C5DE
100
AcDbScale
 70
     0
300
3" = 1'-0"
140
3.0
141
12.0
290
     0
1001
ACAD
1000
AcRTDxfName
1000
SCALE
1000
AcRTDxfName
1000
SCALE
  0
SCALE
  5
7C5FE
102
{ACAD_REACTORS
330
7C5DE
102
}
330
7C5DE
100
AcDbScale
 70
     0
300
6" = 1'-0"
140
6.0
141
12.0
290
     0
1001
ACAD
1000
AcRTDxfName
1000
SCALE
1000
AcRTDxfName
1000
SCALE
  0
SCALE
  5
7C5FF
102
{ACAD_REACTORS
330
7C5DE
102
}
330
7C5DE
100
AcDbScale
 70
     0
300
1'-0" = 1'-0"
140
12.0
141
12.0
290
     0
1001
ACAD
1000
AcRTDxfName
1000
SCALE
1000
AcRTDxfName
1000
SCALE
  0
DICTIONARYVAR
  5
18B05
102
{ACAD_REACTORS
330
E12
102
}
330
E12
100
DictionaryVariables
280
     0
  1
1
  0
DICTIONARYVAR
  5
7C694
102
{ACAD_REACTORS
330
E12
102
}
330
E12
100
DictionaryVariables
280
     0
  1
0
  0
DICTIONARYVAR
  5
19B39
102
{ACAD_REACTORS
330
E12
102
}
330
E12
100
DictionaryVariables
280
     0
  1

  0
DICTIONARYVAR
  5
E13
102
{ACAD_REACTORS
330
E12
102
}
330
E12
100
DictionaryVariables
280
     0
  1
1
  0
ENDSEC
  0
EOF
