  0
SECTION
  2
HEADER
  9
$ACADVER
  1
AC1015
  9
$ACADMAINTVER
 70
     6
  9
$DWGCODEPAGE
  3
ANSI_932
  9
$INSBASE
 10
0.0
 20
0.0
 30
0.0
  9
$EXTMIN
 10
-14.85577996189491
 20
80.31406571780562
 30
0.0
  9
$EXTMAX
 10
198.6901908072881
 20
187.6784171351482
 30
0.0
  9
$LIMMIN
 10
0.0
 20
0.0
  9
$LIMMAX
 10
210.0
 20
297.0
  9
$ORTHOMODE
 70
     0
  9
$REGENMODE
 70
     1
  9
$FILLMODE
 70
     1
  9
$QTEXTMODE
 70
     0
  9
$MIRRTEXT
 70
     1
  9
$LTSCALE
 40
1.0
  9
$ATTMODE
 70
     1
  9
$TEXTSIZE
 40
3.5
  9
$TRACEWID
 40
1.0
  9
$TEXTSTYLE
  7
Standard
  9
$CLAYER
  8
0
  9
$CELTYPE
  6
ByLayer
  9
$CECOLOR
 62
   256
  9
$CELTSCALE
 40
1.0
  9
$DISPSILH
 70
     0
  9
$DIMSCALE
 40
1.0
  9
$DIMASZ
 40
3.302
  9
$DIMEXO
 40
1.0
  9
$DIMDLI
 40
3.75
  9
$DIMRND
 40
0.0
  9
$DIMDLE
 40
0.0
  9
$DIMEXE
 40
1.0
  9
$DIMTP
 40
0.0
  9
$DIMTM
 40
0.0
  9
$DIMTXT
 40
3.5
  9
$DIMCEN
 40
2.5
  9
$DIMTSZ
 40
0.0
  9
$DIMTOL
 70
     0
  9
$DIMLIM
 70
     0
  9
$DIMTIH
 70
     1
  9
$DIMTOH
 70
     1
  9
$DIMSE1
 70
     0
  9
$DIMSE2
 70
     0
  9
$DIMTAD
 70
     1
  9
$DIMZIN
 70
     0
  9
$DIMBLK
  1

  9
$DIMASO
 70
     1
  9
$DIMSHO
 70
     1
  9
$DIMPOST
  1

  9
$DIMAPOST
  1

  9
$DIMALT
 70
     0
  9
$DIMALTD
 70
     3
  9
$DIMALTF
 40
0.0393700787401575
  9
$DIMLFAC
 40
2.0
  9
$DIMTOFL
 70
     1
  9
$DIMTVP
 40
0.0
  9
$DIMTIX
 70
     0
  9
$DIMSOXD
 70
     0
  9
$DIMSAH
 70
     0
  9
$DIMBLK1
  1

  9
$DIMBLK2
  1

  9
$DIMSTYLE
  2
ISO-25
  9
$DIMCLRD
 70
     0
  9
$DIMCLRE
 70
     0
  9
$DIMCLRT
 70
     0
  9
$DIMTFAC
 40
1.0
  9
$DIMGAP
 40
1.524
  9
$DIMJUST
 70
     0
  9
$DIMSD1
 70
     0
  9
$DIMSD2
 70
     0
  9
$DIMTOLJ
 70
     0
  9
$DIMTZIN
 70
     0
  9
$DIMALTZ
 70
     0
  9
$DIMALTTZ
 70
     0
  9
$DIMUPT
 70
     0
  9
$DIMDEC
 70
     2
  9
$DIMTDEC
 70
     2
  9
$DIMALTU
 70
     2
  9
$DIMALTTD
 70
     3
  9
$DIMTXSTY
  7
Standard
  9
$DIMAUNIT
 70
     0
  9
$DIMADEC
 70
     2
  9
$DIMALTRND
 40
0.0
  9
$DIMAZIN
 70
     0
  9
$DIMDSEP
 70
    44
  9
$DIMATFIT
 70
     3
  9
$DIMFRAC
 70
     0
  9
$DIMLDRBLK
  1

  9
$DIMLUNIT
 70
     2
  9
$DIMLWD
 70
    -2
  9
$DIMLWE
 70
    -2
  9
$DIMTMOVE
 70
     0
  9
$LUNITS
 70
     2
  9
$LUPREC
 70
     2
  9
$SKETCHINC
 40
1.0
  9
$FILLETRAD
 40
10.0
  9
$AUNITS
 70
     0
  9
$AUPREC
 70
     2
  9
$MENU
  1
.
  9
$ELEVATION
 40
0.0
  9
$PELEVATION
 40
0.0
  9
$THICKNESS
 40
0.0
  9
$LIMCHECK
 70
     0
  9
$CHAMFERA
 40
0.0
  9
$CHAMFERB
 40
0.0
  9
$CHAMFERC
 40
0.0
  9
$CHAMFERD
 40
0.0
  9
$SKPOLY
 70
     0
  9
$TDCREATE
 40
2458025.90167044
  9
$TDUCREATE
 40
2458025.52667044
  9
$TDUPDATE
 40
2458673.556145845
  9
$TDUUPDATE
 40
2458673.181145845
  9
$TDINDWG
 40
0.0091655208
  9
$TDUSRTIMER
 40
0.0004034954
  9
$USRTIMER
 70
     1
  9
$ANGBASE
 50
0.0
  9
$ANGDIR
 70
     0
  9
$PDMODE
 70
     0
  9
$PDSIZE
 40
-1.0
  9
$PLINEWID
 40
0.0
  9
$SPLFRAME
 70
     0
  9
$SPLINETYPE
 70
     6
  9
$SPLINESEGS
 70
     8
  9
$HANDSEED
  5
1984
  9
$SURFTAB1
 70
     6
  9
$SURFTAB2
 70
     6
  9
$SURFTYPE
 70
     6
  9
$SURFU
 70
     6
  9
$SURFV
 70
     6
  9
$UCSBASE
  2

  9
$UCSNAME
  2

  9
$UCSORG
 10
0.0
 20
0.0
 30
0.0
  9
$UCSXDIR
 10
1.0
 20
0.0
 30
0.0
  9
$UCSYDIR
 10
0.0
 20
1.0
 30
0.0
  9
$UCSORTHOREF
  2

  9
$UCSORTHOVIEW
 70
     0
  9
$UCSORGTOP
 10
0.0
 20
0.0
 30
0.0
  9
$UCSORGBOTTOM
 10
0.0
 20
0.0
 30
0.0
  9
$UCSORGLEFT
 10
0.0
 20
0.0
 30
0.0
  9
$UCSORGRIGHT
 10
0.0
 20
0.0
 30
0.0
  9
$UCSORGFRONT
 10
0.0
 20
0.0
 30
0.0
  9
$UCSORGBACK
 10
0.0
 20
0.0
 30
0.0
  9
$PUCSBASE
  2

  9
$PUCSNAME
  2

  9
$PUCSORG
 10
0.0
 20
0.0
 30
0.0
  9
$PUCSXDIR
 10
1.0
 20
0.0
 30
0.0
  9
$PUCSYDIR
 10
0.0
 20
1.0
 30
0.0
  9
$PUCSORTHOREF
  2

  9
$PUCSORTHOVIEW
 70
     0
  9
$PUCSORGTOP
 10
0.0
 20
0.0
 30
0.0
  9
$PUCSORGBOTTOM
 10
0.0
 20
0.0
 30
0.0
  9
$PUCSORGLEFT
 10
0.0
 20
0.0
 30
0.0
  9
$PUCSORGRIGHT
 10
0.0
 20
0.0
 30
0.0
  9
$PUCSORGFRONT
 10
0.0
 20
0.0
 30
0.0
  9
$PUCSORGBACK
 10
0.0
 20
0.0
 30
0.0
  9
$USERI1
 70
     0
  9
$USERI2
 70
     0
  9
$USERI3
 70
     0
  9
$USERI4
 70
     0
  9
$USERI5
 70
     0
  9
$USERR1
 40
0.0
  9
$USERR2
 40
0.0
  9
$USERR3
 40
0.0
  9
$USERR4
 40
0.0
  9
$USERR5
 40
0.0
  9
$WORLDVIEW
 70
     1
  9
$SHADEDGE
 70
     3
  9
$SHADEDIF
 70
    70
  9
$TILEMODE
 70
     1
  9
$MAXACTVP
 70
    64
  9
$PINSBASE
 10
0.0
 20
0.0
 30
0.0
  9
$PLIMCHECK
 70
     0
  9
$PEXTMIN
 10
1.000000000000000E+20
 20
1.000000000000000E+20
 30
1.000000000000000E+20
  9
$PEXTMAX
 10
-1.000000000000000E+20
 20
-1.000000000000000E+20
 30
-1.000000000000000E+20
  9
$PLIMMIN
 10
0.0
 20
0.0
  9
$PLIMMAX
 10
0.0
 20
0.0
  9
$UNITMODE
 70
     0
  9
$VISRETAIN
 70
     1
  9
$PLINEGEN
 70
     0
  9
$PSLTSCALE
 70
     1
  9
$TREEDEPTH
 70
  3020
  9
$CMLSTYLE
  2
Standard
  9
$CMLJUST
 70
     0
  9
$CMLSCALE
 40
20.0
  9
$PROXYGRAPHICS
 70
     1
  9
$MEASUREMENT
 70
     1
  9
$CELWEIGHT
370
    -1
  9
$ENDCAPS
280
     0
  9
$JOINSTYLE
280
     0
  9
$LWDISPLAY
290
     1
  9
$INSUNITS
 70
     4
  9
$HYPERLINKBASE
  1

  9
$STYLESHEET
  1

  9
$XEDIT
290
     1
  9
$CEPSNTYPE
380
     0
  9
$PSTYLEMODE
290
     1
  9
$FINGERPRINTGUID
  2
{75375FFD-739C-48ED-822E-76A46AAE9E82}
  9
$VERSIONGUID
  2
{FAEB1C32-E019-11D5-929B-00C0DF256EC4}
  9
$EXTNAMES
290
     1
  9
$PSVPSCALE
 40
0.0
  9
$OLESTARTUP
290
     0
  0
ENDSEC
  0
SECTION
  2
CLASSES
  0
CLASS
  1
ACDBDICTIONARYWDFLT
  2
AcDbDictionaryWithDefault
  3
ObjectDBX Classes
 90
        0
280
     0
281
     0
  0
CLASS
  1
VISUALSTYLE
  2
AcDbVisualStyle
  3
ObjectDBX Classes
 90
     4095
280
     0
281
     0
  0
CLASS
  1
MATERIAL
  2
AcDbMaterial
  3
ObjectDBX Classes
 90
     1153
280
     0
281
     0
  0
CLASS
  1
SCALE
  2
AcDbScale
  3
ObjectDBX Classes
 90
     1153
280
     0
281
     0
  0
CLASS
  1
TABLESTYLE
  2
AcDbTableStyle
  3
ObjectDBX Classes
 90
     4095
280
     0
281
     0
  0
CLASS
  1
MLEADERSTYLE
  2
AcDbMLeaderStyle
  3
ACDB_MLEADERSTYLE_CLASS
 90
     4095
280
     0
281
     0
  0
CLASS
  1
SUN
  2
AcDbSun
  3
SCENEOE
 90
     1153
280
     0
281
     0
  0
CLASS
  1
ACDBPLACEHOLDER
  2
AcDbPlaceHolder
  3
ObjectDBX Classes
 90
        0
280
     0
281
     0
  0
CLASS
  1
LAYOUT
  2
AcDbLayout
  3
ObjectDBX Classes
 90
        0
280
     0
281
     0
  0
CLASS
  1
RASTERVARIABLES
  2
AcDbRasterVariables
  3
ISM
 90
        0
280
     0
281
     0
  0
CLASS
  1
DICTIONARYVAR
  2
AcDbDictionaryVar
  3
ObjectDBX Classes
 90
        0
280
     0
281
     0
  0
CLASS
  1
SORTENTSTABLE
  2
AcDbSortentsTable
  3
ObjectDBX Classes
 90
        0
280
     0
281
     0
  0
ENDSEC
  0
SECTION
  2
TABLES
  0
TABLE
  2
VPORT
  5
8
330
0
100
AcDbSymbolTable
 70
     1
  0
VPORT
  5
29
330
8
100
AcDbSymbolTableRecord
100
AcDbViewportTableRecord
  2
*Active
 70
     0
 10
0.0
 20
0.0
 11
1.0
 21
1.0
 12
64.91469278943657
 22
139.4056683692073
 13
0.0
 23
0.0
 14
10.0
 24
10.0
 15
10.0
 25
10.0
 16
0.0
 26
0.0
 36
1.0
 17
0.0
 27
0.0
 37
0.0
 40
171.1112479128762
 41
2.043890865954923
 42
50.0
 43
0.0
 44
0.0
 50
0.0
 51
0.0
 71
    16
 72
  2000
 73
     1
 74
     3
 75
     0
 76
     0
 77
     0
 78
     0
281
     0
 65
     1
110
0.0
120
0.0
130
0.0
111
1.0
121
0.0
131
0.0
112
0.0
122
1.0
132
0.0
 79
     0
146
0.0
  0
ENDTAB
  0
TABLE
  2
LTYPE
  5
5
330
0
100
AcDbSymbolTable
 70
     6
  0
LTYPE
  5
14
330
5
100
AcDbSymbolTableRecord
100
AcDbLinetypeTableRecord
  2
ByBlock
 70
     0
  3

 72
    65
 73
     0
 40
0.0
  0
LTYPE
  5
15
330
5
100
AcDbSymbolTableRecord
100
AcDbLinetypeTableRecord
  2
ByLayer
 70
     0
  3

 72
    65
 73
     0
 40
0.0
  0
LTYPE
  5
16
330
5
100
AcDbSymbolTableRecord
100
AcDbLinetypeTableRecord
  2
Continuous
 70
     0
  3
Solid line
 72
    65
 73
     0
 40
0.0
  0
LTYPE
  5
6E
330
5
100
AcDbSymbolTableRecord
100
AcDbLinetypeTableRecord
  2
HIDDEN
 70
     0
  3
Hidden __ __ __ __ __ __ __ __ __ __ __ __ __ __
 72
    65
 73
     2
 40
1.905
 49
1.27
 74
     0
 49
-0.635
 74
     0
  0
LTYPE
  5
6F
330
5
100
AcDbSymbolTableRecord
100
AcDbLinetypeTableRecord
  2
PHANTOM
 70
     0
  3
Phantom ______  __  __  ______  __  __  ______
 72
    65
 73
     6
 40
12.7
 49
6.35
 74
     0
 49
-1.27
 74
     0
 49
1.27
 74
     0
 49
-1.27
 74
     0
 49
1.27
 74
     0
 49
-1.27
 74
     0
  0
LTYPE
  5
70
330
5
100
AcDbSymbolTableRecord
100
AcDbLinetypeTableRecord
  2
CENTER
 70
     0
  3
Center ____ _ ____ _ ____ _ ____ _ ____ _ ____
 72
    65
 73
     4
 40
10.16
 49
6.35
 74
     0
 49
-1.27
 74
     0
 49
1.27
 74
     0
 49
-1.27
 74
     0
  0
LTYPE
  5
71
330
5
100
AcDbSymbolTableRecord
100
AcDbLinetypeTableRecord
  2
CENTERX2
 70
     0
  3
Center (2x) ________  __  ________  __  _____
 72
    65
 73
     4
 40
20.32
 49
12.7
 74
     0
 49
-2.54
 74
     0
 49
2.54
 74
     0
 49
-2.54
 74
     0
  0
LTYPE
  5
72
330
5
100
AcDbSymbolTableRecord
100
AcDbLinetypeTableRecord
  2
DOT2
 70
     0
  3
Dot (.5x) ........................................
 72
    65
 73
     2
 40
0.635
 49
0.0
 74
     0
 49
-0.635
 74
     0
  0
ENDTAB
  0
TABLE
  2
LAYER
  5
2
102
{ACAD_XDICTIONARY
360
66F
102
}
330
0
100
AcDbSymbolTable
 70
    14
  0
LAYER
  5
10
330
2
100
AcDbSymbolTableRecord
100
AcDbLayerTableRecord
  2
0
 70
     0
 62
     7
  6
Continuous
370
    -3
390
F
  0
LAYER
  5
73
330
2
100
AcDbSymbolTableRecord
100
AcDbLayerTableRecord
  2
SLD-0
 70
     0
 62
   179
  6
Continuous
370
    -3
390
F
  0
LAYER
  5
74
330
2
100
AcDbSymbolTableRecord
100
AcDbLayerTableRecord
  2
中心線
 70
     0
 62
     1
  6
CENTER
370
    -3
390
F
  0
LAYER
  5
75
330
2
100
AcDbSymbolTableRecord
100
AcDbLayerTableRecord
  2
破線
 70
     0
 62
     3
  6
HIDDEN
370
    -3
390
F
  0
LAYER
  5
76
330
2
100
AcDbSymbolTableRecord
100
AcDbLayerTableRecord
  2
寸法線
 70
     0
 62
     7
  6
Continuous
370
    -3
390
F
  0
LAYER
  5
77
330
2
100
AcDbSymbolTableRecord
100
AcDbLayerTableRecord
  2
実線
 70
     0
 62
     4
  6
Continuous
370
    25
390
F
  0
LAYER
  5
78
330
2
100
AcDbSymbolTableRecord
100
AcDbLayerTableRecord
  2
ﾊｯﾁﾝｸﾞ
 70
     0
 62
     8
  6
Continuous
370
    -3
390
F
  0
LAYER
  5
79
330
2
100
AcDbSymbolTableRecord
100
AcDbLayerTableRecord
  2
輪郭線
 70
     0
 62
     6
  6
Continuous
370
    25
390
F
  0
LAYER
  5
7A
330
2
100
AcDbSymbolTableRecord
100
AcDbLayerTableRecord
  2
文字
 70
     0
 62
   179
  6
Continuous
370
    -3
390
F
  0
LAYER
  5
7B
330
2
100
AcDbSymbolTableRecord
100
AcDbLayerTableRecord
  2
想像線
 70
     0
 62
     3
  6
PHANTOM
370
    -3
390
F
  0
LAYER
  5
7C
330
2
100
AcDbSymbolTableRecord
100
AcDbLayerTableRecord
  2
姿図
 70
     0
 62
     8
  6
Continuous
370
    -3
390
F
  0
LAYER
  5
7D
330
2
100
AcDbSymbolTableRecord
100
AcDbLayerTableRecord
  2
注記
 70
     0
 62
     7
  6
Continuous
370
    25
390
F
  0
LAYER
  5
7E
330
2
100
AcDbSymbolTableRecord
100
AcDbLayerTableRecord
  2
ロゴ：MODULEX
 70
     0
 62
     7
  6
Continuous
370
    -3
390
F
  0
LAYER
  5
1560
330
2
100
AcDbSymbolTableRecord
100
AcDbLayerTableRecord
  2
図面枠
 70
     0
 62
   179
  6
Continuous
370
    -3
390
F
  0
ENDTAB
  0
TABLE
  2
STYLE
  5
3
330
0
100
AcDbSymbolTable
 70
     1
  0
STYLE
  5
11
330
3
100
AcDbSymbolTableRecord
100
AcDbTextStyleTableRecord
  2
Standard
 70
     0
 40
0.0
 41
1.0
 50
0.0
 71
     0
 42
3.5
  3
txt
  4
bigfont
  0
ENDTAB
  0
TABLE
  2
VIEW
  5
6
330
0
100
AcDbSymbolTable
 70
     0
  0
ENDTAB
  0
TABLE
  2
UCS
  5
7
330
0
100
AcDbSymbolTable
 70
     0
  0
ENDTAB
  0
TABLE
  2
APPID
  5
9
330
0
100
AcDbSymbolTable
 70
     6
  0
APPID
  5
12
330
9
100
AcDbSymbolTableRecord
100
AcDbRegAppTableRecord
  2
ACAD
 70
     0
  0
APPID
  5
64B
330
9
100
AcDbSymbolTableRecord
100
AcDbRegAppTableRecord
  2
ACAD_DSTYLE_DIMJAG
 70
     0
  0
APPID
  5
64C
330
9
100
AcDbSymbolTableRecord
100
AcDbRegAppTableRecord
  2
ACAD_DSTYLE_DIMTALN
 70
     0
  0
APPID
  5
64D
330
9
100
AcDbSymbolTableRecord
100
AcDbRegAppTableRecord
  2
ACAD_PSEXT
 70
     0
  0
APPID
  5
DBE
330
9
100
AcDbSymbolTableRecord
100
AcDbRegAppTableRecord
  2
AcadAnnotative
 70
     0
  0
APPID
  5
DBF
330
9
100
AcDbSymbolTableRecord
100
AcDbRegAppTableRecord
  2
PLOTTRANSPARENCY
 70
     0
  0
ENDTAB
  0
TABLE
  2
DIMSTYLE
  5
A
330
0
100
AcDbSymbolTable
 70
     3
100
AcDbDimStyleTable
  0
DIMSTYLE
105
27
330
A
100
AcDbSymbolTableRecord
100
AcDbDimStyleTableRecord
  2
ISO-25
 70
     0
 41
2.5
 42
0.625
 43
3.75
 44
1.25
 73
     0
 74
     0
 77
     1
 78
     8
140
2.5
141
2.5
143
0.03937007874016
147
0.625
171
     3
172
     1
178
     0
271
     2
272
     2
274
     3
278
    44
283
     0
284
     8
340
11
  0
DIMSTYLE
105
643
330
A
100
AcDbSymbolTableRecord
100
AcDbDimStyleTableRecord
  2
STANDARD
 70
     0
 41
2.5
 42
1.5
 44
1.0
 73
     0
 74
     0
 77
     3
 78
     8
 79
     2
140
2.500000000000003
141
0.0
147
1.0
171
     0
172
     1
173
     1
176
     8
177
     8
271
     2
178
   256
179
     2
271
     2
272
     2
274
     0
289
     1
340
11
341
645
343
645
344
645
1001
ACAD_DSTYLE_DIMJAG
1070
   388
1040
1.5
1001
ACAD_DSTYLE_DIMTALN
1070
   392
1070
     0
  0
DIMSTYLE
105
6A7
330
A
100
AcDbSymbolTableRecord
100
AcDbDimStyleTableRecord
  2
STANDARD-10
 70
     0
 41
15.0
 42
15.0
 43
3.8
 44
1.0
 73
     0
 74
     0
 77
     1
 78
     8
 79
     2
140
20.0
141
0.0
147
0.0
171
     0
172
     1
173
     1
176
     8
177
     8
271
     2
178
   256
179
     2
271
     2
272
     2
274
     0
289
     2
340
11
341
645
343
645
344
645
  0
ENDTAB
  0
TABLE
  2
BLOCK_RECORD
  5
1
330
0
100
AcDbSymbolTable
 70
     3
  0
BLOCK_RECORD
  5
1F
330
1
100
AcDbSymbolTableRecord
100
AcDbBlockTableRecord
  2
*Model_Space
340
22
  0
BLOCK_RECORD
  5
1B
330
1
100
AcDbSymbolTableRecord
100
AcDbBlockTableRecord
  2
*Paper_Space
340
1E
  0
BLOCK_RECORD
  5
23
330
1
100
AcDbSymbolTableRecord
100
AcDbBlockTableRecord
  2
*Paper_Space0
340
26
  0
BLOCK_RECORD
  5
645
330
1
100
AcDbSymbolTableRecord
100
AcDbBlockTableRecord
  2
_OPEN
340
0
  0
BLOCK_RECORD
  5
DB8
330
1
100
AcDbSymbolTableRecord
100
AcDbBlockTableRecord
  2
_Open30
340
0
  0
ENDTAB
  0
ENDSEC
  0
SECTION
  2
BLOCKS
  0
BLOCK
  5
20
330
1F
100
AcDbEntity
  8
0
100
AcDbBlockBegin
  2
*Model_Space
 70
     0
 10
0.0
 20
0.0
 30
0.0
  3
*Model_Space
  1

  0
ENDBLK
  5
21
330
1F
100
AcDbEntity
  8
0
100
AcDbBlockEnd
  0
BLOCK
  5
1C
330
1B
100
AcDbEntity
 67
     1
  8
0
100
AcDbBlockBegin
  2
*Paper_Space
 70
     0
 10
0.0
 20
0.0
 30
0.0
  3
*Paper_Space
  1

  0
ENDBLK
  5
1D
330
1B
100
AcDbEntity
 67
     1
  8
0
100
AcDbBlockEnd
  0
BLOCK
  5
24
330
23
100
AcDbEntity
  8
0
100
AcDbBlockBegin
  2
*Paper_Space0
 70
     0
 10
0.0
 20
0.0
 30
0.0
  3
*Paper_Space0
  1

  0
ENDBLK
  5
25
330
23
100
AcDbEntity
  8
0
100
AcDbBlockEnd
  0
BLOCK
  5
646
330
645
100
AcDbEntity
  8
0
100
AcDbBlockBegin
  2
_OPEN
 70
     0
 10
0.0
 20
0.0
 30
0.0
  3
_OPEN
  1

  0
LINE
  5
647
330
645
100
AcDbEntity
  8
0
  6
ByBlock
 62
     0
100
AcDbLine
 10
-1.0
 20
0.1666666666666667
 30
0.0
 11
0.0
 21
0.0
 31
0.0
  0
LINE
  5
648
330
645
100
AcDbEntity
  8
0
  6
ByBlock
 62
     0
100
AcDbLine
 10
0.0
 20
0.0
 30
0.0
 11
-1.0
 21
-0.1666666666666667
 31
0.0
  0
LINE
  5
649
330
645
100
AcDbEntity
  8
0
  6
ByBlock
 62
     0
100
AcDbLine
 10
0.0
 20
0.0
 30
0.0
 11
-1.0
 21
0.0
 31
0.0
  0
ENDBLK
  5
64A
330
645
100
AcDbEntity
  8
0
100
AcDbBlockEnd
  0
BLOCK
  5
DB9
330
DB8
100
AcDbEntity
  8
0
100
AcDbBlockBegin
  2
_Open30
 70
     0
 10
0.0
 20
0.0
 30
0.0
  3
_Open30
  1

  0
LINE
  5
DBA
330
DB8
100
AcDbEntity
  8
0
  6
ByBlock
 62
     0
370
    -2
100
AcDbLine
 10
-1.0
 20
0.267949
 30
0.0
 11
0.0
 21
0.0
 31
0.0
  0
LINE
  5
DBB
330
DB8
100
AcDbEntity
  8
0
  6
ByBlock
 62
     0
370
    -2
100
AcDbLine
 10
0.0
 20
0.0
 30
0.0
 11
-1.0
 21
-0.267949
 31
0.0
  0
LINE
  5
DBC
330
DB8
100
AcDbEntity
  8
0
  6
ByBlock
 62
     0
370
    -2
100
AcDbLine
 10
0.0
 20
0.0
 30
0.0
 11
-1.0
 21
0.0
 31
0.0
  0
ENDBLK
  5
DBD
330
DB8
100
AcDbEntity
  8
0
100
AcDbBlockEnd
  0
ENDSEC
  0
SECTION
  2
ENTITIES
  0
LINE
  5
13E9
330
1F
100
AcDbEntity
  8
姿図
100
AcDbLine
 10
173.035550493527
 20
125.9747499298356
 30
0.0
 11
174.3790533284073
 21
126.7503376075639
 31
0.0
  0
LINE
  5
13EA
330
1F
100
AcDbEntity
  8
姿図
100
AcDbLine
 10
170.1364125118017
 20
124.301113197345
 30
0.0
 11
171.4799154187099
 21
125.0767009166544
 31
0.0
  0
LINE
  5
13EB
330
1F
100
AcDbEntity
  8
姿図
100
AcDbLine
 10
166.9544318041672
 20
130.9424207489952
 30
0.0
 11
166.7680426349839
 21
131.0500209260307
 31
0.0
  0
LINE
  5
13EC
330
1F
100
AcDbEntity
  8
姿図
100
AcDbLine
 10
169.7283898591841
 20
123.5035764447146
 30
0.0
 11
169.7283898591841
 21
122.1937851991889
 31
0.0
  0
SPLINE
  5
13ED
330
1F
100
AcDbEntity
  8
姿図
100
AcDbSpline
210
0.0
220
0.0
230
1.0
 70
     8
 71
     3
 72
    11
 73
     7
 74
     0
 42
0.000000001
 43
0.00000001
 40
0.0
 40
0.0
 40
0.0
 40
0.0
 40
0.2194640865603956
 40
0.5107833241821537
 40
0.8149996364283699
 40
1.0
 40
1.0
 40
1.0
 40
1.0
 10
170.3819518194196
 20
121.6531914171315
 30
0.0
 10
170.4144001015384
 20
121.6377441290827
 30
0.0
 10
170.4899206191058
 20
121.6017919272313
 30
0.0
 10
170.6312655945231
 20
121.5862879474358
 30
0.0
 10
170.7659516386071
 20
121.6047409147007
 30
0.0
 10
170.8376599480226
 20
121.6398974953368
 30
0.0
 10
170.8647768963374
 20
121.6531921774709
 30
0.0
  0
LINE
  5
13EE
330
1F
100
AcDbEntity
  8
姿図
100
AcDbLine
 10
170.8647768963374
 20
121.6531921774709
 30
0.0
 11
171.1652974263826
 21
121.8266789866953
 31
0.0
  0
LINE
  5
13EF
330
1F
100
AcDbEntity
  8
姿図
100
AcDbLine
 10
169.8869765963296
 20
121.9389345312082
 30
0.0
 11
170.3819518194196
 21
121.6531914171315
 31
0.0
  0
LINE
  5
13F0
330
1F
100
AcDbEntity
  8
姿図
100
AcDbLine
 10
168.0272501985092
 20
123.5058802094623
 30
0.0
 11
169.7283892006399
 21
122.5238335669829
 31
0.0
  0
LINE
  5
13F1
330
1F
100
AcDbEntity
  8
姿図
100
AcDbLine
 10
171.1652974263826
 20
121.8266789866953
 30
0.0
 11
171.2291848047353
 21
121.8788534536112
 31
0.0
  0
LINE
  5
13F2
330
1F
100
AcDbEntity
  8
姿図
100
AcDbLine
 10
171.2291848047353
 20
121.8788534536112
 30
0.0
 11
171.3606806671838
 21
122.0255703385297
 31
0.0
  0
SPLINE
  5
13F3
330
1F
100
AcDbEntity
  8
姿図
100
AcDbSpline
210
0.0
220
0.0
230
1.0
 70
     8
 71
     3
 72
    11
 73
     7
 74
     0
 42
0.000000001
 43
0.00000001
 40
0.0
 40
0.0
 40
0.0
 40
0.0
 40
0.0491768923014325
 40
0.384178276390133
 40
0.6953117042446485
 40
1.0
 40
1.0
 40
1.0
 40
1.0
 10
169.7309199871839
 20
122.1939823238582
 30
0.0
 10
169.7301028882785
 20
122.1888738122123
 30
0.0
 10
169.7237195721619
 20
122.1489652472911
 30
0.0
 10
169.7509950222748
 20
122.0761525861149
 30
0.0
 10
169.8061740817498
 20
121.9933764757287
 30
0.0
 10
169.8602310097068
 20
121.9569547840511
 30
0.0
 10
169.8869765963296
 20
121.9389345312082
 30
0.0
  0
SPLINE
  5
13F4
330
1F
100
AcDbEntity
  8
姿図
100
AcDbSpline
210
0.0
220
0.0
230
1.0
 70
     8
 71
     3
 72
    14
 73
    10
 74
     0
 42
0.000000001
 43
0.00000001
 40
0.0
 40
0.0
 40
0.0
 40
0.0
 40
0.0869872678554666
 40
0.2559004980868854
 40
0.4277179362859468
 40
0.6014533433007307
 40
0.775170152475095
 40
0.9462987723991687
 40
0.9999999999999999
 40
0.9999999999999999
 40
0.9999999999999999
 40
0.9999999999999999
 10
172.744164140444
 20
122.2019165300208
 30
0.0
 10
172.745507904956
 20
122.2403888920145
 30
0.0
 10
172.7494610123059
 20
122.3535674851515
 30
0.0
 10
172.7971339409783
 20
122.5748477463677
 30
0.0
 10
172.9061001613264
 20
122.8493497456203
 30
0.0
 10
173.0633461440225
 20
123.1136155449004
 30
0.0
 10
173.2525855659288
 20
123.3393918788091
 30
0.0
 10
173.4095985234258
 20
123.4712219376171
 30
0.0
 10
173.4933808819624
 20
123.5221136306239
 30
0.0
 10
173.5133925287892
 20
123.5342692515045
 30
0.0
  0
LINE
  5
13F5
330
1F
100
AcDbEntity
  8
姿図
100
AcDbLine
 10
172.744164140444
 20
120.9771053015457
 30
0.0
 11
172.744164140444
 21
122.2019165300208
 31
0.0
  0
LINE
  5
13F6
330
1F
100
AcDbEntity
  8
姿図
100
AcDbLine
 10
173.5133925287892
 20
123.5342692515045
 30
0.0
 11
174.2204992612433
 21
123.9424732792832
 31
0.0
  0
LINE
  5
13F7
330
1F
100
AcDbEntity
  8
姿図
100
AcDbLine
 10
167.7747681854153
 20
123.136242386619
 30
0.0
 11
172.0881188088688
 21
120.6461980737828
 31
0.0
  0
ARC
  5
13F8
330
1F
100
AcDbEntity
  8
姿図
100
AcDbCircle
 10
167.7772598633224
 20
123.9388972398241
 30
0.0
 40
0.5000000000000004
100
AcDbArc
 50
240.0026882663613
 51
299.9973117336314
  0
LINE
  5
13F9
330
1F
100
AcDbEntity
  8
姿図
100
AcDbLine
 10
166.4666205575073
 20
124.1181784306364
 30
0.0
 11
167.5272802445984
 21
123.5058726265741
 31
0.0
  0
SPLINE
  5
13FA
330
1F
100
AcDbEntity
  8
姿図
100
AcDbSpline
210
0.0
220
0.0
230
1.0
 70
     8
 71
     3
 72
    11
 73
     7
 74
     0
 42
0.000000001
 43
0.00000001
 40
0.0
 40
0.0
 40
0.0
 40
0.0
 40
0.1768992815480302
 40
0.513253691267124
 40
0.8553056809919656
 40
0.9999999999999999
 40
0.9999999999999999
 40
0.9999999999999999
 40
0.9999999999999999
 10
174.2204992612433
 20
123.9424732792832
 30
0.0
 10
174.2517712240488
 20
123.9590503853472
 30
0.0
 10
174.3425033638433
 20
124.0071470243125
 30
0.0
 10
174.4678503037449
 20
124.0328853154661
 30
0.0
 10
174.5382821742761
 20
124.0268877137147
 30
0.0
 10
174.5622587762001
 20
124.0077507304425
 30
0.0
 10
174.5693862634049
 20
124.0020619091557
 30
0.0
  0
LINE
  5
13FB
330
1F
100
AcDbEntity
  8
姿図
100
AcDbLine
 10
162.7932457918173
 20
124.1016872298629
 30
0.0
 11
165.9752274872686
 21
122.2647682969979
 31
0.0
  0
LINE
  5
13FC
330
1F
100
AcDbEntity
  8
姿図
100
AcDbLine
 10
177.0691280316597
 20
125.3981868220047
 30
0.0
 11
177.0691280316597
 21
126.7079780675304
 31
0.0
  0
LINE
  5
13FD
330
1F
100
AcDbEntity
  8
姿図
100
AcDbLine
 10
173.4530385709937
 20
134.8494092264017
 30
0.0
 11
173.4012638017762
 21
134.879298164467
 31
0.0
  0
LINE
  5
13FE
330
1F
100
AcDbEntity
  8
姿図
100
AcDbLine
 10
176.3994562617614
 20
124.9343962781528
 30
0.0
 11
176.5028446625875
 21
124.9384101147612
 31
0.0
  0
SPLINE
  5
13FF
330
1F
100
AcDbEntity
  8
姿図
100
AcDbSpline
210
0.0
220
0.0
230
1.0
 70
     8
 71
     3
 72
     9
 73
     5
 74
     0
 42
0.000000001
 43
0.00000001
 40
0.0
 40
0.0
 40
0.0
 40
0.0
 40
0.7901698308897637
 40
0.9999999999999999
 40
0.9999999999999999
 40
0.9999999999999999
 40
0.9999999999999999
 10
176.5028446625875
 20
124.9384101147612
 30
0.0
 10
176.5325745757887
 20
124.9426758911487
 30
0.0
 10
176.5701992889063
 20
124.9480744475355
 30
0.0
 10
176.6031131984851
 20
124.9660734243178
 30
0.0
 10
176.6100195296982
 20
124.9698501526599
 30
0.0
  0
LINE
  5
1400
330
1F
100
AcDbEntity
  8
姿図
100
AcDbLine
 10
176.6100195296982
 20
124.9698501526599
 30
0.0
 11
176.910539895107
 21
125.1433368668418
 31
0.0
  0
SPLINE
  5
1401
330
1F
100
AcDbEntity
  8
姿図
100
AcDbSpline
210
0.0
220
0.0
230
1.0
 70
     8
 71
     3
 72
    10
 73
     6
 74
     0
 42
0.000000001
 43
0.00000001
 40
0.0
 40
0.0
 40
0.0
 40
0.0
 40
0.3792013548222513
 40
0.7220247126871915
 40
1.0
 40
1.0
 40
1.0
 40
1.0
 10
176.910539895107
 20
125.1433368668418
 30
0.0
 10
176.9429466123457
 20
125.1662844268218
 30
0.0
 10
177.0046511669471
 20
125.2099781140688
 30
0.0
 10
177.0603922200472
 20
125.3033095678385
 30
0.0
 10
177.0646784789538
 20
125.368706568092
 30
0.0
 10
177.0665977390236
 20
125.3979894121772
 30
0.0
  0
LINE
  5
1402
330
1F
100
AcDbEntity
  8
姿図
100
AcDbLine
 10
174.0755349288357
 20
128.1604050660609
 30
0.0
 11
174.0755349288357
 21
128.3509998804833
 31
0.0
  0
LINE
  5
1403
330
1F
100
AcDbEntity
  8
姿図
100
AcDbLine
 10
168.5519824548956
 20
132.0798674310659
 30
0.0
 11
169.851809702218
 21
131.3294931333529
 31
0.0
  0
LINE
  5
1404
330
1F
100
AcDbEntity
  8
姿図
100
AcDbLine
 10
76.06963800023644
 20
174.2675988704414
 30
0.0
 11
81.72649317695962
 21
171.0019658878715
 31
0.0
  0
LINE
  5
1405
330
1F
100
AcDbEntity
  8
姿図
100
AcDbLine
 10
165.1609651912896
 20
130.4684374858428
 30
0.0
 11
164.8074110841999
 21
130.6725399274231
 31
0.0
  0
LINE
  5
1406
330
1F
100
AcDbEntity
  8
姿図
100
AcDbLine
 10
173.4426811476083
 20
135.4847070763436
 30
0.0
 11
125.5094172669283
 21
163.155991314814
 31
0.0
  0
LINE
  5
1407
330
1F
100
AcDbEntity
  8
姿図
100
AcDbLine
 10
81.72649317695962
 20
171.0019658878715
 30
0.0
 11
122.7819124924632
 21
147.3011768025118
 31
0.0
  0
LINE
  5
1408
330
1F
100
AcDbEntity
  8
姿図
100
AcDbLine
 10
170.1067817955732
 20
127.6952532061838
 30
0.0
 11
170.0400027482856
 21
127.7350183888448
 31
0.0
  0
LINE
  5
1409
330
1F
100
AcDbEntity
  8
姿図
100
AcDbLine
 10
170.1067817955732
 20
127.6952532061838
 30
0.0
 11
172.5855854704687
 21
126.2642703039944
 31
0.0
  0
LWPOLYLINE
  5
140A
330
1F
100
AcDbEntity
  8
姿図
100
AcDbPolyline
 90
        9
 70
   128
 43
0.0
 10
172.5855854704687
 20
126.2642703039944
 10
172.7441050360745
 20
126.2082405842228
 10
172.8796624717753
 20
126.2312907668253
 10
172.9726252487004
 20
126.330080577528
 10
173.0095248145718
 20
126.490302544394
 10
172.9850216905189
 20
126.6887464587322
 10
172.9026614801724
 20
126.8966705780334
 10
172.7743743758393
 20
127.0839578889382
 10
172.6187418693567
 20
127.2234806213624
  0
LINE
  5
140B
330
1F
100
AcDbEntity
  8
姿図
100
AcDbLine
 10
172.6187418693567
 20
127.2234806213624
 30
0.0
 11
171.8743073524648
 21
127.7206173767432
 31
0.0
  0
ARC
  5
140C
330
1F
100
AcDbEntity
  8
姿図
100
AcDbCircle
 10
171.6688079179922
 20
127.4302999728391
 30
0.0
 40
0.3556883644122704
100
AcDbArc
 50
54.70746015197521
 51
81.59296354003934
  0
LINE
  5
140D
330
1F
100
AcDbEntity
  8
姿図
100
AcDbLine
 10
171.7208111643659
 20
127.7821662470752
 30
0.0
 11
170.0451657372283
 21
127.9738555523876
 31
0.0
  0
LINE
  5
140E
330
1F
100
AcDbEntity
  8
姿図
100
AcDbLine
 10
170.0451657372283
 20
127.9738555523876
 30
0.0
 11
170.0400027482856
 21
127.9917152993911
 31
0.0
  0
LINE
  5
140F
330
1F
100
AcDbEntity
  8
姿図
100
AcDbLine
 10
171.6418806538173
 20
128.0551064630791
 30
0.0
 11
170.0400027482856
 21
128.2383554684323
 31
0.0
  0
ARC
  5
1410
330
1F
100
AcDbEntity
  8
姿図
100
AcDbCircle
 10
171.5575077693653
 20
127.4842721713704
 30
0.0
 40
0.5770360233310291
100
AcDbArc
 50
54.70797652197796
 51
81.59219971121519
  0
LINE
  5
1411
330
1F
100
AcDbEntity
  8
姿図
100
AcDbLine
 10
172.6353187517116
 20
127.4581237623671
 30
0.0
 11
171.8908868689978
 21
127.9552593773006
 31
0.0
  0
LWPOLYLINE
  5
1412
330
1F
100
AcDbEntity
  8
姿図
100
AcDbPolyline
 90
       10
 70
   128
 43
0.0
 10
172.5855854704687
 20
126.0193080963223
 10
172.798039831278
 20
125.9388216275995
 10
172.9861175085799
 20
125.9518907198841
 10
173.1282366817587
 20
126.0570175175795
 10
173.2080944229747
 20
126.2421368878568
 10
173.2165237926766
 20
126.4860109036227
 10
173.1525580475273
 20
126.7606571013876
 10
173.0235386417017
 20
127.0345614471181
 10
172.8442696557386
 20
127.2762953986331
 10
172.6353187517116
 20
127.4581237623671
  0
LINE
  5
1413
330
1F
100
AcDbEntity
  8
姿図
100
AcDbLine
 10
170.0736543726435
 20
127.4694150527021
 30
0.0
 11
172.5855854704687
 21
126.0193080963223
 31
0.0
  0
LINE
  5
1414
330
1F
100
AcDbEntity
  8
姿図
100
AcDbLine
 10
172.6353187517116
 20
127.4581237623671
 30
0.0
 11
173.9788215865916
 21
128.2337114400953
 31
0.0
  0
LWPOLYLINE
  5
1415
330
1F
100
AcDbEntity
  8
姿図
100
AcDbPolyline
 90
        8
 70
   128
 43
0.0
 10
174.3790533284073
 20
126.7503376075639
 10
174.4717395166386
 20
126.8326051953078
 10
174.5515972578547
 20
127.0177245655851
 10
174.560026627557
 20
127.2615985813511
 10
174.4960608824077
 20
127.5362447791161
 10
174.3670414765816
 20
127.8101491248463
 10
174.1877724906186
 20
128.0518830763613
 10
173.9788215865916
 20
128.2337114400953
  0
LINE
  5
1416
330
1F
100
AcDbEntity
  8
姿図
100
AcDbLine
 10
171.8908868689978
 20
127.9552593773006
 30
0.0
 11
173.2343897038778
 21
128.7308470550289
 31
0.0
  0
LINE
  5
1417
330
1F
100
AcDbEntity
  8
姿図
100
AcDbLine
 10
173.9788215865916
 20
128.2337114400953
 30
0.0
 11
173.2343897038778
 21
128.7308470550289
 31
0.0
  0
LINE
  5
1418
330
1F
100
AcDbEntity
  8
姿図
100
AcDbLine
 10
171.6418806538173
 20
128.0551064630791
 30
0.0
 11
172.9853834886972
 21
128.8306941408076
 31
0.0
  0
ARC
  5
1419
330
1F
100
AcDbEntity
  8
姿図
100
AcDbCircle
 10
172.9010106042452
 20
128.2598598490987
 30
0.0
 40
0.5770360233308977
100
AcDbArc
 50
54.70797652198064
 51
81.59219971121315
  0
LINE
  5
141A
330
1F
100
AcDbEntity
  8
姿図
100
AcDbLine
 10
170.0400015135147
 20
128.2893770979905
 30
0.0
 11
171.3097406957377
 21
129.0223819254412
 31
0.0
  0
LINE
  5
141B
330
1F
100
AcDbEntity
  8
姿図
100
AcDbLine
 10
172.9853834886972
 20
128.8306941408076
 30
0.0
 11
171.3097406957377
 21
129.0223819254412
 31
0.0
  0
LWPOLYLINE
  5
141C
330
1F
100
AcDbEntity
  8
姿図
100
AcDbPolyline
 90
        3
 70
   128
 43
0.0
 10
170.8788787317668
 20
128.8912483403584
 10
170.8822188695113
 20
128.8882448253536
 10
170.9598033150861
 20
128.8203678644346
  0
LINE
  5
141D
330
1F
100
AcDbEntity
  8
姿図
100
AcDbLine
 10
167.6784662585629
 20
125.7498164617851
 30
0.0
 11
169.6864474887435
 21
124.5906335715036
 31
0.0
  0
LWPOLYLINE
  5
141E
330
1F
100
AcDbEntity
  8
姿図
100
AcDbPolyline
 90
        9
 70
   128
 43
0.0
 10
169.6864474887435
 20
124.5906335715036
 10
169.8449670543487
 20
124.5346038517322
 10
169.98052449005
 20
124.5576540343346
 10
170.0734872669746
 20
124.6564438450374
 10
170.110386832846
 20
124.8166658119036
 10
170.0858837087931
 20
125.0151097262415
 10
170.0035234984467
 20
125.2230338455427
 10
169.8752363941135
 20
125.4103211564477
 10
169.719603887631
 20
125.5498438888718
  0
LINE
  5
141F
330
1F
100
AcDbEntity
  8
姿図
100
AcDbLine
 10
169.719603887631
 20
125.5498438888718
 30
0.0
 11
168.9751693707395
 21
126.0469806442526
 31
0.0
  0
ARC
  5
1420
330
1F
100
AcDbEntity
  8
姿図
100
AcDbCircle
 10
168.7696699362664
 20
125.7566632403483
 30
0.0
 40
0.3556883644123771
100
AcDbArc
 50
54.70746015189691
 51
81.59296353996754
  0
LINE
  5
1421
330
1F
100
AcDbEntity
  8
姿図
100
AcDbLine
 10
168.8216731826406
 20
126.1085295145845
 30
0.0
 11
167.5892387460872
 21
126.2495162399601
 31
0.0
  0
LINE
  5
1422
330
1F
100
AcDbEntity
  8
姿図
100
AcDbLine
 10
168.742742672092
 20
126.3814697305887
 30
0.0
 11
167.4843405084999
 21
126.525426288542
 31
0.0
  0
ARC
  5
1423
330
1F
100
AcDbEntity
  8
姿図
100
AcDbCircle
 10
168.6583697876395
 20
125.8106354388795
 30
0.0
 40
0.5770360233311257
100
AcDbArc
 50
54.70797652199697
 51
81.59219971117095
  0
LINE
  5
1424
330
1F
100
AcDbEntity
  8
姿図
100
AcDbLine
 10
169.7361807699863
 20
125.7844870298764
 30
0.0
 11
168.9917488872721
 21
126.28162264481
 31
0.0
  0
LWPOLYLINE
  5
1425
330
1F
100
AcDbEntity
  8
姿図
100
AcDbPolyline
 90
        9
 70
   128
 43
0.0
 10
169.9074813674025
 20
124.2638206692619
 10
170.0869795268546
 20
124.2782539873934
 10
170.2290987000329
 20
124.3833807850889
 10
170.308956441249
 20
124.5685001553662
 10
170.3173858109513
 20
124.8123741711321
 10
170.253420065802
 20
125.087020368897
 10
170.124400659976
 20
125.3609247146274
 10
169.9451316740129
 20
125.6026586661424
 10
169.7361807699863
 20
125.7844870298764
  0
LINE
  5
1426
330
1F
100
AcDbEntity
  8
姿図
100
AcDbLine
 10
169.7361807699863
 20
125.7844870298764
 30
0.0
 11
171.0796836768946
 21
126.5600747491859
 31
0.0
  0
LWPOLYLINE
  5
1427
330
1F
100
AcDbEntity
  8
姿図
100
AcDbPolyline
 90
        8
 70
   128
 43
0.0
 10
171.4799154187099
 20
125.0767009166544
 10
171.5726016069416
 20
125.1589685043983
 10
171.6524593481573
 20
125.3440878746756
 10
171.6608887178596
 20
125.5879618904415
 10
171.5969229727103
 20
125.8626080882064
 10
171.4679035668842
 20
126.1365124339369
 10
171.2886345809212
 20
126.3782463854519
 10
171.0796836768946
 20
126.5600747491859
  0
LINE
  5
1428
330
1F
100
AcDbEntity
  8
姿図
100
AcDbLine
 10
168.9917488872721
 20
126.28162264481
 30
0.0
 11
170.3352517941804
 21
127.0572103641194
 31
0.0
  0
LINE
  5
1429
330
1F
100
AcDbEntity
  8
姿図
100
AcDbLine
 10
171.0796836768946
 20
126.5600747491859
 30
0.0
 11
170.3352517941804
 21
127.0572103641194
 31
0.0
  0
LINE
  5
142A
330
1F
100
AcDbEntity
  8
姿図
100
AcDbLine
 10
168.742742672092
 20
126.3814697305887
 30
0.0
 11
170.0862455790003
 21
127.1570574498979
 31
0.0
  0
ARC
  5
142B
330
1F
100
AcDbEntity
  8
姿図
100
AcDbCircle
 10
170.0018726945482
 20
126.5862231581892
 30
0.0
 40
0.5770360233309504
100
AcDbArc
 50
54.7079765220341
 51
81.59219971121396
  0
LINE
  5
142C
330
1F
100
AcDbEntity
  8
姿図
100
AcDbLine
 10
167.3943645601908
 20
126.762083394197
 30
0.0
 11
168.4106027860403
 21
127.3487452345317
 31
0.0
  0
LINE
  5
142D
330
1F
100
AcDbEntity
  8
姿図
100
AcDbLine
 10
170.0862455790003
 20
127.1570574498979
 30
0.0
 11
168.4106027860403
 21
127.3487452345317
 31
0.0
  0
LINE
  5
142E
330
1F
100
AcDbEntity
  8
姿図
100
AcDbLine
 10
167.9845192210196
 20
127.2133162429482
 30
0.0
 11
168.0606654053887
 21
127.1467311735249
 31
0.0
  0
LINE
  5
142F
330
1F
100
AcDbEntity
  8
姿図
100
AcDbLine
 10
172.8684293488305
 20
130.5624844770392
 30
0.0
 11
172.0906118937401
 21
130.1134600179699
 31
0.0
  0
LINE
  5
1430
330
1F
100
AcDbEntity
  8
姿図
100
AcDbLine
 10
172.0906118937401
 20
130.1134600179699
 30
0.0
 11
172.0906118937401
 21
129.5908737214491
 31
0.0
  0
LINE
  5
1431
330
1F
100
AcDbEntity
  8
姿図
100
AcDbLine
 10
170.0400022543773
 20
128.4070819743607
 30
0.0
 11
172.0906118937401
 21
129.5908737214491
 31
0.0
  0
LINE
  5
1432
330
1F
100
AcDbEntity
  8
姿図
100
AcDbLine
 10
170.0400022543773
 20
127.1623468082517
 30
0.0
 11
170.0400022543773
 21
128.4070819743607
 31
0.0
  0
LINE
  5
1433
330
1F
100
AcDbEntity
  8
姿図
100
AcDbLine
 10
169.1914740766507
 20
127.9172370840007
 30
0.0
 11
169.1914740766507
 21
127.2594157703798
 31
0.0
  0
LINE
  5
1434
330
1F
100
AcDbEntity
  8
姿図
100
AcDbLine
 10
167.3576691431172
 20
126.85860402951
 30
0.0
 11
169.1914740766507
 21
127.9172370840007
 31
0.0
  0
LINE
  5
1435
330
1F
100
AcDbEntity
  8
姿図
100
AcDbLine
 10
167.1408644372878
 20
127.2560316334335
 30
0.0
 11
166.3630469821974
 21
126.8070071743642
 31
0.0
  0
LINE
  5
1436
330
1F
100
AcDbEntity
  8
姿図
100
AcDbLine
 10
166.3630469821974
 20
126.8070071743642
 30
0.0
 11
166.3630469821974
 21
124.3471009777362
 31
0.0
  0
ARC
  5
1437
330
1F
100
AcDbEntity
  8
姿図
100
AcDbCircle
 10
166.6096697438862
 20
124.3207911715068
 30
0.0
 40
0.2480221612815625
100
AcDbArc
 50
173.9106958208224
 51
234.7770418404393
  0
LINE
  5
1438
330
1F
100
AcDbEntity
  8
姿図
100
AcDbLine
 10
167.6711946101059
 20
123.4502764157918
 30
0.0
 11
167.6711946101059
 21
123.3651648386609
 31
0.0
  0
ARC
  5
1439
330
1F
100
AcDbEntity
  8
姿図
100
AcDbCircle
 10
167.9154223554202
 20
123.3377715163909
 30
0.0
 40
0.2457592026481585
100
AcDbArc
 50
173.6002800252203
 51
235.0874755063494
  0
LINE
  5
143A
330
1F
100
AcDbEntity
  8
姿図
100
AcDbLine
 10
167.8783180531228
 20
123.0764642793939
 30
0.0
 11
166.5751789854704
 21
122.3241781084995
 31
0.0
  0
ARC
  5
143B
330
1F
100
AcDbEntity
  8
姿図
100
AcDbCircle
 10
166.243940023775
 20
122.730269670572
 30
0.0
 40
0.5240511487742436
100
AcDbArc
 50
170.7859830423216
 51
309.2032844568346
  0
LINE
  5
143C
330
1F
100
AcDbEntity
  8
姿図
100
AcDbLine
 10
165.726650643107
 20
122.8141821439002
 30
0.0
 11
165.726650643107
 21
130.2447032671153
 31
0.0
  0
ARC
  5
143D
330
1F
100
AcDbEntity
  8
姿図
100
AcDbCircle
 10
166.1104572626828
 20
130.2272369699382
 30
0.0
 40
0.384203842727913
100
AcDbArc
 50
122.6056222582939
 51
177.3943775961048
  0
LINE
  5
143E
330
1F
100
AcDbEntity
  8
姿図
100
AcDbLine
 10
165.9034276966523
 20
130.5508901045685
 30
0.0
 11
166.5044684274699
 21
130.8978635329327
 31
0.0
  0
ARC
  5
143F
330
1F
100
AcDbEntity
  8
姿図
100
AcDbCircle
 10
166.7528971866537
 20
130.5932942567875
 30
0.0
 40
0.3930385380099616
100
AcDbArc
 50
350.7860203516306
 51
129.2031765499509
  0
LINE
  5
1440
330
1F
100
AcDbEntity
  8
姿図
100
AcDbLine
 10
167.1408644372878
 20
130.0466623809832
 30
0.0
 11
167.1408644372878
 21
130.5303601261738
 31
0.0
  0
ARC
  5
1441
330
1F
100
AcDbEntity
  8
姿図
100
AcDbCircle
 10
165.7209978264382
 20
138.2336161756506
 30
0.0
 40
8.309165639739303
100
AcDbArc
 50
279.8389627562967
 51
320.0474807725677
  0
LINE
  5
1442
330
1F
100
AcDbEntity
  8
姿図
100
AcDbLine
 10
172.0906118937401
 20
133.3877885107102
 30
0.0
 11
172.0906118937401
 21
132.8978640953665
 31
0.0
  0
ARC
  5
1443
330
1F
100
AcDbEntity
  8
姿図
100
AcDbCircle
 10
173.4723080774525
 20
133.3249130553384
 30
0.0
 40
1.383126048837763
100
AcDbArc
 50
122.6055164749924
 51
177.3944962166913
  0
LINE
  5
1444
330
1F
100
AcDbEntity
  8
姿図
100
AcDbLine
 10
172.7270079858764
 20
134.4900591579668
 30
0.0
 11
173.3280487990119
 21
134.8370326338519
 31
0.0
  0
ARC
  5
1445
330
1F
100
AcDbEntity
  8
姿図
100
AcDbCircle
 10
173.3970566832095
 20
134.752429765858
 30
0.0
 40
0.1091775313614274
100
AcDbArc
 50
350.7860259630364
 51
129.2030374453492
  0
LINE
  5
1446
330
1F
100
AcDbEntity
  8
姿図
100
AcDbLine
 10
173.5048255232846
 20
134.7349480478941
 30
0.0
 11
173.5048255232846
 21
128.8000237794541
 31
0.0
  0
LINE
  5
1447
330
1F
100
AcDbEntity
  8
姿図
100
AcDbLine
 10
165.726650643107
 20
130.2447032671153
 30
0.0
 11
165.1609635449282
 21
130.5712674777793
 31
0.0
  0
ARC
  5
1448
330
1F
100
AcDbEntity
  8
姿図
100
AcDbCircle
 10
165.5214631210757
 20
130.5589507326723
 30
0.0
 40
0.3607099203136724
100
AcDbArc
 50
148.8566059581298
 51
178.0432068053434
  0
LINE
  5
1449
330
1F
100
AcDbEntity
  8
姿図
100
AcDbLine
 10
162.5446689476558
 20
124.6511010767652
 30
0.0
 11
165.726650643107
 21
122.8141821439002
 31
0.0
  0
LINE
  5
144A
330
1F
100
AcDbEntity
  8
姿図
100
AcDbLine
 10
162.5446689476558
 20
124.6511010767652
 30
0.0
 11
162.5446689476558
 21
130.5320535827751
 31
0.0
  0
LINE
  5
144B
330
1F
100
AcDbEntity
  8
姿図
100
AcDbLine
 10
165.1609635449282
 20
129.021698860574
 30
0.0
 11
162.5446689476558
 21
130.5320535827751
 31
0.0
  0
LINE
  5
144C
330
1F
100
AcDbEntity
  8
姿図
100
AcDbLine
 10
165.1609635449282
 20
130.5712674777793
 30
0.0
 11
165.1609635449282
 21
129.021698860574
 31
0.0
  0
ARC
  5
144D
330
1F
100
AcDbEntity
  8
姿図
100
AcDbCircle
 10
170.6233646683568
 20
123.6004329689871
 30
0.0
 40
0.6148056384526673
100
AcDbArc
 50
242.6095737571993
 51
297.3904647485103
  0
LINE
  5
144E
330
1F
100
AcDbEntity
  8
姿図
100
AcDbLine
 10
170.9062072484235
 20
123.0545519856451
 30
0.0
 11
170.9062072484235
 21
121.7447607401196
 31
0.0
  0
ARC
  5
144F
330
1F
100
AcDbEntity
  8
姿図
100
AcDbCircle
 10
170.6233646683568
 20
122.2906417234613
 30
0.0
 40
0.6148056384526579
100
AcDbArc
 50
242.6095737571993
 51
297.3904647485103
  0
LINE
  5
1450
330
1F
100
AcDbEntity
  8
姿図
100
AcDbLine
 10
170.3405224551503
 20
121.7447605500348
 30
0.0
 11
170.3405224551503
 21
123.0545517955603
 31
0.0
  0
LINE
  5
1451
330
1F
100
AcDbEntity
  8
姿図
100
AcDbLine
 10
166.9006484742004
 20
125.1015792802579
 30
0.0
 11
167.6784659292908
 21
125.5506037393273
 31
0.0
  0
LINE
  5
1452
330
1F
100
AcDbEntity
  8
姿図
100
AcDbLine
 10
171.4542150607413
 20
123.3709101618232
 30
0.0
 11
170.9062072484235
 21
123.0545519856451
 31
0.0
  0
LINE
  5
1453
330
1F
100
AcDbEntity
  8
姿図
100
AcDbLine
 10
169.8455472320603
 20
123.340294909637
 30
0.0
 11
170.3405224551503
 21
123.0545517955603
 31
0.0
  0
ARC
  5
1454
330
1F
100
AcDbEntity
  8
姿図
100
AcDbCircle
 10
169.9075175327699
 20
123.5035762871879
 30
0.0
 40
0.1746457168813098
100
AcDbArc
 50
110.78317732594
 51
249.2167071318319
  0
LINE
  5
1455
330
1F
100
AcDbEntity
  8
姿図
100
AcDbLine
 10
169.9692913671052
 20
123.7382935682266
 30
0.0
 11
169.8455475613324
 21
123.6668577897072
 31
0.0
  0
LINE
  5
1456
330
1F
100
AcDbEntity
  8
姿図
100
AcDbLine
 10
169.9692913671052
 20
123.7382935682266
 30
0.0
 11
168.1308142249237
 21
124.7996238313582
 31
0.0
  0
ARC
  5
1457
330
1F
100
AcDbEntity
  8
姿図
100
AcDbCircle
 10
167.7772608139713
 20
125.4819852890679
 30
0.0
 40
0.768516215420238
100
AcDbArc
 50
242.6098121631441
 51
297.3901262277766
  0
LINE
  5
1458
330
1F
100
AcDbEntity
  8
姿図
100
AcDbLine
 10
166.9006484742004
 20
125.1015792802579
 30
0.0
 11
167.4237066692886
 21
124.7996242115279
 31
0.0
  0
LINE
  5
1459
330
1F
100
AcDbEntity
  8
姿図
100
AcDbLine
 10
171.4542150607413
 20
123.3709101618232
 30
0.0
 11
167.6784659292908
 21
125.5506037393273
 31
0.0
  0
LINE
  5
145A
330
1F
100
AcDbEntity
  8
姿図
100
AcDbLine
 10
175.8736324266939
 20
124.6308432760955
 30
0.0
 11
175.8736324266939
 21
123.1202427736508
 31
0.0
  0
ARC
  5
145B
330
1F
100
AcDbEntity
  8
姿図
100
AcDbCircle
 10
175.1060244511792
 20
123.155173187231
 30
0.0
 40
0.7684023281238308
100
AcDbArc
 50
302.6054738088414
 51
357.394522194376
  0
LINE
  5
145C
330
1F
100
AcDbEntity
  8
姿図
100
AcDbLine
 10
175.2018809732395
 20
122.3241785361903
 30
0.0
 11
175.5200790193076
 21
122.5078703581949
 31
0.0
  0
LINE
  5
145D
330
1F
100
AcDbEntity
  8
姿図
100
AcDbLine
 10
175.2018809732395
 20
123.5489897646654
 30
0.0
 11
175.2018809732395
 21
122.3241785361903
 31
0.0
  0
ARC
  5
145E
330
1F
100
AcDbEntity
  8
姿図
100
AcDbCircle
 10
174.6414843039921
 20
123.6398950593042
 30
0.0
 40
0.5677219385379128
100
AcDbArc
 50
350.7859689835955
 51
129.2032881481115
  0
LINE
  5
145F
330
1F
100
AcDbEntity
  8
姿図
100
AcDbLine
 10
173.5755354227404
 20
123.6716234260403
 30
0.0
 11
174.2826421551945
 21
124.0798274538193
 31
0.0
  0
ARC
  5
1460
330
1F
100
AcDbEntity
  8
姿図
100
AcDbCircle
 10
174.6520781306791
 20
121.9886355395584
 30
0.0
 40
1.997846948107234
100
AcDbArc
 50
122.6054856745903
 51
177.394508254858
  0
LINE
  5
1461
330
1F
100
AcDbEntity
  8
姿図
100
AcDbLine
 10
172.6562965223771
 20
120.8546439126313
 30
0.0
 11
172.6562965223771
 21
122.0794551411064
 31
0.0
  0
LINE
  5
1462
330
1F
100
AcDbEntity
  8
姿図
100
AcDbLine
 10
172.3380983528323
 20
120.670952019345
 30
0.0
 11
172.6562965223771
 21
120.8546439126313
 31
0.0
  0
ARC
  5
1463
330
1F
100
AcDbEntity
  8
姿図
100
AcDbCircle
 10
172.2000821607922
 20
120.8401565601563
 30
0.0
 40
0.2183544043438326
100
AcDbArc
 50
170.785857119201
 51
309.2033218121131
  0
LINE
  5
1464
330
1F
100
AcDbEntity
  8
姿図
100
AcDbLine
 10
171.9845452335595
 20
120.8751205258248
 30
0.0
 11
171.9845452335595
 21
122.3857210282698
 31
0.0
  0
LINE
  5
1465
330
1F
100
AcDbEntity
  8
姿図
100
AcDbLine
 10
171.9845452335595
 20
122.3857210282698
 30
0.0
 11
171.2488281995916
 21
121.9610006249883
 31
0.0
  0
LINE
  5
1466
330
1F
100
AcDbEntity
  8
姿図
100
AcDbLine
 10
171.2216691655381
 20
121.9306979667277
 30
0.0
 11
171.2488281995916
 21
121.9610006249883
 31
0.0
  0
ARC
  5
1467
330
1F
100
AcDbEntity
  8
姿図
100
AcDbCircle
 10
171.1747873123423
 20
121.9717689548782
 30
0.0
 40
0.0623276361394605
100
AcDbArc
 50
300.8278774086331
 51
318.7799220573793
  0
LINE
  5
1468
330
1F
100
AcDbEntity
  8
姿図
100
AcDbLine
 10
170.9062072484235
 20
121.7447607401196
 30
0.0
 11
171.2067277784686
 21
121.918247549344
 31
0.0
  0
LINE
  5
1469
330
1F
100
AcDbEntity
  8
姿図
100
AcDbLine
 10
176.4039625171936
 20
125.4023237539337
 30
0.0
 11
171.4542150607413
 21
122.5448953693973
 31
0.0
  0
LINE
  5
146A
330
1F
100
AcDbEntity
  8
姿図
100
AcDbLine
 10
176.4039625171936
 20
126.2283385463596
 30
0.0
 11
176.4039625171936
 21
125.4023237539337
 31
0.0
  0
LINE
  5
146B
330
1F
100
AcDbEntity
  8
姿図
100
AcDbLine
 10
176.9519702471931
 20
126.5446966750163
 30
0.0
 11
176.4039625171936
 21
126.2283385463596
 31
0.0
  0
LINE
  5
146C
330
1F
100
AcDbEntity
  8
姿図
100
AcDbLine
 10
176.9519702471931
 20
125.2349054294907
 30
0.0
 11
176.9519702471931
 21
126.5446966750163
 31
0.0
  0
LINE
  5
146D
330
1F
100
AcDbEntity
  8
姿図
100
AcDbLine
 10
176.6514498817842
 20
125.0614187153088
 30
0.0
 11
176.9519702471931
 21
125.2349054294907
 31
0.0
  0
ARC
  5
146E
330
1F
100
AcDbEntity
  8
姿図
100
AcDbCircle
 10
176.6341728356115
 20
125.0895393969925
 30
0.0
 40
0.03300407645764
100
AcDbArc
 50
274.0577879456574
 51
301.5661210198299
  0
LINE
  5
146F
330
1F
100
AcDbEntity
  8
姿図
100
AcDbLine
 10
176.6093495018204
 20
125.0555637031376
 30
0.0
 11
176.6365082889197
 21
125.056618055576
 31
0.0
  0
LINE
  5
1470
330
1F
100
AcDbEntity
  8
姿図
100
AcDbLine
 10
176.6093495018204
 20
125.0555637031376
 30
0.0
 11
175.8736324266939
 21
124.6308432760955
 31
0.0
  0
LINE
  5
1471
330
1F
100
AcDbEntity
  8
姿図
100
AcDbLine
 10
171.4542150607413
 20
122.5448953693973
 30
0.0
 11
171.4542150607413
 21
123.3709101618232
 31
0.0
  0
LINE
  5
1472
330
1F
100
AcDbEntity
  8
姿図
100
AcDbLine
 10
169.8455472320603
 20
122.0305036641112
 30
0.0
 11
170.3405224551503
 21
121.7447605500348
 31
0.0
  0
LINE
  5
1473
330
1F
100
AcDbEntity
  8
姿図
100
AcDbLine
 10
169.8455472320603
 20
123.340294909637
 30
0.0
 11
169.8455472320603
 21
122.0305036641112
 31
0.0
  0
ARC
  5
1474
330
1F
100
AcDbEntity
  8
姿図
100
AcDbCircle
 10
162.8705249903701
 20
130.5253885771227
 30
0.0
 40
0.3259241980487912
100
AcDbArc
 50
159.3397598287359
 51
178.8282449802063
  0
LINE
  5
1475
330
1F
100
AcDbEntity
  8
姿図
100
AcDbLine
 10
171.4542144021971
 20
123.3613703452519
 30
0.0
 11
176.050408410104
 21
126.0146966683775
 31
0.0
  0
LINE
  5
1476
330
1F
100
AcDbEntity
  8
姿図
100
AcDbLine
 10
176.050408410104
 20
126.0146966683775
 30
0.0
 11
176.4039625171936
 21
125.4023237539337
 31
0.0
  0
ARC
  5
1477
330
1F
100
AcDbEntity
  8
姿図
100
AcDbCircle
 10
167.8241693291107
 20
123.7222138805879
 30
0.0
 40
0.3069028698101797
100
AcDbArc
 50
327.6524545060174
 51
2.349392339294417
  0
LINE
  5
1478
330
1F
100
AcDbEntity
  8
姿図
100
AcDbLine
 10
168.1308142249237
 20
123.7347947935042
 30
0.0
 11
168.1308142249237
 21
124.7996238313582
 31
0.0
  0
ARC
  5
1479
330
1F
100
AcDbEntity
  8
姿図
100
AcDbCircle
 10
165.4063703979687
 20
138.4824259395103
 30
0.0
 40
8.468927070553038
100
AcDbArc
 50
281.8181840030119
 51
319.8374928650883
  0
LINE
  5
147A
330
1F
100
AcDbEntity
  8
姿図
100
AcDbLine
 10
172.0906118937401
 20
132.8978640953665
 30
0.0
 11
171.8784789026504
 21
133.0203258644502
 31
0.0
  0
LINE
  5
147B
330
1F
100
AcDbEntity
  8
姿図
100
AcDbLine
 10
172.939140236103
 20
124.4635202793348
 30
0.0
 11
171.2503471324995
 21
123.4886007723695
 31
0.0
  0
LINE
  5
147C
330
1F
100
AcDbEntity
  8
姿図
100
AcDbLine
 10
172.939140236103
 20
124.4635202793348
 30
0.0
 11
171.6145227393222
 21
125.2282056834398
 31
0.0
  0
LINE
  5
147D
330
1F
100
AcDbEntity
  8
姿図
100
AcDbLine
 10
173.7876684138296
 20
124.9533651696948
 30
0.0
 11
171.2508021867544
 21
126.4178668697901
 31
0.0
  0
LINE
  5
147E
330
1F
100
AcDbEntity
  8
姿図
100
AcDbLine
 10
175.8382780531925
 20
126.1371569167828
 30
0.0
 11
173.7876684138296
 21
124.9533651696948
 31
0.0
  0
LINE
  5
147F
330
1F
100
AcDbEntity
  8
姿図
100
AcDbLine
 10
176.050408410104
 20
126.0146966683775
 30
0.0
 11
175.8382780531925
 21
126.1371569167828
 31
0.0
  0
ARC
  5
1480
330
1F
100
AcDbEntity
  8
姿図
100
AcDbCircle
 10
163.1261513944738
 20
140.7736654906326
 30
0.0
 40
11.59231444790166
100
AcDbArc
 50
301.8109242047042
 51
316.4282848677771
  0
LINE
  5
1481
330
1F
100
AcDbEntity
  8
姿図
100
AcDbLine
 10
171.5249247955608
 20
132.783524089117
 30
0.0
 11
171.8784789026504
 21
133.0203258644502
 31
0.0
  0
LINE
  5
1482
330
1F
100
AcDbEntity
  8
姿図
100
AcDbLine
 10
172.6421946149195
 20
124.292097008194
 30
0.0
 11
171.3814928139055
 21
125.0198846665235
 31
0.0
  0
LINE
  5
1483
330
1F
100
AcDbEntity
  8
姿図
100
AcDbLine
 10
166.4472274095638
 20
126.7584108480474
 30
0.0
 11
166.3630469821974
 21
126.8070071743642
 31
0.0
  0
LINE
  5
1484
330
1F
100
AcDbEntity
  8
姿図
100
AcDbLine
 10
166.4472274095638
 20
126.7584108480474
 30
0.0
 11
166.9006484742004
 21
125.5657996696476
 31
0.0
  0
LINE
  5
1485
330
1F
100
AcDbEntity
  8
姿図
100
AcDbLine
 10
166.9006484742004
 20
125.5657996696476
 30
0.0
 11
166.9006484742004
 21
125.1015792802579
 31
0.0
  0
LINE
  5
1486
330
1F
100
AcDbEntity
  8
姿図
100
AcDbLine
 10
167.4237066692886
 20
123.7347951736739
 30
0.0
 11
167.4237066692886
 21
124.7996242115279
 31
0.0
  0
LINE
  5
1487
330
1F
100
AcDbEntity
  8
姿図
100
AcDbLine
 10
166.3630469821974
 20
124.3471009777362
 30
0.0
 11
167.4237066692886
 21
123.7347951736739
 31
0.0
  0
LINE
  5
1488
330
1F
100
AcDbEntity
  8
姿図
100
AcDbLine
 10
167.6784659292908
 20
126.0148241287171
 30
0.0
 11
166.9006484742004
 21
125.5657996696476
 31
0.0
  0
LINE
  5
1489
330
1F
100
AcDbEntity
  8
姿図
100
AcDbLine
 10
167.2250448646547
 20
127.2074353071167
 30
0.0
 11
166.4472274095638
 21
126.7584108480474
 31
0.0
  0
LINE
  5
148A
330
1F
100
AcDbEntity
  8
姿図
100
AcDbLine
 10
167.6784659292908
 20
126.0148241287171
 30
0.0
 11
167.2250448646547
 21
127.2074353071167
 31
0.0
  0
LINE
  5
148B
330
1F
100
AcDbEntity
  8
姿図
100
AcDbLine
 10
168.1759220541786
 20
127.2132676057423
 30
0.0
 11
168.0740689263958
 21
127.2720661648488
 31
0.0
  0
LINE
  5
148C
330
1F
100
AcDbEntity
  8
姿図
100
AcDbLine
 10
168.6257869784714
 20
127.5906746987026
 30
0.0
 11
168.6257869784714
 21
127.3241294134842
 31
0.0
  0
ARC
  5
148D
330
1F
100
AcDbEntity
  8
姿図
100
AcDbCircle
 10
167.7772608139713
 20
124.4171562512139
 30
0.0
 40
0.7685162154201908
100
AcDbArc
 50
242.6098121631422
 51
297.3901262277786
  0
LINE
  5
148E
330
1F
100
AcDbEntity
  8
姿図
100
AcDbLine
 10
167.2250448646547
 20
127.2074353071167
 30
0.0
 11
167.1408644372878
 21
127.2560316334335
 31
0.0
  0
LINE
  5
148F
330
1F
100
AcDbEntity
  8
姿図
100
AcDbLine
 10
167.6784659292908
 20
125.5506037393273
 30
0.0
 11
167.6784659292908
 21
126.0148241287171
 31
0.0
  0
ARC
  5
1490
330
1F
100
AcDbEntity
  8
姿図
100
AcDbCircle
 10
172.5940313868223
 20
120.9920737126586
 30
0.0
 40
0.1508770924999199
100
AcDbArc
 50
294.3737904747522
 51
354.3063595692644
  0
LWPOLYLINE
  5
1491
330
1F
100
AcDbEntity
  8
姿図
100
AcDbPolyline
 90
        4
 70
   128
 43
0.0
 10
168.0834464355531
 20
123.5580043998246
 10
168.0577526630296
 20
123.5284331004151
 10
168.027259418132
 20
123.5058849859189
 10
168.0272383447078
 20
123.5058735769981
  0
ARC
  5
1492
330
1F
100
AcDbEntity
  8
姿図
100
AcDbCircle
 10
174.9897490263512
 20
123.9584034308301
 30
0.0
 40
0.4611068346198959
100
AcDbArc
 50
242.6095473387545
 51
297.3902986386902
  0
LINE
  5
1493
330
1F
100
AcDbEntity
  8
姿図
100
AcDbLine
 10
174.280630630995
 20
126.6935213039715
 30
0.0
 11
175.5413324320089
 21
125.9657336456422
 31
0.0
  0
LINE
  5
1494
330
1F
100
AcDbEntity
  8
姿図
100
AcDbLine
 10
171.2066765766331
 20
129.0804829163656
 30
0.0
 11
171.3085297044159
 21
129.0216843572592
 31
0.0
  0
LINE
  5
1495
330
1F
100
AcDbEntity
  8
姿図
100
AcDbLine
 10
172.1747923211065
 20
130.0648636916531
 30
0.0
 11
172.0906118937401
 21
130.1134600179699
 31
0.0
  0
LINE
  5
1496
330
1F
100
AcDbEntity
  8
姿図
100
AcDbLine
 10
172.1747923211065
 20
130.0648636916531
 30
0.0
 11
172.6282133857426
 21
128.8722525132535
 31
0.0
  0
LINE
  5
1497
330
1F
100
AcDbEntity
  8
姿図
100
AcDbLine
 10
172.6282133857426
 20
128.8722525132535
 30
0.0
 11
172.6282133857426
 21
128.8715532676248
 31
0.0
  0
LINE
  5
1498
330
1F
100
AcDbEntity
  8
姿図
100
AcDbLine
 10
174.5558679910174
 20
127.2952208070936
 30
0.0
 11
176.4039625171936
 21
126.2283385463596
 31
0.0
  0
LINE
  5
1499
330
1F
100
AcDbEntity
  8
姿図
100
AcDbLine
 10
171.5249247955608
 20
128.9977660509322
 30
0.0
 11
171.5249247955608
 21
129.2643113361511
 31
0.0
  0
ARC
  5
149A
330
1F
100
AcDbEntity
  8
姿図
100
AcDbCircle
 10
163.1326912334289
 20
124.5862059391239
 30
0.0
 40
0.5915924166644376
100
AcDbArc
 50
173.7022263338305
 51
234.9855777799044
  0
LINE
  5
149B
330
1F
100
AcDbEntity
  8
姿図
100
AcDbLine
 10
175.8913105601023
 20
127.1570024790786
 30
0.0
 11
175.7675669189658
 21
127.0855667956017
 31
0.0
  0
ARC
  5
149C
330
1F
100
AcDbEntity
  8
姿図
100
AcDbCircle
 10
176.1741533142022
 20
126.6111214918743
 30
0.0
 40
0.6148057219462213
100
AcDbArc
 50
62.60957877520622
 51
117.3904789834005
  0
LINE
  5
149D
330
1F
100
AcDbEntity
  8
姿図
100
AcDbLine
 10
176.4569955180114
 20
127.1570027642057
 30
0.0
 11
176.9519707411014
 21
126.8712596501292
 31
0.0
  0
ARC
  5
149E
330
1F
100
AcDbEntity
  8
姿図
100
AcDbCircle
 10
176.8900003725799
 20
126.7079782562992
 30
0.0
 40
0.1746457561631277
100
AcDbArc
 50
290.7831384590594
 51
69.21668822755022
  0
LINE
  5
149F
330
1F
100
AcDbEntity
  8
姿図
100
AcDbLine
 10
173.2121895819974
 20
128.7451544061122
 30
0.0
 11
173.4060308408335
 21
128.8570565829333
 31
0.0
  0
LINE
  5
14A0
330
1F
100
AcDbEntity
  8
姿図
100
AcDbLine
 10
173.9290890359217
 20
128.5551015142028
 30
0.0
 11
173.4060308408335
 21
128.8570565829333
 31
0.0
  0
LWPOLYLINE
  5
14A1
330
1F
100
AcDbEntity
  8
姿図
100
AcDbPolyline
 90
        8
 70
   128
 43
0.0
 10
174.0122027035032
 20
128.2103941345727
 10
174.0374753368138
 20
128.2405402574078
 10
174.0659284108256
 20
128.2946878209878
 10
174.0755349288357
 20
128.3509998804833
 10
174.0659272583726
 20
128.4073116548514
 10
174.0374756660859
 20
128.4614585531345
 10
173.9912715248616
 20
128.5113607622069
 10
173.9290890359217
 20
128.5551015142028
  0
LINE
  5
14A2
330
1F
100
AcDbEntity
  8
姿図
100
AcDbLine
 10
175.7675669189658
 20
127.0855667956017
 30
0.0
 11
174.274643885191
 21
127.9474129180895
 31
0.0
  0
LINE
  5
14A3
330
1F
100
AcDbEntity
  8
姿図
100
AcDbLine
 10
174.7776159788774
 20
122.3241791064448
 30
0.0
 11
174.7776159788774
 21
123.5489903349199
 31
0.0
  0
ARC
  5
14A4
330
1F
100
AcDbEntity
  8
姿図
100
AcDbCircle
 10
174.9897490263512
 20
122.733592202355
 30
0.0
 40
0.4611068346198738
100
AcDbArc
 50
242.6095473387537
 51
297.3902986386918
  0
LINE
  5
14A5
330
1F
100
AcDbEntity
  8
姿図
100
AcDbLine
 10
173.1834483124454
 20
123.2444725112801
 30
0.0
 11
174.7776159788774
 21
122.3241791064448
 31
0.0
  0
LINE
  5
14A6
330
1F
100
AcDbEntity
  8
姿図
100
AcDbLine
 10
173.4060308408335
 20
129.3212769723228
 30
0.0
 11
172.9526097761969
 21
130.5138881507226
 31
0.0
  0
LINE
  5
14A7
330
1F
100
AcDbEntity
  8
姿図
100
AcDbLine
 10
173.4060308408335
 20
129.3212769723228
 30
0.0
 11
172.6282133857426
 21
128.8722525132535
 31
0.0
  0
LINE
  5
14A8
330
1F
100
AcDbEntity
  8
姿図
100
AcDbLine
 10
172.9526097761969
 20
130.5138881507226
 30
0.0
 11
172.1747923211065
 21
130.0648636916531
 31
0.0
  0
LINE
  5
14A9
330
1F
100
AcDbEntity
  8
姿図
100
AcDbLine
 10
172.9526097761969
 20
130.5138881507226
 30
0.0
 11
172.8684293488305
 21
130.5624844770392
 31
0.0
  0
LINE
  5
14AA
330
1F
100
AcDbEntity
  8
姿図
100
AcDbLine
 10
173.4060308408335
 20
128.8570565829333
 30
0.0
 11
173.4060308408335
 21
129.3212769723228
 31
0.0
  0
LINE
  5
14AB
330
1F
100
AcDbEntity
  8
姿図
100
AcDbLine
 10
169.5096709291066
 20
131.5270053715668
 30
0.0
 11
169.5096709291066
 21
131.4073826576231
 31
0.0
  0
ARC
  5
14AC
330
1F
100
AcDbEntity
  8
姿図
100
AcDbCircle
 10
82.04875870817526
 20
171.47871171712
 30
0.0
 40
0.5754490927229071
100
AcDbArc
 50
172.7452890951855
 51
235.94251501854
  0
LINE
  5
14AD
330
1F
100
AcDbEntity
  8
姿図
100
AcDbLine
 10
81.47791633279806
 20
171.551379734774
 30
0.0
 11
81.47791633279806
 21
177.5937815544381
 31
0.0
  0
LINE
  5
14AE
330
1F
100
AcDbEntity
  8
姿図
100
AcDbLine
 10
81.4787237083647
 20
177.6137291807787
 30
0.0
 11
81.47791633279806
 21
177.5937815544381
 31
0.0
  0
LINE
  5
14AF
330
1F
100
AcDbEntity
  8
姿図
100
AcDbLine
 10
75.82106115607533
 20
174.8170127173438
 30
0.0
 11
81.47791633279806
 21
171.551379734774
 31
0.0
  0
LINE
  5
14B0
330
1F
100
AcDbEntity
  8
姿図
100
AcDbLine
 10
75.82106115607533
 20
174.8170127173438
 30
0.0
 11
75.82106115607533
 21
182.2865022404927
 31
0.0
  0
LINE
  5
14B1
330
1F
100
AcDbEntity
  8
姿図
100
AcDbLine
 10
76.38674825425417
 20
181.9599380298287
 30
0.0
 11
75.82106115607533
 21
182.2865022404927
 31
0.0
  0
LINE
  5
14B2
330
1F
100
AcDbEntity
  8
姿図
100
AcDbLine
 10
76.38674825425417
 20
180.5328503263437
 30
0.0
 11
76.38674825425417
 21
181.9599380298287
 31
0.0
  0
LINE
  5
14B3
330
1F
100
AcDbEntity
  8
姿図
100
AcDbLine
 10
81.47791633279806
 20
177.5937815544381
 30
0.0
 11
76.38674825425417
 21
180.5328503263437
 31
0.0
  0
ARC
  5
14B4
330
1F
100
AcDbEntity
  8
姿図
100
AcDbCircle
 10
76.77055487382952
 20
180.5153840291665
 30
0.0
 40
0.384203842727896
100
AcDbArc
 50
122.6056222582751
 51
177.3943775961046
  0
LINE
  5
14B5
330
1F
100
AcDbEntity
  8
姿図
100
AcDbLine
 10
76.56352530779898
 20
180.8390371637969
 30
0.0
 11
77.1645660386171
 21
181.1860105921611
 31
0.0
  0
ARC
  5
14B6
330
1F
100
AcDbEntity
  8
姿図
100
AcDbCircle
 10
77.02809346435882
 20
181.41114415825
 30
0.0
 40
0.2632677080550264
100
AcDbArc
 50
301.2236120135437
 51
321.903016680423
  0
ARC
  5
14B7
330
1F
100
AcDbEntity
  8
姿図
100
AcDbCircle
 10
76.67890399857609
 20
181.9490255111938
 30
0.0
 40
0.2923594739412521
100
AcDbArc
 50
148.7428388553091
 51
177.8608986872879
  0
ARC
  5
14B8
330
1F
100
AcDbEntity
  8
姿図
100
AcDbCircle
 10
76.11755543900657
 20
182.274288252138
 30
0.0
 40
0.296745751987518
100
AcDbArc
 50
148.9626853096475
 51
177.64105223292
  0
ARC
  5
14B9
330
1F
100
AcDbEntity
  8
姿図
100
AcDbCircle
 10
76.41611845786068
 20
174.7553005029011
 30
0.0
 40
0.5982487691750252
100
AcDbArc
 50
174.0791346225132
 51
234.6086694912112
  0
LINE
  5
14BA
330
1F
100
AcDbEntity
  8
姿図
100
AcDbLine
 10
169.7586509259841
 20
131.2636493459164
 30
0.0
 11
168.4483738944091
 21
132.0200561756726
 31
0.0
  0
LINE
  5
14BB
330
1F
100
AcDbEntity
  8
姿図
100
AcDbLine
 10
167.357700423981
 20
126.8585178283612
 30
0.0
 11
168.6257869784714
 21
127.5905686141294
 31
0.0
  0
LINE
  5
14BC
330
1F
100
AcDbEntity
  8
姿図
100
AcDbLine
 10
170.040000525698
 20
128.4069767172084
 30
0.0
 11
171.5249247955608
 21
129.2642052515776
 31
0.0
  0
LINE
  5
14BD
330
1F
100
AcDbEntity
  8
姿図
100
AcDbLine
 10
165.726650643107
 20
130.4488388837786
 30
0.0
 11
165.726650643107
 21
130.8571093566421
 31
0.0
  0
ARC
  5
14BE
330
1F
100
AcDbEntity
  8
姿図
100
AcDbCircle
 10
166.187214883365
 20
130.8361509821676
 30
0.0
 40
0.4610408581295178
100
AcDbArc
 50
122.6053937235856
 51
177.3945034322355
  0
LINE
  5
14BF
330
1F
100
AcDbEntity
  8
姿図
100
AcDbLine
 10
165.938782975652
 20
131.2245325729967
 30
0.0
 11
173.2926933553759
 21
135.4698546709895
 31
0.0
  0
ARC
  5
14C0
330
1F
100
AcDbEntity
  8
姿図
100
AcDbCircle
 10
173.3755032838581
 20
135.3683321006175
 30
0.0
 40
0.1310126579769147
100
AcDbArc
 50
350.7860426077818
 51
129.2034366844159
  0
LINE
  5
14C1
330
1F
100
AcDbEntity
  8
姿図
100
AcDbLine
 10
173.5048255232846
 20
135.3473541374211
 30
0.0
 11
173.5048255232846
 21
134.9390836645572
 31
0.0
  0
LINE
  5
14C2
330
1F
100
AcDbEntity
  8
姿図
100
AcDbLine
 10
173.5048255232846
 20
134.9390836645572
 30
0.0
 11
165.726650643107
 21
130.4488388837786
 31
0.0
  0
LINE
  5
14C3
330
1F
100
AcDbEntity
  8
姿図
100
AcDbLine
 10
76.0331934886199
 20
183.2273631464403
 30
0.0
 11
124.3106337680866
 21
155.3573901021603
 31
0.0
  0
LINE
  5
14C4
330
1F
100
AcDbEntity
  8
姿図
100
AcDbLine
 10
165.726650643107
 20
130.8571093566421
 30
0.0
 11
126.1935968559442
 21
153.6790555291883
 31
0.0
  0
ARC
  5
14C5
330
1F
100
AcDbEntity
  8
姿図
100
AcDbCircle
 10
76.28162539633288
 20
182.8389815556112
 30
0.0
 40
0.461040858129465
100
AcDbArc
 50
122.6053937235786
 51
177.3945034322353
  0
LINE
  5
14C6
330
1F
100
AcDbEntity
  8
姿図
100
AcDbLine
 10
75.82106115607533
 20
182.451669457222
 30
0.0
 11
75.82106115607533
 21
182.8599399300857
 31
0.0
  0
LINE
  5
14C7
330
1F
100
AcDbEntity
  8
姿図
100
AcDbLine
 10
164.3124368489267
 20
131.265247129421
 30
0.0
 11
165.726650643107
 21
130.4488388837786
 31
0.0
  0
LINE
  5
14C8
330
1F
100
AcDbEntity
  8
姿図
100
AcDbLine
 10
164.3124368489267
 20
129.7138191804466
 30
0.0
 11
164.3124368489267
 21
131.265247129421
 31
0.0
  0
LINE
  5
14C9
330
1F
100
AcDbEntity
  8
姿図
100
AcDbLine
 10
77.23527495025613
 20
180.0838332626054
 30
0.0
 11
124.4480588498455
 21
152.8284732640223
 31
0.0
  0
LINE
  5
14CA
330
1F
100
AcDbEntity
  8
姿図
100
AcDbLine
 10
77.23527495025613
 20
181.6352612115796
 30
0.0
 11
77.23527495025613
 21
180.0838332626054
 31
0.0
  0
LINE
  5
14CB
330
1F
100
AcDbEntity
  8
姿図
100
AcDbLine
 10
75.82106115607533
 20
182.451669457222
 30
0.0
 11
77.23527495025613
 21
181.6352612115796
 31
0.0
  0
LINE
  5
14CC
330
1F
100
AcDbEntity
  8
姿図
100
AcDbLine
 10
173.2926933553759
 20
135.4698546709895
 30
0.0
 11
125.4857151796514
 21
163.0682357237771
 31
0.0
  0
LINE
  5
14CD
330
1F
100
AcDbEntity
  8
姿図
100
AcDbLine
 10
76.0331934886199
 20
183.2273631464403
 30
0.0
 11
83.38710386834376
 21
187.4726852444331
 31
0.0
  0
LINE
  5
14CE
330
1F
100
AcDbEntity
  8
姿図
100
AcDbLine
 10
164.8074117427441
 20
130.9795044720614
 30
0.0
 11
164.8074117427441
 21
130.3261786348217
 31
0.0
  0
LINE
  5
14CF
330
1F
100
AcDbEntity
  8
姿図
100
AcDbLine
 10
164.8074117427441
 20
130.3261786348217
 30
0.0
 11
165.0195437460171
 21
130.4486398336513
 31
0.0
  0
ARC
  5
14D0
330
1F
100
AcDbEntity
  8
姿図
100
AcDbCircle
 10
165.1087970364884
 20
130.322134276165
 30
0.0
 40
0.1548218522523765
100
AcDbArc
 50
70.30847364764708
 51
125.2040632288069
  0
ARC
  5
14D1
330
1F
100
AcDbEntity
  8
姿図
100
AcDbCircle
 10
164.4551495969168
 20
129.6956535218415
 30
0.0
 40
0.1438642401416256
100
AcDbArc
 50
172.7459291279945
 51
235.9420090139018
  0
LINE
  5
14D2
330
1F
100
AcDbEntity
  8
姿図
100
AcDbLine
 10
77.23608232582276
 20
180.0629539177058
 30
0.0
 11
77.23527495025613
 21
180.0838332626054
 31
0.0
  0
ARC
  5
14D3
330
1F
100
AcDbEntity
  8
姿図
100
AcDbCircle
 10
83.4749795989483
 20
187.3500235678231
 30
0.0
 40
0.1508907914292503
100
AcDbArc
 50
65.69236114165835
 51
125.6180912003461
  0
ARC
  5
14D4
330
1F
100
AcDbEntity
  8
姿図
100
AcDbCircle
 10
163.0565874423437
 20
124.5226063698438
 30
0.0
 40
0.4965095641621067
100
AcDbArc
 50
189.2827748737045
 51
237.9684706855458
  0
LINE
  5
14D5
330
1F
100
AcDbEntity
  8
姿図
100
AcDbLine
 10
162.5446689476558
 20
126.2433554266325
 30
0.0
 11
162.5446689476558
 21
126.104857643498
 31
0.0
  0
LINE
  5
14D6
330
1F
100
AcDbEntity
  8
姿図
100
AcDbLine
 10
162.5446689476558
 20
130.6935028964292
 30
0.0
 11
162.5446689476558
 21
126.8149341646877
 31
0.0
  0
LINE
  5
14D7
330
1F
100
AcDbEntity
  8
姿図
100
AcDbLine
 10
162.5446689476558
 20
130.6935028964292
 30
0.0
 11
162.5454763232229
 21
130.7134505227699
 31
0.0
  0
LINE
  5
14D8
330
1F
100
AcDbEntity
  8
姿図
100
AcDbLine
 10
81.47791633279806
 20
177.5937815544381
 30
0.0
 11
124.4459724781414
 21
152.7888507295296
 31
0.0
  0
LINE
  5
14D9
330
1F
100
AcDbEntity
  8
姿図
100
AcDbLine
 10
81.47791633279806
 20
173.7152128226965
 30
0.0
 11
123.7367299008857
 21
149.3197190225256
 31
0.0
  0
LINE
  5
14DA
330
1F
100
AcDbEntity
  8
姿図
100
AcDbLine
 10
81.47791633279806
 20
177.5937815544381
 30
0.0
 11
81.47791633279806
 21
173.7152128226965
 31
0.0
  0
ARC
  5
14DB
330
1F
100
AcDbEntity
  8
姿図
100
AcDbCircle
 10
81.64478724608128
 20
173.7044237269507
 30
0.0
 40
0.1672193358644384
100
AcDbArc
 50
176.3006709076048
 51
221.909798049725
  0
LINE
  5
14DC
330
1F
100
AcDbEntity
  8
姿図
100
AcDbLine
 10
81.56276913410696
 20
173.5518965955021
 30
0.0
 11
81.52034306272483
 21
173.5927279279441
 31
0.0
  0
ARC
  5
14DD
330
1F
100
AcDbEntity
  8
姿図
100
AcDbCircle
 10
81.44961862082712
 20
173.4784079332006
 30
0.0
 40
0.1349207995173092
100
AcDbArc
 50
326.9972007169584
 51
33.00279928304161
  0
LINE
  5
14DE
330
1F
100
AcDbEntity
  8
姿図
100
AcDbLine
 10
81.56276913410696
 20
173.4049192708991
 30
0.0
 11
81.52034306272483
 21
173.315103839095
 31
0.0
  0
LINE
  5
14DF
330
1F
100
AcDbEntity
  8
姿図
100
AcDbLine
 10
81.47791633279806
 20
173.1436340846413
 30
0.0
 11
123.5556567335921
 21
148.8526715989375
 31
0.0
  0
ARC
  5
14E0
330
1F
100
AcDbEntity
  8
姿図
100
AcDbCircle
 10
81.88923802810362
 20
173.1328445291698
 30
0.0
 40
0.4114631836946236
100
AcDbArc
 50
153.7074823203693
 51
178.4973944582493
  0
LINE
  5
14E1
330
1F
100
AcDbEntity
  8
姿図
100
AcDbLine
 10
81.47791633279806
 20
173.0051363015064
 30
0.0
 11
123.5090476665801
 21
148.7410806574606
 31
0.0
  0
LINE
  5
14E2
330
1F
100
AcDbEntity
  8
姿図
100
AcDbLine
 10
81.47791633279806
 20
173.1436340846413
 30
0.0
 11
81.47791633279806
 21
173.0051363015064
 31
0.0
  0
ARC
  5
14E3
330
1F
100
AcDbEntity
  8
姿図
100
AcDbCircle
 10
81.66187704822553
 20
172.9975812036665
 30
0.0
 40
0.1841157905337522
100
AcDbArc
 50
177.6482365131909
 51
212.3501315411816
  0
LINE
  5
14E4
330
1F
100
AcDbEntity
  8
姿図
100
AcDbLine
 10
81.50633713812934
 20
172.8990623694713
 30
0.0
 11
81.60039112330381
 21
172.7652400222524
 31
0.0
  0
ARC
  5
14E5
330
1F
100
AcDbEntity
  8
姿図
100
AcDbCircle
 10
81.43707000868747
 20
172.6835858896567
 30
0.0
 40
0.1825956840933763
100
AcDbArc
 50
333.436751968514
 51
26.56324803142615
  0
LINE
  5
14E6
330
1F
100
AcDbEntity
  8
姿図
100
AcDbLine
 10
81.60039112330381
 20
172.6019317570607
 30
0.0
 11
81.50633186977305
 21
172.3595173707396
 31
0.0
  0
LINE
  5
14E7
330
1F
100
AcDbEntity
  8
姿図
100
AcDbLine
 10
81.47791633279806
 20
172.2224528747371
 30
0.0
 11
123.2258759138959
 21
148.1218688039256
 31
0.0
  0
ARC
  5
14E8
330
1F
100
AcDbEntity
  8
姿図
100
AcDbCircle
 10
81.86999666978457
 20
172.2126464409121
 30
0.0
 40
0.3922029535785191
100
AcDbArc
 50
158.0080168253748
 51
178.5672575240236
  0
ARC
  5
14E9
330
1F
100
AcDbEntity
  8
姿図
100
AcDbCircle
 10
81.64623807518004
 20
172.2135075364054
 30
0.0
 40
0.1685592715823011
100
AcDbArc
 50
176.9579186502763
 51
220.4913295890601
  0
LINE
  5
14EA
330
1F
100
AcDbEntity
  8
姿図
100
AcDbLine
 10
81.51804803511462
 20
172.1040564438373
 30
0.0
 11
81.62124591078285
 21
171.9985709376807
 31
0.0
  0
ARC
  5
14EB
330
1F
100
AcDbEntity
  8
姿図
100
AcDbCircle
 10
81.43434158518724
 20
171.8799803291309
 30
0.0
 40
0.2213525680050939
100
AcDbArc
 50
329.0642089470948
 51
32.39508629977881
  0
LINE
  5
14EC
330
1F
100
AcDbEntity
  8
姿図
100
AcDbLine
 10
81.62420540980159
 20
171.7661880294562
 30
0.0
 11
81.53093575113601
 21
171.553587136463
 31
0.0
  0
LINE
  5
14ED
330
1F
100
AcDbEntity
  8
姿図
100
AcDbLine
 10
81.49982742566775
 20
171.3427944949054
 30
0.0
 11
122.8733811527478
 21
147.4583503229513
 31
0.0
  0
ARC
  5
14EE
330
1F
100
AcDbEntity
  8
姿図
100
AcDbCircle
 10
81.84789021877535
 20
171.3991199059115
 30
0.0
 40
0.352590782452931
100
AcDbArc
 50
154.0177882034124
 51
189.1922265332707
  0
ARC
  5
14EF
330
1F
100
AcDbEntity
  8
姿図
100
AcDbCircle
 10
81.98983482748602
 20
171.4228850278524
 30
0.0
 40
0.4965095641620616
100
AcDbArc
 50
189.282774873705
 51
237.9684706855469
  0
LINE
  5
14F0
330
1F
100
AcDbEntity
  8
姿図
100
AcDbLine
 10
172.5855854704687
 20
126.2642703039944
 30
0.0
 11
173.0098494770141
 21
126.5091927016529
 31
0.0
  0
LINE
  5
14F1
330
1F
100
AcDbEntity
  8
姿図
100
AcDbLine
 10
170.4993784546815
 20
127.9218944332927
 30
0.0
 11
170.1067817955732
 21
127.6952532061838
 31
0.0
  0
LINE
  5
14F2
330
1F
100
AcDbEntity
  8
姿図
100
AcDbLine
 10
169.6864474887435
 20
124.5906335715036
 30
0.0
 11
170.110711824561
 21
124.8355561592471
 31
0.0
  0
LINE
  5
14F3
330
1F
100
AcDbEntity
  8
姿図
100
AcDbLine
 10
167.6002407199099
 20
126.2482578433656
 30
0.0
 11
167.5916108234051
 21
126.2432759101569
 31
0.0
  0
ARC
  5
14F4
330
1F
100
AcDbEntity
  8
姿図
100
AcDbCircle
 10
169.9285719865675
 20
122.2137473907565
 30
0.0
 40
0.2011749815851648
100
AcDbArc
 50
185.6947171714724
 51
245.6254923436993
  0
LINE
  5
14F5
330
1F
100
AcDbEntity
  8
姿図
100
AcDbLine
 10
164.4892139024715
 20
129.8177289725429
 30
0.0
 11
165.1609661791063
 21
129.4299346376762
 31
0.0
  0
ARC
  5
14F6
330
1F
100
AcDbEntity
  8
姿図
100
AcDbCircle
 10
170.4406542211651
 20
121.7349060926805
 30
0.0
 40
0.1006155102106956
100
AcDbArc
 50
174.3793414578336
 51
234.3018674494317
  0
ARC
  5
14F7
330
1F
100
AcDbEntity
  8
姿図
100
AcDbCircle
 10
170.8060736631642
 20
121.7349086287901
 30
0.0
 40
0.1006170909663146
100
AcDbArc
 50
305.6978378811409
 51
5.619227572358206
  0
LINE
  5
14F8
330
1F
100
AcDbEntity
  8
姿図
100
AcDbLine
 10
165.1609638742003
 20
130.040026523768
 30
0.0
 11
165.0176250765927
 21
130.1227742502918
 31
0.0
  0
ARC
  5
14F9
330
1F
100
AcDbEntity
  8
姿図
100
AcDbCircle
 10
171.1078971874204
 20
121.9078067205474
 30
0.0
 40
0.099380564663871
100
AcDbArc
 50
305.2805208950386
 51
6.030569321516985
  0
ARC
  5
14FA
330
1F
100
AcDbEntity
  8
姿図
100
AcDbCircle
 10
169.942782636601
 20
122.0193399877154
 30
0.0
 40
0.0978741618962526
100
AcDbArc
 50
173.4505016440441
 51
235.2371140008364
  0
LINE
  5
14FB
330
1F
100
AcDbEntity
  8
姿図
100
AcDbLine
 10
168.0834464355531
 20
123.5580043998246
 30
0.0
 11
169.7283905177288
 21
122.6083983941167
 31
0.0
  0
LWPOLYLINE
  5
14FC
330
1F
100
AcDbEntity
  8
姿図
100
AcDbPolyline
 90
        5
 70
   128
 43
0.0
 10
171.2291505604208
 20
121.8788177007324
 10
171.2310395953419
 20
121.881396748398
 10
171.2337748599562
 20
121.8934762355983
 10
171.2306105535955
 20
121.9101234347368
 10
171.2216691655381
 20
121.9306979667277
  0
LINE
  5
14FD
330
1F
100
AcDbEntity
  8
姿図
100
AcDbLine
 10
167.6711946101059
 20
123.3651648386609
 30
0.0
 11
169.7273786640922
 21
122.1781550505085
 31
0.0
  0
LINE
  5
14FE
330
1F
100
AcDbEntity
  8
姿図
100
AcDbLine
 10
170.7174924293104
 20
121.6065745402812
 30
0.0
 11
171.9845452335595
 21
120.8751205258248
 31
0.0
  0
ARC
  5
14FF
330
1F
100
AcDbEntity
  8
姿図
100
AcDbCircle
 10
173.425320044973
 20
123.6568447916719
 30
0.0
 40
0.1509406100145797
100
AcDbArc
 50
305.7235475690959
 51
5.61884660931629
  0
ARC
  5
1500
330
1F
100
AcDbEntity
  8
姿図
100
AcDbCircle
 10
172.6007809923204
 20
122.2120086046553
 30
0.0
 40
0.1437094108826673
100
AcDbArc
 50
292.7247222957229
 51
356.1345594188103
  0
ARC
  5
1501
330
1F
100
AcDbEntity
  8
姿図
100
AcDbCircle
 10
174.1296800644737
 20
124.0662971240016
 30
0.0
 40
0.1535593403955771
100
AcDbArc
 50
306.2583642344918
 51
5.05496710465188
  0
ARC
  5
1502
330
1F
100
AcDbEntity
  8
姿図
100
AcDbCircle
 10
167.6703294310292
 20
123.7084853674681
 30
0.0
 40
0.2480221613304984
100
AcDbArc
 50
173.9106958275219
 51
234.7770418337631
  0
ARC
  5
1503
330
1F
100
AcDbEntity
  8
姿図
100
AcDbCircle
 10
174.2761113662737
 20
123.5981074864477
 30
0.0
 40
0.5039041288152422
100
AcDbArc
 50
354.406315029163
 51
53.99615050930382
  0
LINE
  5
1504
330
1F
100
AcDbEntity
  8
姿図
100
AcDbLine
 10
174.7776159788774
 20
123.5489903349199
 30
0.0
 11
174.1582522349418
 21
123.9065414136054
 31
0.0
  0
LINE
  5
1505
330
1F
100
AcDbEntity
  8
姿図
100
AcDbLine
 10
172.0906118937401
 20
133.3877885107102
 30
0.0
 11
171.4541128217066
 21
133.7552316037491
 31
0.0
  0
LINE
  5
1506
330
1F
100
AcDbEntity
  8
姿図
100
AcDbLine
 10
168.6252242521896
 20
132.1221511913446
 30
0.0
 11
169.9169593045977
 21
131.3764484183192
 31
0.0
  0
ARC
  5
1507
330
1F
100
AcDbEntity
  8
姿図
100
AcDbCircle
 10
176.8689453173061
 20
125.4181498040119
 30
0.0
 40
0.2011756440934563
100
AcDbArc
 50
294.3744770026717
 51
354.3050754067461
  0
ARC
  5
1508
330
1F
100
AcDbEntity
  8
姿図
100
AcDbCircle
 10
176.4851706669356
 20
125.0930690265278
 30
0.0
 40
0.155665503921492
100
AcDbArc
 50
276.5193232287492
 51
346.4577597497977
  0
ARC
  5
1509
330
1F
100
AcDbEntity
  8
姿図
100
AcDbCircle
 10
176.5549173399095
 20
125.0499404416083
 30
0.0
 40
0.0972125630149517
100
AcDbArc
 50
304.5006258573204
 51
6.780959187699521
  0
ARC
  5
150A
330
1F
100
AcDbEntity
  8
姿図
100
AcDbCircle
 10
176.856005245717
 20
125.223168059813
 30
0.0
 40
0.0966801290610121
100
AcDbArc
 50
304.3379427576414
 51
6.973147458757008
  0
LINE
  5
150B
330
1F
100
AcDbEntity
  8
姿図
100
AcDbLine
 10
76.56352530779898
 20
180.8390371637969
 30
0.0
 11
77.23527495025613
 21
180.4512443496088
 31
0.0
  0
LINE
  5
150C
330
1F
100
AcDbEntity
  8
姿図
100
AcDbLine
 10
77.23527527952822
 20
181.1451910162521
 30
0.0
 11
77.1645660386171
 21
181.1860105921611
 31
0.0
  0
LINE
  5
150D
330
1F
100
AcDbEntity
  8
姿図
100
AcDbLine
 10
165.0195437460171
 20
130.4486398336513
 30
0.0
 11
164.8074107549274
 21
130.5711016027352
 31
0.0
  0
LINE
  5
150E
330
1F
100
AcDbEntity
  8
姿図
100
AcDbLine
 10
81.52034306272483
 20
173.5927279279441
 30
0.0
 11
123.7069850696826
 21
149.2388978831753
 31
0.0
  0
LINE
  5
150F
330
1F
100
AcDbEntity
  8
姿図
100
AcDbLine
 10
81.56276913410696
 20
173.5518965955021
 30
0.0
 11
123.7019728526739
 21
149.2254520917041
 31
0.0
  0
LINE
  5
1510
330
1F
100
AcDbEntity
  8
姿図
100
AcDbLine
 10
81.56276913410696
 20
173.4049192708991
 30
0.0
 11
123.6562130928051
 21
149.1048913141811
 31
0.0
  0
LINE
  5
1511
330
1F
100
AcDbEntity
  8
姿図
100
AcDbLine
 10
81.52034306272483
 20
173.315103839095
 30
0.0
 11
123.6197898196711
 21
149.0116105407104
 31
0.0
  0
LINE
  5
1512
330
1F
100
AcDbEntity
  8
姿図
100
AcDbLine
 10
81.50633713812934
 20
172.8990623694713
 30
0.0
 11
123.4783076096106
 21
148.6691595642679
 31
0.0
  0
LINE
  5
1513
330
1F
100
AcDbEntity
  8
姿図
100
AcDbLine
 10
81.60039112330381
 20
172.7652400222524
 30
0.0
 11
123.4506740328844
 21
148.6055859512477
 31
0.0
  0
LINE
  5
1514
330
1F
100
AcDbEntity
  8
姿図
100
AcDbLine
 10
81.60039112330381
 20
172.6019317570607
 30
0.0
 11
123.3928403369824
 21
148.4756643680449
 31
0.0
  0
LINE
  5
1515
330
1F
100
AcDbEntity
  8
姿図
100
AcDbLine
 10
81.50633186977305
 20
172.3595173707396
 30
0.0
 11
123.284033747274
 21
148.2417634376851
 31
0.0
  0
LINE
  5
1516
330
1F
100
AcDbEntity
  8
姿図
100
AcDbLine
 10
81.51804803511462
 20
172.1040564438373
 30
0.0
 11
123.1891457597908
 21
148.0478437782659
 31
0.0
  0
LINE
  5
1517
330
1F
100
AcDbEntity
  8
姿図
100
AcDbLine
 10
81.62124591078285
 20
171.9985709376807
 30
0.0
 11
123.1712622814585
 21
148.0122570499364
 31
0.0
  0
LINE
  5
1518
330
1F
100
AcDbEntity
  8
姿図
100
AcDbLine
 10
81.62420540980159
 20
171.7661880294562
 30
0.0
 11
123.07968206213
 21
147.8344507594178
 31
0.0
  0
LINE
  5
1519
330
1F
100
AcDbEntity
  8
姿図
100
AcDbLine
 10
81.53093575113601
 20
171.553587136463
 30
0.0
 11
122.9703235291768
 21
147.6311377758521
 31
0.0
  0
ARC
  5
151A
330
1F
100
AcDbEntity
  8
姿図
100
AcDbCircle
 10
134.586649703535
 20
160.8678491590448
 30
0.0
 40
11.33320483056453
100
AcDbArc
 50
146.8071195560385
 51
198.7420575709292
  0
ARC
  5
151B
330
1F
100
AcDbEntity
  8
姿図
100
AcDbCircle
 10
136.3331016295784
 20
160.185521573927
 30
0.0
 40
11.22389565453112
100
AcDbArc
 50
150.0672350020949
 51
200.99571711236
  0
ARC
  5
151C
330
1F
100
AcDbEntity
  8
姿図
100
AcDbCircle
 10
112.4098661735002
 20
153.4424924272726
 30
0.0
 40
12.0538418127022
100
AcDbArc
 50
317.3260555355279
 51
18.29544273855015
  0
ARC
  5
151D
330
1F
100
AcDbEntity
  8
姿図
100
AcDbCircle
 10
112.785327175046
 20
153.114420179283
 30
0.0
 40
13.42015308832426
100
AcDbArc
 50
318.5307748068752
 51
13.13465349360216
  0
LINE
  5
151E
330
1F
100
AcDbEntity
  8
姿図
100
AcDbLine
 10
123.746342159539
 20
164.1737929097938
 30
0.0
 11
83.38710386834376
 21
187.4726852444331
 31
0.0
  0
LINE
  5
151F
330
1F
100
AcDbEntity
  8
姿図
100
AcDbLine
 10
123.7729649556505
 20
164.2598624115099
 30
0.0
 11
83.53709166057618
 21
187.4875376497872
 31
0.0
  0
LINE
  5
1520
330
1F
100
AcDbEntity
  8
姿図
100
AcDbLine
 10
126.1322086401961
 20
151.7139687987286
 30
0.0
 11
162.5446689476558
 21
130.6935028964292
 31
0.0
  0
LINE
  5
1521
330
1F
100
AcDbEntity
  8
姿図
100
AcDbLine
 10
126.1361948465351
 20
151.7524945820315
 30
0.0
 11
164.3124368489267
 21
129.7138191804466
 31
0.0
  0
LINE
  5
1522
330
1F
100
AcDbEntity
  8
姿図
100
AcDbLine
 10
124.3841554152455
 20
154.8250623534146
 30
0.0
 11
75.82106115607533
 21
182.8599399300857
 31
0.0
  0
LINE
  5
1523
330
1F
100
AcDbEntity
  8
姿図
100
AcDbLine
 10
126.1625611529417
 20
154.186856664436
 30
0.0
 11
165.938782975652
 21
131.2245325729967
 31
0.0
  0
LINE
  5
1524
330
1F
100
AcDbEntity
  8
姿図
100
AcDbLine
 10
124.3450817280932
 20
146.2973398960999
 30
0.0
 11
162.7932457918173
 21
124.1016872298629
 31
0.0
  0
LINE
  5
1525
330
1F
100
AcDbEntity
  8
姿図
100
AcDbLine
 10
124.4363938446405
 20
146.454603787315
 30
0.0
 11
162.5665800405255
 21
124.4425158368968
 31
0.0
  0
LINE
  5
1526
330
1F
100
AcDbEntity
  8
姿図
100
AcDbLine
 10
124.5334410400361
 20
146.6273307295149
 30
0.0
 11
162.5446702647451
 21
124.6839151768232
 31
0.0
  0
LINE
  5
1527
330
1F
100
AcDbEntity
  8
姿図
100
AcDbLine
 10
124.6432842432164
 20
146.8303639189138
 30
0.0
 11
162.5446689476558
 21
124.9503602580138
 31
0.0
  0
LINE
  5
1528
330
1F
100
AcDbEntity
  8
姿図
100
AcDbLine
 10
124.735600446406
 20
147.0077453349932
 30
0.0
 11
162.5446702647451
 21
125.1810339234816
 31
0.0
  0
LINE
  5
1529
330
1F
100
AcDbEntity
  8
姿図
100
AcDbLine
 10
124.7536655960913
 20
147.0432271866829
 30
0.0
 11
162.5446689476558
 21
125.2269453244411
 31
0.0
  0
LINE
  5
152A
330
1F
100
AcDbEntity
  8
姿図
100
AcDbLine
 10
124.7908099686948
 20
147.1170130890931
 30
0.0
 11
162.5446689476558
 21
125.3221742167285
 31
0.0
  0
LINE
  5
152B
330
1F
100
AcDbEntity
  8
姿図
100
AcDbLine
 10
124.8497419106844
 20
147.2364608394635
 30
0.0
 11
162.5446696062004
 21
125.4756422728891
 31
0.0
  0
LINE
  5
152C
330
1F
100
AcDbEntity
  8
姿図
100
AcDbLine
 10
124.9604210208195
 20
147.4692807867906
 30
0.0
 11
162.5446702647451
 21
125.7723555303117
 31
0.0
  0
LINE
  5
152D
330
1F
100
AcDbEntity
  8
姿図
100
AcDbLine
 10
125.0194989158663
 20
147.5984841091157
 30
0.0
 11
162.5446702647451
 21
125.9356637955035
 31
0.0
  0
LINE
  5
152E
330
1F
100
AcDbEntity
  8
姿図
100
AcDbLine
 10
125.0477938531372
 20
147.66167592682
 30
0.0
 11
162.5446696062004
 21
126.0151903129782
 31
0.0
  0
LINE
  5
152F
330
1F
100
AcDbEntity
  8
姿図
100
AcDbLine
 10
125.0793234940748
 20
147.7331412028903
 30
0.0
 11
162.5446689476558
 21
126.104857643498
 31
0.0
  0
LINE
  5
1530
330
1F
100
AcDbEntity
  8
姿図
100
AcDbLine
 10
125.1272442052801
 20
147.8439749482917
 30
0.0
 11
162.5446689476558
 21
126.2433554266325
 31
0.0
  0
LINE
  5
1531
330
1F
100
AcDbEntity
  8
姿図
100
AcDbLine
 10
125.193426124411
 20
148.0017311239197
 30
0.0
 11
162.5446696062004
 21
126.4393172307674
 31
0.0
  0
LINE
  5
1532
330
1F
100
AcDbEntity
  8
姿図
100
AcDbLine
 10
125.2311501856557
 20
148.0942609683981
 30
0.0
 11
162.5446696062004
 21
126.5536247122523
 31
0.0
  0
LINE
  5
1533
330
1F
100
AcDbEntity
  8
姿図
100
AcDbLine
 10
125.278698441352
 20
148.2137892692568
 30
0.0
 11
162.5446696062004
 21
126.7006020368554
 31
0.0
  0
LINE
  5
1534
330
1F
100
AcDbEntity
  8
姿図
100
AcDbLine
 10
125.2839176069252
 20
148.227115591865
 30
0.0
 11
162.5446696062004
 21
126.7169413196164
 31
0.0
  0
LINE
  5
1535
330
1F
100
AcDbEntity
  8
姿図
100
AcDbLine
 10
125.3149379721204
 20
148.3072003811149
 30
0.0
 11
162.5446689476558
 21
126.8149341646877
 31
0.0
  0
LINE
  5
177E
330
1F
100
AcDbEntity
  8
姿図
100
AcDbLine
 10
73.34499808057032
 20
123.5717805238154
 30
0.0
 11
81.46683565389137
 21
118.8986635654116
 31
0.0
  0
LINE
  5
177F
330
1F
100
AcDbEntity
  8
姿図
100
AcDbLine
 10
-14.60401165034412
 20
174.4451016463372
 30
0.0
 11
-7.721754534287385
 21
170.472059181824
 31
0.0
  0
LINE
  5
1780
330
1F
100
AcDbEntity
  8
姿図
100
AcDbLine
 10
75.71271748004253
 20
129.9385307797954
 30
0.0
 11
75.3591633729529
 21
130.1426332213757
 31
0.0
  0
LINE
  5
1781
330
1F
100
AcDbEntity
  8
姿図
100
AcDbLine
 10
88.86551491525913
 20
132.1427848879609
 30
0.0
 11
36.06116955568129
 21
162.6260846087666
 31
0.0
  0
LINE
  5
1782
330
1F
100
AcDbEntity
  8
姿図
100
AcDbLine
 10
-7.721754534287385
 20
170.472059181824
 30
0.0
 11
33.33366478121613
 21
146.7712700964643
 31
0.0
  0
ARC
  5
1783
330
1F
100
AcDbEntity
  8
姿図
100
AcDbCircle
 10
76.79569231252796
 20
122.2003629645246
 30
0.0
 40
0.5240511487742436
100
AcDbArc
 50
170.7859830423211
 51
239.9946337495687
  0
LINE
  5
1784
330
1F
100
AcDbEntity
  8
姿図
100
AcDbLine
 10
76.27840293185997
 20
122.2842754378527
 30
0.0
 11
76.27840293185997
 21
129.9189321777312
 31
0.0
  0
LINE
  5
1785
330
1F
100
AcDbEntity
  8
姿図
100
AcDbLine
 10
76.27840293185997
 20
129.7147965610679
 30
0.0
 11
75.71271583368113
 21
130.0413607717318
 31
0.0
  0
ARC
  5
1786
330
1F
100
AcDbEntity
  8
姿図
100
AcDbCircle
 10
76.07321540982863
 20
130.0290440266248
 30
0.0
 40
0.3607099203136724
100
AcDbArc
 50
148.8566059581336
 51
178.0432068053435
  0
LINE
  5
1787
330
1F
100
AcDbEntity
  8
姿図
100
AcDbLine
 10
73.09642123640876
 20
124.1211943707178
 30
0.0
 11
81.20485258458754
 21
119.3524806301572
 31
0.0
  0
LINE
  5
1788
330
1F
100
AcDbEntity
  8
姿図
100
AcDbLine
 10
73.09642123640876
 20
124.1211943707178
 30
0.0
 11
73.09642123640876
 21
130.0021468767276
 31
0.0
  0
LINE
  5
1789
330
1F
100
AcDbEntity
  8
姿図
100
AcDbLine
 10
75.71271583368113
 20
128.4917921545265
 30
0.0
 11
73.09642123640876
 21
130.0021468767276
 31
0.0
  0
LINE
  5
178A
330
1F
100
AcDbEntity
  8
姿図
100
AcDbLine
 10
75.71271583368113
 20
130.0413607717318
 30
0.0
 11
75.71271583368113
 21
128.4917921545265
 31
0.0
  0
ARC
  5
178B
330
1F
100
AcDbEntity
  8
姿図
100
AcDbCircle
 10
73.42227727912311
 20
129.9954818710752
 30
0.0
 40
0.3259241980487912
100
AcDbArc
 50
159.3397598287376
 51
178.8282449802062
  0
ARC
  5
178C
330
1F
100
AcDbEntity
  8
姿図
100
AcDbCircle
 10
73.68444352218191
 20
124.0562992330765
 30
0.0
 40
0.5915924166644376
100
AcDbArc
 50
173.7022263338303
 51
234.9855777799036
  0
ARC
  5
178D
330
1F
100
AcDbEntity
  8
姿図
100
AcDbCircle
 10
-7.39948900307175
 20
170.9488050110726
 30
0.0
 40
0.5754490927229071
100
AcDbArc
 50
172.7452890951855
 51
235.94251501854
  0
LINE
  5
178E
330
1F
100
AcDbEntity
  8
姿図
100
AcDbLine
 10
-7.970331378448947
 20
171.0214730287266
 30
0.0
 11
-7.970331378448947
 21
177.0638748483906
 31
0.0
  0
LINE
  5
178F
330
1F
100
AcDbEntity
  8
姿図
100
AcDbLine
 10
-7.969524002882309
 20
177.0838224747312
 30
0.0
 11
-7.970331378448947
 21
177.0638748483906
 31
0.0
  0
LINE
  5
1790
330
1F
100
AcDbEntity
  8
姿図
100
AcDbLine
 10
-13.62718655517168
 20
174.2871060112963
 30
0.0
 11
-7.970331378448947
 21
171.0214730287266
 31
0.0
  0
LINE
  5
1791
330
1F
100
AcDbEntity
  8
姿図
100
AcDbLine
 10
-13.62718655517168
 20
174.2871060112963
 30
0.0
 11
-13.62718655517168
 21
181.7565955344452
 31
0.0
  0
LINE
  5
1792
330
1F
100
AcDbEntity
  8
姿図
100
AcDbLine
 10
-13.06149945699283
 20
181.4300313237813
 30
0.0
 11
-13.62718655517168
 21
181.7565955344452
 31
0.0
  0
LINE
  5
1793
330
1F
100
AcDbEntity
  8
姿図
100
AcDbLine
 10
-13.06149945699283
 20
180.0029436202962
 30
0.0
 11
-13.06149945699283
 21
181.4300313237813
 31
0.0
  0
LINE
  5
1794
330
1F
100
AcDbEntity
  8
姿図
100
AcDbLine
 10
-7.970331378448947
 20
177.0638748483906
 30
0.0
 11
-13.06149945699283
 21
180.0029436202962
 31
0.0
  0
ARC
  5
1795
330
1F
100
AcDbEntity
  8
姿図
100
AcDbCircle
 10
-12.67769283741748
 20
179.985477323119
 30
0.0
 40
0.384203842727896
100
AcDbArc
 50
122.6056222582751
 51
177.3943775961046
  0
LINE
  5
1796
330
1F
100
AcDbEntity
  8
姿図
100
AcDbLine
 10
-12.88472240344802
 20
180.3091304577494
 30
0.0
 11
-12.28368167262991
 21
180.6561038861136
 31
0.0
  0
ARC
  5
1797
330
1F
100
AcDbEntity
  8
姿図
100
AcDbCircle
 10
-12.42015424688819
 20
180.8812374522026
 30
0.0
 40
0.2632677080550264
100
AcDbArc
 50
301.2236120135522
 51
321.9030166804192
  0
ARC
  5
1798
330
1F
100
AcDbEntity
  8
姿図
100
AcDbCircle
 10
-12.76934371267092
 20
181.4191188051463
 30
0.0
 40
0.2923594739412521
100
AcDbArc
 50
148.7428388553091
 51
177.8608986872879
  0
ARC
  5
1799
330
1F
100
AcDbEntity
  8
姿図
100
AcDbCircle
 10
-13.33069227224044
 20
181.7443815460906
 30
0.0
 40
0.296745751987518
100
AcDbArc
 50
148.9626853096504
 51
177.64105223292
  0
ARC
  5
179A
330
1F
100
AcDbEntity
  8
姿図
100
AcDbCircle
 10
-13.03212925338633
 20
174.2253937968537
 30
0.0
 40
0.5982487691750252
100
AcDbArc
 50
174.0791346225132
 51
234.6086694912112
  0
LINE
  5
179B
330
1F
100
AcDbEntity
  8
姿図
100
AcDbLine
 10
76.27840293185997
 20
129.9189321777312
 30
0.0
 11
76.27840293185997
 21
130.3272026505946
 31
0.0
  0
ARC
  5
179C
330
1F
100
AcDbEntity
  8
姿図
100
AcDbCircle
 10
76.73896717211798
 20
130.3062442761201
 30
0.0
 40
0.4610408581295178
100
AcDbArc
 50
122.6053937235777
 51
177.3945034322356
  0
LINE
  5
179D
330
1F
100
AcDbEntity
  8
姿図
100
AcDbLine
 10
76.490535264405
 20
130.6946258669493
 30
0.0
 11
83.84444564412885
 21
134.9399479649421
 31
0.0
  0
ARC
  5
179E
330
1F
100
AcDbEntity
  8
姿図
100
AcDbCircle
 10
83.92725557261107
 20
134.83842539457
 30
0.0
 40
0.1310126579769147
100
AcDbArc
 50
350.7860426077818
 51
129.2034366844238
  0
LINE
  5
179F
330
1F
100
AcDbEntity
  8
姿図
100
AcDbLine
 10
-14.64045616196066
 20
183.404865922336
 30
0.0
 11
34.86238605683954
 21
154.8274833961129
 31
0.0
  0
LINE
  5
17A0
330
1F
100
AcDbEntity
  8
姿図
100
AcDbLine
 10
81.21161435269366
 20
127.4793203162273
 30
0.0
 11
36.7453491446972
 21
153.1491488231408
 31
0.0
  0
ARC
  5
17A1
330
1F
100
AcDbEntity
  8
姿図
100
AcDbCircle
 10
-13.16662231491412
 20
182.3090748495637
 30
0.0
 40
0.461040858129465
100
AcDbArc
 50
122.6053937235816
 51
177.3945034322353
  0
LINE
  5
17A2
330
1F
100
AcDbEntity
  8
姿図
100
AcDbLine
 10
-13.62718655517168
 20
181.9217627511745
 30
0.0
 11
-13.62718655517168
 21
182.3300332240382
 31
0.0
  0
LINE
  5
17A3
330
1F
100
AcDbEntity
  8
姿図
100
AcDbLine
 10
74.86418913767963
 20
130.7353404233735
 30
0.0
 11
76.27840293185997
 21
129.9189321777312
 31
0.0
  0
LINE
  5
17A4
330
1F
100
AcDbEntity
  8
姿図
100
AcDbLine
 10
74.86418913767963
 20
129.1839124743992
 30
0.0
 11
74.86418913767963
 21
130.7353404233735
 31
0.0
  0
LINE
  5
17A5
330
1F
100
AcDbEntity
  8
姿図
100
AcDbLine
 10
-12.21297276099088
 20
179.553926556558
 30
0.0
 11
34.99981113859846
 21
152.2985665579749
 31
0.0
  0
LINE
  5
17A6
330
1F
100
AcDbEntity
  8
姿図
100
AcDbLine
 10
-12.21297276099088
 20
181.1053545055321
 30
0.0
 11
-12.21297276099088
 21
179.553926556558
 31
0.0
  0
LINE
  5
17A7
330
1F
100
AcDbEntity
  8
姿図
100
AcDbLine
 10
-13.62718655517168
 20
181.9217627511745
 30
0.0
 11
-12.21297276099088
 21
181.1053545055321
 31
0.0
  0
LINE
  5
17A8
330
1F
100
AcDbEntity
  8
姿図
100
AcDbLine
 10
88.77765706496254
 20
132.0920656305747
 30
0.0
 11
36.0374674684044
 21
162.5383290177296
 31
0.0
  0
LINE
  5
17A9
330
1F
100
AcDbEntity
  8
姿図
100
AcDbLine
 10
-13.41505422262711
 20
182.6974564403928
 30
0.0
 11
-6.061143842903249
 21
186.9427785383857
 31
0.0
  0
LINE
  5
17AA
330
1F
100
AcDbEntity
  8
姿図
100
AcDbLine
 10
75.3591640314971
 20
130.4495977660139
 30
0.0
 11
75.3591640314971
 21
129.7962719287743
 31
0.0
  0
LINE
  5
17AB
330
1F
100
AcDbEntity
  8
姿図
100
AcDbLine
 10
75.3591640314971
 20
129.7962719287743
 30
0.0
 11
75.57129603477003
 21
129.9187331276038
 31
0.0
  0
ARC
  5
17AC
330
1F
100
AcDbEntity
  8
姿図
100
AcDbCircle
 10
75.66054932524136
 20
129.7922275701175
 30
0.0
 40
0.1548218522523765
100
AcDbArc
 50
70.30847364764708
 51
125.2040632288008
  0
ARC
  5
17AD
330
1F
100
AcDbEntity
  8
姿図
100
AcDbCircle
 10
75.00690188566975
 20
129.1657468157941
 30
0.0
 40
0.1438642401416256
100
AcDbArc
 50
172.7459291279945
 51
235.9420090139018
  0
LINE
  5
17AE
330
1F
100
AcDbEntity
  8
姿図
100
AcDbLine
 10
-12.21216538542424
 20
179.5330472116584
 30
0.0
 11
-12.21297276099088
 21
179.553926556558
 31
0.0
  0
ARC
  5
17AF
330
1F
100
AcDbEntity
  8
姿図
100
AcDbCircle
 10
-5.973268112298712
 20
186.8201168617756
 30
0.0
 40
0.1508907914292503
100
AcDbArc
 50
65.69236114164852
 51
125.6180912003549
  0
ARC
  5
17B0
330
1F
100
AcDbEntity
  8
姿図
100
AcDbCircle
 10
73.60833973109672
 20
123.9926996637964
 30
0.0
 40
0.4965095641621067
100
AcDbArc
 50
189.2827748737039
 51
237.9684706855458
  0
LINE
  5
17B1
330
1F
100
AcDbEntity
  8
姿図
100
AcDbLine
 10
73.09642123640876
 20
125.7134487205851
 30
0.0
 11
73.09642123640876
 21
125.5749509374504
 31
0.0
  0
LINE
  5
17B2
330
1F
100
AcDbEntity
  8
姿図
100
AcDbLine
 10
73.09642123640876
 20
130.1635961903816
 30
0.0
 11
73.09642123640876
 21
126.2850274586403
 31
0.0
  0
LINE
  5
17B3
330
1F
100
AcDbEntity
  8
姿図
100
AcDbLine
 10
73.09642123640876
 20
130.1635961903816
 30
0.0
 11
73.09722861197585
 21
130.1835438167224
 31
0.0
  0
LINE
  5
17B4
330
1F
100
AcDbEntity
  8
姿図
100
AcDbLine
 10
-7.970331378448947
 20
177.0638748483906
 30
0.0
 11
34.99772476689438
 21
152.2589440234821
 31
0.0
  0
LINE
  5
17B5
330
1F
100
AcDbEntity
  8
姿図
100
AcDbLine
 10
-7.970331378448947
 20
173.1853061166491
 30
0.0
 11
34.28848218963864
 21
148.7898123164782
 31
0.0
  0
LINE
  5
17B6
330
1F
100
AcDbEntity
  8
姿図
100
AcDbLine
 10
-7.970331378448947
 20
177.0638748483906
 30
0.0
 11
-7.970331378448947
 21
173.1853061166491
 31
0.0
  0
ARC
  5
17B7
330
1F
100
AcDbEntity
  8
姿図
100
AcDbCircle
 10
-7.803460465165728
 20
173.1745170209032
 30
0.0
 40
0.1672193358644384
100
AcDbArc
 50
176.3006709076048
 51
221.909798049725
  0
LINE
  5
17B8
330
1F
100
AcDbEntity
  8
姿図
100
AcDbLine
 10
-7.885478577140049
 20
173.0219898894547
 30
0.0
 11
-7.927904648522173
 21
173.0628212218966
 31
0.0
  0
ARC
  5
17B9
330
1F
100
AcDbEntity
  8
姿図
100
AcDbCircle
 10
-7.998629090419882
 20
172.9485012271531
 30
0.0
 40
0.1349207995173092
100
AcDbArc
 50
326.9972007169649
 51
33.00279928303505
  0
LINE
  5
17BA
330
1F
100
AcDbEntity
  8
姿図
100
AcDbLine
 10
-7.885478577140049
 20
172.8750125648516
 30
0.0
 11
-7.927904648522173
 21
172.7851971330476
 31
0.0
  0
LINE
  5
17BB
330
1F
100
AcDbEntity
  8
姿図
100
AcDbLine
 10
-7.970331378448947
 20
172.6137273785939
 30
0.0
 11
34.10740902234508
 21
148.32276489289
 31
0.0
  0
ARC
  5
17BC
330
1F
100
AcDbEntity
  8
姿図
100
AcDbCircle
 10
-7.559009683143387
 20
172.6029378231223
 30
0.0
 40
0.4114631836946236
100
AcDbArc
 50
153.7074823203693
 51
178.4973944582493
  0
LINE
  5
17BD
330
1F
100
AcDbEntity
  8
姿図
100
AcDbLine
 10
-7.970331378448947
 20
172.475229595459
 30
0.0
 11
34.06079995533307
 21
148.2111739514132
 31
0.0
  0
LINE
  5
17BE
330
1F
100
AcDbEntity
  8
姿図
100
AcDbLine
 10
-7.970331378448947
 20
172.6137273785939
 30
0.0
 11
-7.970331378448947
 21
172.475229595459
 31
0.0
  0
ARC
  5
17BF
330
1F
100
AcDbEntity
  8
姿図
100
AcDbCircle
 10
-7.786370663021472
 20
172.467674497619
 30
0.0
 40
0.1841157905337522
100
AcDbArc
 50
177.6482365131909
 51
212.3501315411768
  0
LINE
  5
17C0
330
1F
100
AcDbEntity
  8
姿図
100
AcDbLine
 10
-7.941910573117667
 20
172.3691556634239
 30
0.0
 11
-7.847856587943198
 21
172.235333316205
 31
0.0
  0
ARC
  5
17C1
330
1F
100
AcDbEntity
  8
姿図
100
AcDbCircle
 10
-8.011177702559536
 20
172.1536791836092
 30
0.0
 40
0.1825956840933763
100
AcDbArc
 50
333.436751968514
 51
26.56324803142615
  0
LINE
  5
17C2
330
1F
100
AcDbEntity
  8
姿図
100
AcDbLine
 10
-7.847856587943198
 20
172.0720250510132
 30
0.0
 11
-7.941915841473957
 21
171.8296106646921
 31
0.0
  0
LINE
  5
17C3
330
1F
100
AcDbEntity
  8
姿図
100
AcDbLine
 10
-7.970331378448947
 20
171.6925461686896
 30
0.0
 11
33.77762820264886
 21
147.5919620978781
 31
0.0
  0
ARC
  5
17C4
330
1F
100
AcDbEntity
  8
姿図
100
AcDbCircle
 10
-7.578251041462437
 20
171.6827397348647
 30
0.0
 40
0.3922029535785191
100
AcDbArc
 50
158.0080168253748
 51
178.5672575240236
  0
ARC
  5
17C5
330
1F
100
AcDbEntity
  8
姿図
100
AcDbCircle
 10
-7.80200963606697
 20
171.683600830358
 30
0.0
 40
0.1685592715823011
100
AcDbArc
 50
176.9579186502763
 51
220.4913295890601
  0
LINE
  5
17C6
330
1F
100
AcDbEntity
  8
姿図
100
AcDbLine
 10
-7.930199676132389
 20
171.5741497377898
 30
0.0
 11
-7.82700180046416
 21
171.4686642316332
 31
0.0
  0
ARC
  5
17C7
330
1F
100
AcDbEntity
  8
姿図
100
AcDbCircle
 10
-8.013906126059766
 20
171.3500736230835
 30
0.0
 40
0.2213525680050939
100
AcDbArc
 50
329.0642089470986
 51
32.39508629977881
  0
LINE
  5
17C8
330
1F
100
AcDbEntity
  8
姿図
100
AcDbLine
 10
-7.824042301445417
 20
171.2362813234087
 30
0.0
 11
-7.917311960110993
 21
171.0236804304156
 31
0.0
  0
LINE
  5
17C9
330
1F
100
AcDbEntity
  8
姿図
100
AcDbLine
 10
-7.94842028557926
 20
170.8128877888579
 30
0.0
 11
33.42513344150072
 21
146.9284436169038
 31
0.0
  0
ARC
  5
17CA
330
1F
100
AcDbEntity
  8
姿図
100
AcDbCircle
 10
-7.600357492471659
 20
170.8692131998641
 30
0.0
 40
0.352590782452931
100
AcDbArc
 50
154.0177882034124
 51
189.1922265332707
  0
ARC
  5
17CB
330
1F
100
AcDbEntity
  8
姿図
100
AcDbCircle
 10
-7.458412883760985
 20
170.8929783218049
 30
0.0
 40
0.4965095641620616
100
AcDbArc
 50
189.282774873705
 51
237.9684706855424
  0
LINE
  5
17CC
330
1F
100
AcDbEntity
  8
姿図
100
AcDbLine
 10
75.04096619122444
 20
129.2878222664953
 30
0.0
 11
75.71271846785928
 21
128.9000279316287
 31
0.0
  0
LINE
  5
17CD
330
1F
100
AcDbEntity
  8
姿図
100
AcDbLine
 10
75.71271616295323
 20
129.5101198177205
 30
0.0
 11
75.56937736534562
 21
129.5928675442444
 31
0.0
  0
LINE
  5
17CE
330
1F
100
AcDbEntity
  8
姿図
100
AcDbLine
 10
-12.88472240344802
 20
180.3091304577494
 30
0.0
 11
-12.21297276099088
 21
179.9213376435613
 31
0.0
  0
LINE
  5
17CF
330
1F
100
AcDbEntity
  8
姿図
100
AcDbLine
 10
-12.21297243171878
 20
180.6152843102047
 30
0.0
 11
-12.28368167262991
 21
180.6561038861136
 31
0.0
  0
LINE
  5
17D0
330
1F
100
AcDbEntity
  8
姿図
100
AcDbLine
 10
75.57129603477003
 20
129.9187331276038
 30
0.0
 11
75.35916304368035
 21
130.0411948966877
 31
0.0
  0
LINE
  5
17D1
330
1F
100
AcDbEntity
  8
姿図
100
AcDbLine
 10
-7.927904648522173
 20
173.0628212218966
 30
0.0
 11
34.25873735843558
 21
148.7089911771279
 31
0.0
  0
LINE
  5
17D2
330
1F
100
AcDbEntity
  8
姿図
100
AcDbLine
 10
-7.885478577140049
 20
173.0219898894547
 30
0.0
 11
34.25372514142688
 21
148.6955453856567
 31
0.0
  0
LINE
  5
17D3
330
1F
100
AcDbEntity
  8
姿図
100
AcDbLine
 10
-7.885478577140049
 20
172.8750125648516
 30
0.0
 11
34.20796538155807
 21
148.5749846081337
 31
0.0
  0
LINE
  5
17D4
330
1F
100
AcDbEntity
  8
姿図
100
AcDbLine
 10
-7.927904648522173
 20
172.7851971330476
 30
0.0
 11
34.17154210842406
 21
148.4817038346629
 31
0.0
  0
LINE
  5
17D5
330
1F
100
AcDbEntity
  8
姿図
100
AcDbLine
 10
-7.941910573117667
 20
172.3691556634239
 30
0.0
 11
34.03005989836353
 21
148.1392528582205
 31
0.0
  0
LINE
  5
17D6
330
1F
100
AcDbEntity
  8
姿図
100
AcDbLine
 10
-7.847856587943198
 20
172.235333316205
 30
0.0
 11
34.00242632163733
 21
148.0756792452002
 31
0.0
  0
LINE
  5
17D7
330
1F
100
AcDbEntity
  8
姿図
100
AcDbLine
 10
-7.847856587943198
 20
172.0720250510132
 30
0.0
 11
33.94459262573534
 21
147.9457576619974
 31
0.0
  0
LINE
  5
17D8
330
1F
100
AcDbEntity
  8
姿図
100
AcDbLine
 10
-7.941915841473957
 20
171.8296106646921
 30
0.0
 11
33.83578603602697
 21
147.7118567316376
 31
0.0
  0
LINE
  5
17D9
330
1F
100
AcDbEntity
  8
姿図
100
AcDbLine
 10
-7.930199676132389
 20
171.5741497377898
 30
0.0
 11
33.74089804854381
 21
147.5179370722184
 31
0.0
  0
LINE
  5
17DA
330
1F
100
AcDbEntity
  8
姿図
100
AcDbLine
 10
-7.82700180046416
 20
171.4686642316332
 30
0.0
 11
33.72301457021146
 21
147.482350343889
 31
0.0
  0
LINE
  5
17DB
330
1F
100
AcDbEntity
  8
姿図
100
AcDbLine
 10
-7.824042301445417
 20
171.2362813234087
 30
0.0
 11
33.63143435088293
 21
147.3045440533703
 31
0.0
  0
LINE
  5
17DC
330
1F
100
AcDbEntity
  8
姿図
100
AcDbLine
 10
-7.917311960110993
 20
171.0236804304156
 30
0.0
 11
33.52207581792979
 21
147.1012310698047
 31
0.0
  0
ARC
  5
17DD
330
1F
100
AcDbEntity
  8
0
  6
HIDDEN
 62
     8
370
    18
100
AcDbCircle
 10
45.13840199228795
 20
160.3379424529973
 30
0.0
 40
11.33320483056453
100
AcDbArc
 50
146.8071195560385
 51
198.7420575709294
  0
ARC
  5
17DE
330
1F
100
AcDbEntity
  8
0
  6
HIDDEN
 62
     8
370
    18
100
AcDbCircle
 10
46.88485391833134
 20
159.6556148678796
 30
0.0
 40
11.22389565453112
100
AcDbArc
 50
150.0672350020949
 51
200.99571711236
  0
ARC
  5
17DF
330
1F
100
AcDbEntity
  8
0
  6
HIDDEN
 62
     8
370
    18
100
AcDbCircle
 10
22.9616184622532
 20
152.9125857212252
 30
0.0
 40
12.0538418127022
100
AcDbArc
 50
317.3260555355279
 51
18.29544273855011
  0
ARC
  5
17E0
330
1F
100
AcDbEntity
  8
0
  6
HIDDEN
 62
     8
370
    18
100
AcDbCircle
 10
23.33707946379897
 20
152.5845134732355
 30
0.0
 40
13.42015308832426
100
AcDbArc
 50
318.5307748068753
 51
13.13465349360213
  0
LINE
  5
17E1
330
1F
100
AcDbEntity
  8
姿図
100
AcDbLine
 10
34.29809444829195
 20
163.6438862037464
 30
0.0
 11
-7.286545782237255
 21
187.650188020329
 31
0.0
  0
LINE
  5
17E2
330
1F
100
AcDbEntity
  8
姿図
100
AcDbLine
 10
34.32471724440344
 20
163.7299557054625
 30
0.0
 11
-7.136557990004377
 21
187.6650404256833
 31
0.0
  0
LINE
  5
17E3
330
1F
100
AcDbEntity
  8
姿図
100
AcDbLine
 10
36.68396092894906
 20
151.1840620926811
 30
0.0
 11
73.09642123640876
 21
130.1635961903816
 31
0.0
  0
LINE
  5
17E4
330
1F
100
AcDbEntity
  8
姿図
100
AcDbLine
 10
36.68794713528811
 20
151.2225878759841
 30
0.0
 11
74.86418913767963
 21
129.1839124743992
 31
0.0
  0
LINE
  5
17E5
330
1F
100
AcDbEntity
  8
姿図
100
AcDbLine
 10
34.93590770399848
 20
154.2951556473672
 30
0.0
 11
-14.85258849450523
 21
183.0374427059814
 31
0.0
  0
LINE
  5
17E6
330
1F
100
AcDbEntity
  8
姿図
100
AcDbLine
 10
36.71431344169466
 20
153.6569499583886
 30
0.0
 11
81.42374668523868
 21
127.8467435325819
 31
0.0
  0
LINE
  5
17E7
330
1F
100
AcDbEntity
  8
姿図
100
AcDbLine
 10
34.89683401684621
 20
145.7674331900525
 30
0.0
 11
73.34499808057032
 21
123.5717805238154
 31
0.0
  0
LINE
  5
17E8
330
1F
100
AcDbEntity
  8
姿図
100
AcDbLine
 10
34.98814613339343
 20
145.9246970812675
 30
0.0
 11
73.11833232927845
 21
123.9126091308494
 31
0.0
  0
LINE
  5
17E9
330
1F
100
AcDbEntity
  8
姿図
100
AcDbLine
 10
35.08519332878902
 20
146.0974240234675
 30
0.0
 11
73.09642255349806
 21
124.1540084707758
 31
0.0
  0
LINE
  5
17EA
330
1F
100
AcDbEntity
  8
姿図
100
AcDbLine
 10
35.19503653196941
 20
146.3004572128663
 30
0.0
 11
73.09642123640876
 21
124.4204535519663
 31
0.0
  0
LINE
  5
17EB
330
1F
100
AcDbEntity
  8
姿図
100
AcDbLine
 10
35.28735273515892
 20
146.4778386289458
 30
0.0
 11
73.09642255349806
 21
124.6511272174341
 31
0.0
  0
LINE
  5
17EC
330
1F
100
AcDbEntity
  8
姿図
100
AcDbLine
 10
35.30541788484422
 20
146.5133204806354
 30
0.0
 11
73.09642123640876
 21
124.6970386183936
 31
0.0
  0
LINE
  5
17ED
330
1F
100
AcDbEntity
  8
姿図
100
AcDbLine
 10
35.34256225744772
 20
146.5871063830456
 30
0.0
 11
73.09642123640876
 21
124.792267510681
 31
0.0
  0
LINE
  5
17EE
330
1F
100
AcDbEntity
  8
姿図
100
AcDbLine
 10
35.40149419943734
 20
146.7065541334161
 30
0.0
 11
73.09642189495341
 21
124.9457355668416
 31
0.0
  0
LINE
  5
17EF
330
1F
100
AcDbEntity
  8
姿図
100
AcDbLine
 10
35.51217330957249
 20
146.9393740807431
 30
0.0
 11
73.09642255349806
 21
125.2424488242643
 31
0.0
  0
LINE
  5
17F0
330
1F
100
AcDbEntity
  8
姿図
100
AcDbLine
 10
35.5712512046193
 20
147.0685774030682
 30
0.0
 11
73.09642255349806
 21
125.405757089456
 31
0.0
  0
LINE
  5
17F1
330
1F
100
AcDbEntity
  8
姿図
100
AcDbLine
 10
35.59954614189016
 20
147.1317692207726
 30
0.0
 11
73.09642189495341
 21
125.4852836069308
 31
0.0
  0
LINE
  5
17F2
330
1F
100
AcDbEntity
  8
姿図
100
AcDbLine
 10
35.63107578282776
 20
147.2032344968429
 30
0.0
 11
73.09642123640876
 21
125.5749509374504
 31
0.0
  0
LINE
  5
17F3
330
1F
100
AcDbEntity
  8
姿図
100
AcDbLine
 10
35.67899649403304
 20
147.3140682422442
 30
0.0
 11
73.09642123640876
 21
125.7134487205851
 31
0.0
  0
LINE
  5
17F4
330
1F
100
AcDbEntity
  8
姿図
100
AcDbLine
 10
35.74517841316398
 20
147.4718244178723
 30
0.0
 11
73.09642189495341
 21
125.9094105247199
 31
0.0
  0
LINE
  5
17F5
330
1F
100
AcDbEntity
  8
姿図
100
AcDbLine
 10
35.7829024744087
 20
147.5643542623506
 30
0.0
 11
73.09642189495341
 21
126.0237180062049
 31
0.0
  0
LINE
  5
17F6
330
1F
100
AcDbEntity
  8
姿図
100
AcDbLine
 10
35.83045073010496
 20
147.6838825632094
 30
0.0
 11
73.09642189495341
 21
126.170695330808
 31
0.0
  0
LINE
  5
17F7
330
1F
100
AcDbEntity
  8
姿図
100
AcDbLine
 10
35.83566989567814
 20
147.6972088858176
 30
0.0
 11
73.09642189495341
 21
126.187034613569
 31
0.0
  0
LINE
  5
17F8
330
1F
100
AcDbEntity
  8
姿図
100
AcDbLine
 10
35.86669026087336
 20
147.7772936750675
 30
0.0
 11
73.09642123640876
 21
126.2850274586403
 31
0.0
  0
LINE
  5
194A
330
1F
100
AcDbEntity
  8
姿図
100
AcDbLine
 10
-14.64045616196066
 20
183.4048659223362
 30
0.0
 11
-7.2865457822368
 21
187.650188020329
 31
0.0
  0
LINE
  5
194B
330
1F
100
AcDbEntity
  8
姿図
100
AcDbLine
 10
-14.85258849450523
 20
174.9945154932397
 30
0.0
 11
-14.85258849450523
 21
182.4640050163886
 31
0.0
  0
ARC
  5
194C
330
1F
100
AcDbEntity
  8
姿図
100
AcDbCircle
 10
-14.25753119271988
 20
174.9328032787971
 30
0.0
 40
0.5982487691750252
100
AcDbArc
 50
174.0791346225132
 51
234.6086694912112
  0
LINE
  5
194D
330
1F
100
AcDbEntity
  8
姿図
100
AcDbLine
 10
-14.85258849450523
 20
182.4640050163886
 30
0.0
 11
-14.85258849450523
 21
183.0374427059816
 31
0.0
  0
ARC
  5
194E
330
1F
100
AcDbEntity
  8
姿図
100
AcDbCircle
 10
-14.39202425424767
 20
183.0164843315071
 30
0.0
 40
0.461040858129465
100
AcDbArc
 50
122.6053937235816
 51
177.3945034322353
  0
ARC
  5
194F
330
1F
100
AcDbEntity
  8
姿図
100
AcDbCircle
 10
-7.198670051632263
 20
187.527526343719
 30
0.0
 40
0.1508907914292503
100
AcDbArc
 50
65.69236114164852
 51
125.6180912003549
  0
LINE
  5
1950
330
1F
100
AcDbEntity
  8
姿図
100
AcDbLine
 10
81.42374668523868
 20
127.8467435325819
 30
0.0
 11
88.77765706496254
 21
132.0920656305747
 31
0.0
  0
LINE
  5
1951
330
1F
100
AcDbEntity
  8
姿図
100
AcDbLine
 10
81.42374668523868
 20
127.8467435325819
 30
0.0
 11
88.77765706496254
 21
132.0920656305747
 31
0.0
  0
ARC
  5
1952
330
1F
100
AcDbEntity
  8
姿図
100
AcDbCircle
 10
81.67217859295167
 20
127.4583619417528
 30
0.0
 40
0.4610408581295178
100
AcDbArc
 50
122.6053937235777
 51
177.3945034322356
  0
LINE
  5
1953
330
1F
100
AcDbEntity
  8
姿図
100
AcDbLine
 10
81.21161435269366
 20
126.8669142267005
 30
0.0
 11
81.21161435269366
 21
127.4793203162273
 31
0.0
  0
LINE
  5
1954
330
1F
100
AcDbEntity
  8
姿図
100
AcDbLine
 10
81.21161435269366
 20
119.4363931034854
 30
0.0
 11
81.21161435269366
 21
126.8669142267005
 31
0.0
  0
ARC
  5
1955
330
1F
100
AcDbEntity
  8
姿図
100
AcDbCircle
 10
81.72890373336165
 20
119.3524806301572
 30
0.0
 40
0.5240511487742436
100
AcDbArc
 50
170.7859830423211
 51
309.203284456839
  0
LINE
  5
1956
330
1F
100
AcDbEntity
  8
姿図
100
AcDbLine
 10
88.88978110613468
 20
122.8890554007878
 30
0.0
 11
82.06014269505701
 21
118.9463890680847
 31
0.0
  0
ARC
  5
1957
330
1F
100
AcDbEntity
  8
姿図
100
AcDbCircle
 10
88.86046699344476
 20
131.9905430602027
 30
0.0
 40
0.1310126579769147
100
AcDbArc
 50
350.7860426077818
 51
129.2034366844238
  0
LINE
  5
1958
330
1F
100
AcDbEntity
  8
姿図
100
AcDbLine
 10
88.98978923287129
 20
131.9695650970063
 30
0.0
 11
88.98978923287129
 21
131.5612946241424
 31
0.0
  0
LINE
  5
1959
330
1F
100
AcDbEntity
  8
姿図
100
AcDbLine
 10
88.98978923287129
 20
131.5612946241424
 30
0.0
 11
88.98978923287129
 21
123.0622651732639
 31
0.0
  0
ARC
  5
195A
330
1F
100
AcDbEntity
  8
姿図
100
AcDbCircle
 10
88.78978923287147
 20
123.0622651732639
 30
0.0
 40
0.2000000000000001
100
AcDbArc
 50
299.9973117336493
 51
0.0
  0
TEXT
  5
195E
330
1F
100
AcDbEntity
  8
文字
 62
     7
100
AcDbText
 10
55.77563818310068
 20
104.2602471110916
 30
0.0
 40
8.0
  1
キャップ有り
 41
0.9
 11
55.77563818310068
 21
104.2602471110916
 31
0.0
100
AcDbText
 73
     1
  0
TEXT
  5
195F
330
1F
100
AcDbEntity
  8
文字
 62
     7
100
AcDbText
 10
150.0901908072881
 20
104.2602471110916
 30
0.0
 40
8.0
  1
キャップ無し
 41
0.9
 11
150.0901908072881
 21
104.2602471110916
 31
0.0
100
AcDbText
 73
     1
  0
TEXT
  5
1960
330
1F
100
AcDbEntity
  8
文字
 62
     7
100
AcDbText
 10
94.55379092114424
 20
80.31406571780562
 30
0.0
 40
8.0
  1
NTS-SLR11
 41
0.9
 11
94.55379092114424
 21
80.31406571780562
 31
0.0
100
AcDbText
 73
     1
  0
ENDSEC
  0
SECTION
  2
OBJECTS
  0
DICTIONARY
  5
C
330
0
100
AcDbDictionary
281
     1
  3
ACAD_DETAILVIEWSTYLE
350
639
  3
ACAD_GROUP
350
D
  3
ACAD_IMAGE_VARS
350
633
  3
ACAD_LAYOUT
350
1A
  3
ACAD_MLINESTYLE
350
17
  3
ACAD_PLOTSETTINGS
350
19
  3
ACAD_PLOTSTYLENAME
350
E
  3
ACAD_SCALELIST
350
47
  3
ACAD_SECTIONVIEWSTYLE
350
63A
  3
AcDbVariableDictionary
350
634
  3
APPDATA
350
631
  3
DWGPROPS
350
1983
  0
DICTIONARY
  5
66F
330
2
100
AcDbDictionary
280
     1
281
     1
  3
ACAD_LAYERSTATES
360
670
  0
DICTIONARY
  5
639
102
{ACAD_REACTORS
330
C
102
}
330
C
100
AcDbDictionary
281
     1
  0
DICTIONARY
  5
D
102
{ACAD_REACTORS
330
C
102
}
330
C
100
AcDbDictionary
281
     1
  0
RASTERVARIABLES
  5
633
102
{ACAD_REACTORS
330
C
102
}
330
C
100
AcDbRasterVariables
 90
        0
 70
     1
 71
     1
 72
     1
  0
DICTIONARY
  5
1A
102
{ACAD_REACTORS
330
C
102
}
330
C
100
AcDbDictionary
281
     1
  3
Layout1
350
1E
  3
Layout2
350
26
  3
Model
350
22
  0
DICTIONARY
  5
17
102
{ACAD_REACTORS
330
C
102
}
330
C
100
AcDbDictionary
281
     1
  3
Standard
350
18
  0
DICTIONARY
  5
19
102
{ACAD_REACTORS
330
C
102
}
330
C
100
AcDbDictionary
281
     1
  0
ACDBDICTIONARYWDFLT
  5
E
102
{ACAD_REACTORS
330
C
102
}
330
C
100
AcDbDictionary
281
     1
  3
Normal
350
F
100
AcDbDictionaryWithDefault
340
F
  0
DICTIONARY
  5
47
102
{ACAD_REACTORS
330
C
102
}
330
C
100
AcDbDictionary
281
     1
  3
A0
350
48
  3
A1
350
49
  3
A2
350
4A
  3
A3
350
4B
  3
A4
350
4C
  3
A5
350
4D
  3
A6
350
4E
  3
A7
350
4F
  3
A8
350
50
  3
A9
350
51
  3
B0
350
52
  3
B1
350
53
  3
B2
350
54
  3
B3
350
55
  3
B4
350
56
  3
B5
350
57
  3
B6
350
58
  3
B7
350
59
  3
B8
350
5A
  3
B9
350
5B
  3
C0
350
5C
  3
C1
350
5D
  3
C2
350
5E
  3
C3
350
5F
  3
C4
350
60
  3
C5
350
61
  3
C6
350
62
  3
C7
350
63
  3
C8
350
64
  3
C9
350
65
  3
D0
350
66
  3
D1
350
67
  3
D2
350
68
  0
DICTIONARY
  5
63A
102
{ACAD_REACTORS
330
C
102
}
330
C
100
AcDbDictionary
281
     1
  0
DICTIONARY
  5
634
102
{ACAD_REACTORS
330
C
102
}
330
C
100
AcDbDictionary
281
     1
  0
DICTIONARY
  5
631
102
{ACAD_REACTORS
330
C
102
}
330
C
100
AcDbDictionary
281
     1
  0
XRECORD
  5
1983
102
{ACAD_REACTORS
330
C
102
}
330
C
100
AcDbXrecord
280
     1
  1
DWGPROPS COOKIE
  2

  3

  4

  6

  7

  8
ModuleX
  9

300
=
301
=
302
=
303
=
304
=
305
=
306
=
307
=
308
=
309
=
 40
0.0
 41
2458025.52667044
 42
2458673.181145845
  1

 90
        0
  0
DICTIONARY
  5
670
102
{ACAD_REACTORS
330
66F
102
}
330
66F
100
AcDbDictionary
281
     1
  0
LAYOUT
  5
1E
102
{ACAD_REACTORS
330
1A
102
}
330
1A
100
AcDbPlotSettings
  1

  2
none_device
  4

  6

 40
0.0
 41
0.0
 42
0.0
 43
0.0
 44
0.0
 45
0.0
 46
0.0
 47
0.0
 48
0.0
 49
0.0
140
0.0
141
0.0
142
1.0
143
1.0
 70
   688
 72
     1
 73
     0
 74
     5
  7

 75
    16
147
1.0
148
0.0
149
0.0
100
AcDbLayout
  1
Layout1
 70
     1
 71
     1
 10
0.0
 20
0.0
 11
420.0
 21
297.0
 12
0.0
 22
0.0
 32
0.0
 14
1.000000000000000E+20
 24
1.000000000000000E+20
 34
1.000000000000000E+20
 15
-1.000000000000000E+20
 25
-1.000000000000000E+20
 35
-1.000000000000000E+20
146
0.0
 13
0.0
 23
0.0
 33
0.0
 16
1.0
 26
0.0
 36
0.0
 17
0.0
 27
1.0
 37
0.0
 76
     0
330
1B
  0
LAYOUT
  5
26
102
{ACAD_REACTORS
330
1A
102
}
330
1A
100
AcDbPlotSettings
  1

  2
none_device
  4

  6

 40
0.0
 41
0.0
 42
0.0
 43
0.0
 44
0.0
 45
0.0
 46
0.0
 47
0.0
 48
0.0
 49
0.0
140
0.0
141
0.0
142
1.0
143
1.0
 70
   688
 72
     1
 73
     0
 74
     5
  7

 75
    16
147
1.0
148
0.0
149
0.0
100
AcDbLayout
  1
Layout2
 70
     1
 71
     2
 10
0.0
 20
0.0
 11
0.0
 21
0.0
 12
0.0
 22
0.0
 32
0.0
 14
0.0
 24
0.0
 34
0.0
 15
0.0
 25
0.0
 35
0.0
146
0.0
 13
0.0
 23
0.0
 33
0.0
 16
1.0
 26
0.0
 36
0.0
 17
0.0
 27
1.0
 37
0.0
 76
     0
330
23
  0
LAYOUT
  5
22
102
{ACAD_REACTORS
330
1A
102
}
330
1A
100
AcDbPlotSettings
  1

  2
none_device
  4
Letter_(8.50_x_11.00_Inches)
  6

 40
6.35
 41
6.35
 42
6.35000508
 43
6.35000508
 44
215.9
 45
279.4
 46
0.0
 47
0.0
 48
0.0
 49
0.0
140
0.0
141
0.0
142
1.0
143
1.0
 70
  1712
 72
     1
 73
     0
 74
     0
  7

 75
     0
147
1.0
148
0.0
149
0.0
100
AcDbLayout
  1
Model
 70
     1
 71
     0
 10
0.0
 20
0.0
 11
210.0
 21
297.0
 12
0.0
 22
0.0
 32
0.0
 14
-14.85577996189491
 24
80.31406571780562
 34
0.0
 15
198.6901908072881
 25
187.6784171351482
 35
0.0
146
0.0
 13
0.0
 23
0.0
 33
0.0
 16
1.0
 26
0.0
 36
0.0
 17
0.0
 27
1.0
 37
0.0
 76
     0
330
1F
331
29
  0
MLINESTYLE
  5
18
102
{ACAD_REACTORS
330
17
102
}
330
17
100
AcDbMlineStyle
  2
Standard
 70
     0
  3

 62
   256
 51
90.0
 52
90.0
 71
     2
 49
0.5
 62
   256
  6
BYLAYER
 49
-0.5
 62
   256
  6
BYLAYER
  0
ACDBPLACEHOLDER
  5
F
102
{ACAD_REACTORS
330
E
102
}
330
E
  0
SCALE
  5
48
102
{ACAD_REACTORS
330
47
102
}
330
47
100
AcDbScale
 70
     0
300
1:1
140
1.0
141
1.0
290
     1
  0
SCALE
  5
49
102
{ACAD_REACTORS
330
47
102
}
330
47
100
AcDbScale
 70
     0
300
1:2
140
1.0
141
2.0
290
     0
  0
SCALE
  5
4A
102
{ACAD_REACTORS
330
47
102
}
330
47
100
AcDbScale
 70
     0
300
1:4
140
1.0
141
4.0
290
     0
  0
SCALE
  5
4B
102
{ACAD_REACTORS
330
47
102
}
330
47
100
AcDbScale
 70
     0
300
1:5
140
1.0
141
5.0
290
     0
  0
SCALE
  5
4C
102
{ACAD_REACTORS
330
47
102
}
330
47
100
AcDbScale
 70
     0
300
1:8
140
1.0
141
8.0
290
     0
  0
SCALE
  5
4D
102
{ACAD_REACTORS
330
47
102
}
330
47
100
AcDbScale
 70
     0
300
1:10
140
1.0
141
10.0
290
     0
  0
SCALE
  5
4E
102
{ACAD_REACTORS
330
47
102
}
330
47
100
AcDbScale
 70
     0
300
1:16
140
1.0
141
16.0
290
     0
  0
SCALE
  5
4F
102
{ACAD_REACTORS
330
47
102
}
330
47
100
AcDbScale
 70
     0
300
1:20
140
1.0
141
20.0
290
     0
  0
SCALE
  5
50
102
{ACAD_REACTORS
330
47
102
}
330
47
100
AcDbScale
 70
     0
300
1:30
140
1.0
141
30.0
290
     0
  0
SCALE
  5
51
102
{ACAD_REACTORS
330
47
102
}
330
47
100
AcDbScale
 70
     0
300
1:40
140
1.0
141
40.0
290
     0
  0
SCALE
  5
52
102
{ACAD_REACTORS
330
47
102
}
330
47
100
AcDbScale
 70
     0
300
1:50
140
1.0
141
50.0
290
     0
  0
SCALE
  5
53
102
{ACAD_REACTORS
330
47
102
}
330
47
100
AcDbScale
 70
     0
300
1:100
140
1.0
141
100.0
290
     0
  0
SCALE
  5
54
102
{ACAD_REACTORS
330
47
102
}
330
47
100
AcDbScale
 70
     0
300
2:1
140
2.0
141
1.0
290
     0
  0
SCALE
  5
55
102
{ACAD_REACTORS
330
47
102
}
330
47
100
AcDbScale
 70
     0
300
4:1
140
4.0
141
1.0
290
     0
  0
SCALE
  5
56
102
{ACAD_REACTORS
330
47
102
}
330
47
100
AcDbScale
 70
     0
300
8:1
140
8.0
141
1.0
290
     0
  0
SCALE
  5
57
102
{ACAD_REACTORS
330
47
102
}
330
47
100
AcDbScale
 70
     0
300
10:1
140
10.0
141
1.0
290
     0
  0
SCALE
  5
58
102
{ACAD_REACTORS
330
47
102
}
330
47
100
AcDbScale
 70
     0
300
100:1
140
100.0
141
1.0
290
     0
  0
SCALE
  5
59
102
{ACAD_REACTORS
330
47
102
}
330
47
100
AcDbScale
 70
     0
300
1/128" = 1'-0"
140
0.0078125
141
12.0
290
     0
  0
SCALE
  5
5A
102
{ACAD_REACTORS
330
47
102
}
330
47
100
AcDbScale
 70
     0
300
1/64" = 1'-0"
140
0.015625
141
12.0
290
     0
  0
SCALE
  5
5B
102
{ACAD_REACTORS
330
47
102
}
330
47
100
AcDbScale
 70
     0
300
1/32" = 1'-0"
140
0.03125
141
12.0
290
     0
  0
SCALE
  5
5C
102
{ACAD_REACTORS
330
47
102
}
330
47
100
AcDbScale
 70
     0
300
1/16" = 1'-0"
140
0.0625
141
12.0
290
     0
  0
SCALE
  5
5D
102
{ACAD_REACTORS
330
47
102
}
330
47
100
AcDbScale
 70
     0
300
3/32" = 1'-0"
140
0.09375
141
12.0
290
     0
  0
SCALE
  5
5E
102
{ACAD_REACTORS
330
47
102
}
330
47
100
AcDbScale
 70
     0
300
1/8" = 1'-0"
140
0.125
141
12.0
290
     0
  0
SCALE
  5
5F
102
{ACAD_REACTORS
330
47
102
}
330
47
100
AcDbScale
 70
     0
300
3/16" = 1'-0"
140
0.1875
141
12.0
290
     0
  0
SCALE
  5
60
102
{ACAD_REACTORS
330
47
102
}
330
47
100
AcDbScale
 70
     0
300
1/4" = 1'-0"
140
0.25
141
12.0
290
     0
  0
SCALE
  5
61
102
{ACAD_REACTORS
330
47
102
}
330
47
100
AcDbScale
 70
     0
300
3/8" = 1'-0"
140
0.375
141
12.0
290
     0
  0
SCALE
  5
62
102
{ACAD_REACTORS
330
47
102
}
330
47
100
AcDbScale
 70
     0
300
1/2" = 1'-0"
140
0.5
141
12.0
290
     0
  0
SCALE
  5
63
102
{ACAD_REACTORS
330
47
102
}
330
47
100
AcDbScale
 70
     0
300
3/4" = 1'-0"
140
0.75
141
12.0
290
     0
  0
SCALE
  5
64
102
{ACAD_REACTORS
330
47
102
}
330
47
100
AcDbScale
 70
     0
300
1" = 1'-0"
140
1.0
141
12.0
290
     0
  0
SCALE
  5
65
102
{ACAD_REACTORS
330
47
102
}
330
47
100
AcDbScale
 70
     0
300
1-1/2" = 1'-0"
140
1.5
141
12.0
290
     0
  0
SCALE
  5
66
102
{ACAD_REACTORS
330
47
102
}
330
47
100
AcDbScale
 70
     0
300
3" = 1'-0"
140
3.0
141
12.0
290
     0
  0
SCALE
  5
67
102
{ACAD_REACTORS
330
47
102
}
330
47
100
AcDbScale
 70
     0
300
6" = 1'-0"
140
6.0
141
12.0
290
     0
  0
SCALE
  5
68
102
{ACAD_REACTORS
330
47
102
}
330
47
100
AcDbScale
 70
     0
300
1'-0" = 1'-0"
140
12.0
141
12.0
290
     0
  0
ENDSEC
  0
EOF
