  0
SECTION
  2
HEADER
  9
$ACADVER
  1
AC1015
  9
$ACADMAINTVER
 70
     6
  9
$DWGCODEPAGE
  3
ANSI_932
  9
$INSBASE
 10
0.0
 20
0.0
 30
0.0
  9
$EXTMIN
 10
-778.5357725541688
 20
-1861.17732445065
 30
0.0
  9
$EXTMAX
 10
-675.4024392208355
 20
-1776.012231556994
 30
0.0
  9
$LIMMIN
 10
0.0
 20
0.0
  9
$LIMMAX
 10
420.0
 20
297.0
  9
$ORTHOMODE
 70
     0
  9
$REGENMODE
 70
     1
  9
$FILLMODE
 70
     1
  9
$QTEXTMODE
 70
     0
  9
$MIRRTEXT
 70
     1
  9
$LTSCALE
 40
5.0
  9
$ATTMODE
 70
     0
  9
$TEXTSIZE
 40
3.0
  9
$TRACEWID
 40
1.0
  9
$TEXTSTYLE
  7
STANDARD
  9
$CLAYER
  8
0
  9
$CELTYPE
  6
BYLAYER
  9
$CECOLOR
 62
   256
  9
$CELTSCALE
 40
1.0
  9
$DISPSILH
 70
     0
  9
$DIMSCALE
 40
1.0
  9
$DIMASZ
 40
2.5
  9
$DIMEXO
 40
1.5
  9
$DIMDLI
 40
7.0
  9
$DIMRND
 40
0.0
  9
$DIMDLE
 40
0.0
  9
$DIMEXE
 40
1.0
  9
$DIMTP
 40
0.0
  9
$DIMTM
 40
0.0
  9
$DIMTXT
 40
3.0
  9
$DIMCEN
 40
0.0
  9
$DIMTSZ
 40
0.0
  9
$DIMTOL
 70
     0
  9
$DIMLIM
 70
     0
  9
$DIMTIH
 70
     0
  9
$DIMTOH
 70
     0
  9
$DIMSE1
 70
     0
  9
$DIMSE2
 70
     0
  9
$DIMTAD
 70
     3
  9
$DIMZIN
 70
     8
  9
$DIMBLK
  1
OPEN30
  9
$DIMASO
 70
     1
  9
$DIMSHO
 70
     0
  9
$DIMPOST
  1

  9
$DIMAPOST
  1

  9
$DIMALT
 70
     0
  9
$DIMALTD
 70
     0
  9
$DIMALTF
 40
25.4
  9
$DIMLFAC
 40
1.0
  9
$DIMTOFL
 70
     1
  9
$DIMTVP
 40
0.0
  9
$DIMTIX
 70
     0
  9
$DIMSOXD
 70
     0
  9
$DIMSAH
 70
     0
  9
$DIMBLK1
  1

  9
$DIMBLK2
  1

  9
$DIMSTYLE
  2
STANDARD
  9
$DIMCLRD
 70
     8
  9
$DIMCLRE
 70
     8
  9
$DIMCLRT
 70
   256
  9
$DIMTFAC
 40
0.6
  9
$DIMGAP
 40
1.0
  9
$DIMJUST
 70
     0
  9
$DIMSD1
 70
     0
  9
$DIMSD2
 70
     0
  9
$DIMTOLJ
 70
     1
  9
$DIMTZIN
 70
     0
  9
$DIMALTZ
 70
     0
  9
$DIMALTTZ
 70
     0
  9
$DIMUPT
 70
     0
  9
$DIMDEC
 70
     3
  9
$DIMTDEC
 70
     3
  9
$DIMALTU
 70
     2
  9
$DIMALTTD
 70
     0
  9
$DIMTXSTY
  7
STANDARD
  9
$DIMAUNIT
 70
     0
  9
$DIMADEC
 70
     3
  9
$DIMALTRND
 40
0.0
  9
$DIMAZIN
 70
     2
  9
$DIMDSEP
 70
    46
  9
$DIMATFIT
 70
     0
  9
$DIMFRAC
 70
     0
  9
$DIMLDRBLK
  1
OPEN30
  9
$DIMLUNIT
 70
     2
  9
$DIMLWD
 70
    -2
  9
$DIMLWE
 70
    -1
  9
$DIMTMOVE
 70
     0
  9
$LUNITS
 70
     2
  9
$LUPREC
 70
     2
  9
$SKETCHINC
 40
0.1
  9
$FILLETRAD
 40
0.3
  9
$AUNITS
 70
     0
  9
$AUPREC
 70
     1
  9
$MENU
  1
FM
  9
$ELEVATION
 40
0.0
  9
$PELEVATION
 40
0.0
  9
$THICKNESS
 40
0.0
  9
$LIMCHECK
 70
     0
  9
$CHAMFERA
 40
0.0
  9
$CHAMFERB
 40
0.0
  9
$CHAMFERC
 40
0.0
  9
$CHAMFERD
 40
0.0
  9
$SKPOLY
 70
     0
  9
$TDCREATE
 40
2448636.619629618
  9
$TDUCREATE
 40
2448636.244629618
  9
$TDUPDATE
 40
2457347.848961586
  9
$TDUUPDATE
 40
2457347.473961586
  9
$TDINDWG
 40
101.1565844676
  9
$TDUSRTIMER
 40
2457347.473766505
  9
$USRTIMER
 70
     1
  9
$ANGBASE
 50
0.0
  9
$ANGDIR
 70
     0
  9
$PDMODE
 70
     3
  9
$PDSIZE
 40
0.0
  9
$PLINEWID
 40
0.0
  9
$SPLFRAME
 70
     0
  9
$SPLINETYPE
 70
     6
  9
$SPLINESEGS
 70
     8
  9
$HANDSEED
  5
389DAB
  9
$SURFTAB1
 70
     6
  9
$SURFTAB2
 70
     6
  9
$SURFTYPE
 70
     6
  9
$SURFU
 70
     6
  9
$SURFV
 70
     6
  9
$UCSBASE
  2

  9
$UCSNAME
  2

  9
$UCSORG
 10
0.0
 20
0.0
 30
0.0
  9
$UCSXDIR
 10
1.0
 20
0.0
 30
0.0
  9
$UCSYDIR
 10
0.0
 20
1.0
 30
0.0
  9
$UCSORTHOREF
  2

  9
$UCSORTHOVIEW
 70
     0
  9
$UCSORGTOP
 10
0.0
 20
0.0
 30
0.0
  9
$UCSORGBOTTOM
 10
0.0
 20
0.0
 30
0.0
  9
$UCSORGLEFT
 10
0.0
 20
0.0
 30
0.0
  9
$UCSORGRIGHT
 10
0.0
 20
0.0
 30
0.0
  9
$UCSORGFRONT
 10
0.0
 20
0.0
 30
0.0
  9
$UCSORGBACK
 10
0.0
 20
0.0
 30
0.0
  9
$PUCSBASE
  2

  9
$PUCSNAME
  2

  9
$PUCSORG
 10
0.0
 20
0.0
 30
0.0
  9
$PUCSXDIR
 10
1.0
 20
0.0
 30
0.0
  9
$PUCSYDIR
 10
0.0
 20
1.0
 30
0.0
  9
$PUCSORTHOREF
  2

  9
$PUCSORTHOVIEW
 70
     0
  9
$PUCSORGTOP
 10
0.0
 20
0.0
 30
0.0
  9
$PUCSORGBOTTOM
 10
0.0
 20
0.0
 30
0.0
  9
$PUCSORGLEFT
 10
0.0
 20
0.0
 30
0.0
  9
$PUCSORGRIGHT
 10
0.0
 20
0.0
 30
0.0
  9
$PUCSORGFRONT
 10
0.0
 20
0.0
 30
0.0
  9
$PUCSORGBACK
 10
0.0
 20
0.0
 30
0.0
  9
$USERI1
 70
     0
  9
$USERI2
 70
     0
  9
$USERI3
 70
     0
  9
$USERI4
 70
     0
  9
$USERI5
 70
     0
  9
$USERR1
 40
0.0
  9
$USERR2
 40
0.0
  9
$USERR3
 40
0.0
  9
$USERR4
 40
0.0
  9
$USERR5
 40
0.0
  9
$WORLDVIEW
 70
     0
  9
$SHADEDGE
 70
     3
  9
$SHADEDIF
 70
    70
  9
$TILEMODE
 70
     1
  9
$MAXACTVP
 70
    16
  9
$PINSBASE
 10
0.0
 20
0.0
 30
0.0
  9
$PLIMCHECK
 70
     0
  9
$PEXTMIN
 10
1.000000000000000E+20
 20
1.000000000000000E+20
 30
1.000000000000000E+20
  9
$PEXTMAX
 10
-1.000000000000000E+20
 20
-1.000000000000000E+20
 30
-1.000000000000000E+20
  9
$PLIMMIN
 10
0.0
 20
0.0
  9
$PLIMMAX
 10
0.0
 20
0.0
  9
$UNITMODE
 70
     0
  9
$VISRETAIN
 70
     0
  9
$PLINEGEN
 70
     0
  9
$PSLTSCALE
 70
     0
  9
$TREEDEPTH
 70
  3020
  9
$CMLSTYLE
  2
STANDARD
  9
$CMLJUST
 70
     0
  9
$CMLSCALE
 40
1.0
  9
$PROXYGRAPHICS
 70
     1
  9
$MEASUREMENT
 70
     0
  9
$CELWEIGHT
370
    -1
  9
$ENDCAPS
280
     0
  9
$JOINSTYLE
280
     0
  9
$LWDISPLAY
290
     1
  9
$INSUNITS
 70
     0
  9
$HYPERLINKBASE
  1

  9
$STYLESHEET
  1
SPAX FORM.CTB
  9
$XEDIT
290
     1
  9
$CEPSNTYPE
380
     0
  9
$PSTYLEMODE
290
     1
  9
$FINGERPRINTGUID
  2
{E5B35D22-A717-11D3-9160-00E0294F7E09}
  9
$VERSIONGUID
  2
{3F835AD2-125D-4DC0-B67F-20E9808D916F}
  9
$EXTNAMES
290
     1
  9
$PSVPSCALE
 40
0.0
  9
$OLESTARTUP
290
     0
  0
ENDSEC
  0
SECTION
  2
CLASSES
  0
CLASS
  1
LWPOLYLINE
  2
AcDbPolyline
  3
ObjectDBX Classes
 90
        0
280
     0
281
     1
  0
CLASS
  1
ACDBDICTIONARYWDFLT
  2
AcDbDictionaryWithDefault
  3
ObjectDBX Classes
 90
        0
280
     0
281
     0
  0
CLASS
  1
ACDBPLACEHOLDER
  2
AcDbPlaceHolder
  3
ObjectDBX Classes
 90
        0
280
     0
281
     0
  0
CLASS
  1
LAYOUT
  2
AcDbLayout
  3
ObjectDBX Classes
 90
        0
280
     0
281
     0
  0
CLASS
  1
DICTIONARYVAR
  2
AcDbDictionaryVar
  3
ObjectDBX Classes
 90
        0
280
     0
281
     0
  0
CLASS
  1
MATERIAL
  2
AcDbMaterial
  3
ObjectDBX Classes
 90
     1153
280
     0
281
     0
  0
CLASS
  1
SORTENTSTABLE
  2
AcDbSortentsTable
  3
ObjectDBX Classes
 90
        0
280
     0
281
     0
  0
CLASS
  1
VISUALSTYLE
  2
AcDbVisualStyle
  3
ObjectDBX Classes
 90
     4095
280
     0
281
     0
  0
CLASS
  1
TABLESTYLE
  2
AcDbTableStyle
  3
ObjectDBX Classes
 90
     4095
280
     0
281
     0
  0
CLASS
  1
SCALE
  2
AcDbScale
  3
ObjectDBX Classes
 90
     1153
280
     0
281
     0
  0
CLASS
  1
MLEADERSTYLE
  2
AcDbMLeaderStyle
  3
ACDB_MLEADERSTYLE_CLASS
 90
     4095
280
     0
281
     0
  0
CLASS
  1
CELLSTYLEMAP
  2
AcDbCellStyleMap
  3
ObjectDBX Classes
 90
     1152
280
     0
281
     0
  0
CLASS
  1
MULTILEADER
  2
AcDbMLeader
  3
ACDB_MLEADER_CLASS
 90
     1025
280
     0
281
     1
  0
CLASS
  1
DIMASSOC
  2
AcDbDimAssoc
  3
"AcDbDimAssoc|Product Desc:     AcDim ARX App For Dimension|Company:          Autodesk, Inc.|WEB Address:      www.autodesk.com"
 90
        0
280
     0
281
     0
  0
CLASS
  1
LARGE_RADIAL_DIMENSION
  2
AcDbRadialDimensionLarge
  3
ObjectDBX Classes
 90
     1025
280
     0
281
     1
  0
CLASS
  1
RASTERVARIABLES
  2
AcDbRasterVariables
  3
ISM
 90
        0
280
     0
281
     0
  0
CLASS
  1
AEC_VARS_DWG_SETUP
  2
AecDbVarsDwgSetup
  3
AecBase60
 90
      129
280
     0
281
     0
  0
CLASS
  1
AEC_DISP_REP_2D_SECTION
  2
AecDbDispRep2dSection
  3
AecBase60
 90
      129
280
     0
281
     0
  0
CLASS
  1
AEC_DISP_PROPS_2D_SECTION
  2
AecDbDispProps2dSection
  3
AecBase60
 90
      129
280
     0
281
     0
  0
CLASS
  1
AEC_DISP_REP_CLIP_VOLUME_MODEL
  2
AecDbDispRepClipVolModel
  3
AecBase60
 90
      129
280
     0
281
     0
  0
CLASS
  1
AEC_DISP_PROPS_CLIP_VOLUME
  2
AecDbDispPropsClipVol
  3
AecBase60
 90
      129
280
     0
281
     0
  0
CLASS
  1
AEC_DISP_REP_CLIP_VOLUME_PLAN
  2
AecDbDispRepClipVolPlan
  3
AecBase60
 90
      129
280
     0
281
     0
  0
CLASS
  1
AEC_DISP_REP_CLIP_VOLUME_RESULT
  2
AecDbDispRepClipVolResult
  3
AecBase60
 90
      129
280
     0
281
     0
  0
CLASS
  1
AEC_DISP_REP_CLIP_VOLUME_RESULT_SUBDIV
  2
AecDbDispRepClipVolResSubDiv
  3
AecBase60
 90
      129
280
     0
281
     0
  0
CLASS
  1
AEC_DISP_PROPS_CLIP_VOLUME_RESULT
  2
AecDbDispPropsClipVolResSubDiv
  3
AecBase60
 90
      129
280
     0
281
     0
  0
CLASS
  1
AEC_DISP_REP_DISPLAYTHEME
  2
AecDbDispRepDisplayTheme
  3
AecBase60
 90
      129
280
     0
281
     0
  0
CLASS
  1
AEC_DISP_PROPS_DISPLAYTHEME
  2
AecDbDispPropsDisplayTheme
  3
AecBase60
 90
      129
280
     0
281
     0
  0
CLASS
  1
AEC_DISP_REP_ENT_REF
  2
AecDbDispRepEntRef
  3
AecBase60
 90
      129
280
     0
281
     0
  0
CLASS
  1
AEC_DISP_PROPS_ENT_REF
  2
AecDbDispPropsEntRef
  3
AecBase60
 90
      129
280
     0
281
     0
  0
CLASS
  1
AEC_DISP_REP_LAYOUT_CURVE
  2
AecDbDispRepLayoutCurve
  3
AecBase60
 90
      129
280
     0
281
     0
  0
CLASS
  1
AEC_DISP_PROPS_LAYOUT_CURVE
  2
AecDbDispPropsLayoutCurve
  3
AecBase60
 90
      129
280
     0
281
     0
  0
CLASS
  1
AEC_DISP_REP_LAYOUT_GRID2D
  2
AecDbDispRepLayoutGrid2d
  3
AecBase60
 90
      129
280
     0
281
     0
  0
CLASS
  1
AEC_DISP_PROPS_LAYOUT_GRID2D
  2
AecDbDispPropsLayoutGrid2d
  3
AecBase60
 90
      129
280
     0
281
     0
  0
CLASS
  1
AEC_DISP_REP_LAYOUT_GRID3D
  2
AecDbDispRepLayoutGrid3d
  3
AecBase60
 90
      129
280
     0
281
     0
  0
CLASS
  1
AEC_DISP_PROPS_LAYOUT_GRID3D
  2
AecDbDispPropsLayoutGrid3d
  3
AecBase60
 90
      129
280
     0
281
     0
  0
CLASS
  1
AEC_DISP_REP_MASKBLOCK_REF
  2
AecDbDispRepMaskBlockRef
  3
AecBase60
 90
      129
280
     0
281
     0
  0
CLASS
  1
AEC_DISP_PROPS_MASKBLOCK
  2
AecDbDispPropsMaskBlock
  3
AecBase60
 90
      129
280
     0
281
     0
  0
CLASS
  1
AEC_DISP_REP_MASKBLOCK_REF_RCP
  2
AecDbDispRepMaskBlockRefRcp
  3
AecArchBase60
 90
      129
280
     0
281
     0
  0
CLASS
  1
AEC_DISP_REP_MASS_ELEM_MODEL
  2
AecDbDispRepMassElemModel
  3
AecBase60
 90
      129
280
     0
281
     0
  0
CLASS
  1
AEC_DISP_PROPS_MASS_ELEM_MODEL
  2
AecDbDispPropsMassElem
  3
AecBase60
 90
      129
280
     0
281
     0
  0
CLASS
  1
AEC_DISP_REP_MASS_ELEM_SCHEM
  2
AecDbDispRepMassElemSchem
  3
AecBase60
 90
      129
280
     0
281
     0
  0
CLASS
  1
AEC_DISPREPAECDBDISPREPMASSELEMPLAN50
  2
AecDbDispRepMassElemPlan50
  3
AecArchDACHBase60
 90
      129
280
     0
281
     0
  0
CLASS
  1
AEC_DISPROPSMASSELEMPLANCOMMON
  2
AecDbDispPropsMassElemPlanCommon
  3
AecArchDACHBase60
 90
      129
280
     0
281
     0
  0
CLASS
  1
AEC_DISPREPAECDBDISPREPMASSELEMPLAN100
  2
AecDbDispRepMassElemPlan100
  3
AecArchDACHBase60
 90
      129
280
     0
281
     0
  0
CLASS
  1
AEC_DISP_REP_MASS_ELEM_RCP
  2
AecDbDispRepMassElemRcp
  3
AecArchBase60
 90
      129
280
     0
281
     0
  0
CLASS
  1
AEC_DISP_REP_MASS_GROUP_MODEL
  2
AecDbDispRepMassGroupModel
  3
AecBase60
 90
      129
280
     0
281
     0
  0
CLASS
  1
AEC_DISP_PROPS_MASS_GROUP
  2
AecDbDispPropsMassGroup
  3
AecBase60
 90
      129
280
     0
281
     0
  0
CLASS
  1
AEC_DISP_REP_MASS_GROUP_PLAN
  2
AecDbDispRepMassGroupPlan
  3
AecBase60
 90
      129
280
     0
281
     0
  0
CLASS
  1
AEC_DISPREPAECDBDISPREPMASSGROUPPLAN50
  2
AecDbDispRepMassGroupPlan50
  3
AecArchDACHBase60
 90
      129
280
     0
281
     0
  0
CLASS
  1
AEC_DISPROPSMASSGROUPPLANCOMMON
  2
AecDbDispPropsMassGroupPlanCommon
  3
AecArchDACHBase60
 90
      129
280
     0
281
     0
  0
CLASS
  1
AEC_DISPREPAECDBDISPREPMASSGROUPPLAN100
  2
AecDbDispRepMassGroupPlan100
  3
AecArchDACHBase60
 90
      129
280
     0
281
     0
  0
CLASS
  1
AEC_DISP_REP_MASS_GROUP_RCP
  2
AecDbDispRepMassGroupRcp
  3
AecArchBase60
 90
      129
280
     0
281
     0
  0
CLASS
  1
AEC_DISP_REP_MVBLOCK_REF
  2
AecDbDispRepMvBlockRef
  3
AecBase60
 90
      129
280
     0
281
     0
  0
CLASS
  1
AEC_DISP_REP_MVBLOCK_REF_MODEL
  2
AecDbDispRepMvBlockRefModel
  3
AecBase60
 90
      129
280
     0
281
     0
  0
CLASS
  1
AEC_AECDBDISPREPMVBLOCKREFPLAN100
  2
AecDbDispRepMvBlockRefPlan100
  3
AecBase60
 90
      129
280
     0
281
     0
  0
CLASS
  1
AEC_AECDBDISPREPMVBLOCKREFPLAN50
  2
AecDbDispRepMvBlockRefPlan50
  3
AecBase60
 90
      129
280
     0
281
     0
  0
CLASS
  1
AEC_DISP_REP_POLYGON_MODEL
  2
AecDbDispRepPolygonModel
  3
AecBase60
 90
      129
280
     0
281
     0
  0
CLASS
  1
AEC_DISP_PROPS_POLYGON_MODEL
  2
AecDbDispPropsPolygonModel
  3
AecBase60
 90
      129
280
     0
281
     0
  0
CLASS
  1
AEC_DISP_REP_POLYGON_TRUECOLOUR
  2
AecDbDispRepPolygonTrueColour
  3
AecBase60
 90
      129
280
     0
281
     0
  0
CLASS
  1
AEC_DISP_PROPS_POLYGON_TRUECOLOUR
  2
AecDbDispPropsPolygonTrueColour
  3
AecBase60
 90
      129
280
     0
281
     0
  0
CLASS
  1
AEC_DISP_REP_SLICE
  2
AecDbDispRepSlice
  3
AecBase60
 90
      129
280
     0
281
     0
  0
CLASS
  1
AEC_DISP_PROPS_SLICE
  2
AecDbDispPropsSlice
  3
AecBase60
 90
      129
280
     0
281
     0
  0
CLASS
  1
AEC_DISP_REP_ANCHOR
  2
AecDbDispRepAnchor
  3
AecBase60
 90
      129
280
     0
281
     0
  0
CLASS
  1
AEC_DISP_REP_ANCHOR_ENT_TO_NODE
  2
AecDbDispRepAnchorEntToNode
  3
AecBase60
 90
      129
280
     0
281
     0
  0
CLASS
  1
AEC_DISP_PROPS_ENT
  2
AecDbDispPropsEnt
  3
AecBase60
 90
      129
280
     0
281
     0
  0
CLASS
  1
AEC_DISP_REP_MATERIAL
  2
AecDbDispRepMaterial
  3
AecBase60
 90
      129
280
     0
281
     0
  0
CLASS
  1
AEC_DISP_PROPS_MATERIAL
  2
AecDbDispPropsMaterial
  3
AecBase60
 90
      129
280
     0
281
     0
  0
CLASS
  1
AEC_DISP_REP_EDITINPLACEPROFILE
  2
AecDbDispRepEditInPlaceProfile
  3
AecBase60
 90
      129
280
     0
281
     0
  0
CLASS
  1
AEC_DISP_PROPS_EDITINPLACEPROFILE_MODEL
  2
AecDbDispPropsEditInPlaceProfile
  3
AecBase60
 90
      129
280
     0
281
     0
  0
CLASS
  1
SUN
  2
AcDbSun
  3
SCENEOE
 90
     1153
280
     0
281
     0
  0
ENDSEC
  0
SECTION
  2
TABLES
  0
TABLE
  2
VPORT
  5
8
102
{ACAD_XDICTIONARY
360
381D61
102
}
330
0
100
AcDbSymbolTable
 70
     1
  0
VPORT
  5
3523F0
330
8
100
AcDbSymbolTableRecord
100
AcDbViewportTableRecord
  2
*Active
 70
     0
 10
0.0
 20
0.0
 11
1.0
 21
1.0
 12
-726.9691058875021
 22
-1818.594778003822
 13
0.0
 23
0.0
 14
1.0
 24
1.0
 15
20.0
 25
20.0
 16
0.0
 26
0.0
 36
1.0
 17
0.0
 27
0.0
 37
0.0
 40
90.10266086956521
 41
1.16751269035533
 42
50.0
 43
0.0
 44
0.0
 50
0.0
 51
0.0
 71
    16
 72
   100
 73
     1
 74
     0
 75
     0
 76
     0
 77
     0
 78
     0
281
     0
 65
     1
110
0.0
120
0.0
130
0.0
111
1.0
121
0.0
131
0.0
112
0.0
122
1.0
132
0.0
 79
     0
146
0.0
  0
ENDTAB
  0
TABLE
  2
LTYPE
  5
5
330
0
100
AcDbSymbolTable
 70
     1
  0
LTYPE
  5
12
330
5
100
AcDbSymbolTableRecord
100
AcDbLinetypeTableRecord
  2
BYBLOCK
 70
     0
  3

 72
    65
 73
     0
 40
0.0
  0
LTYPE
  5
13
330
5
100
AcDbSymbolTableRecord
100
AcDbLinetypeTableRecord
  2
BYLAYER
 70
     0
  3

 72
    65
 73
     0
 40
0.0
  0
LTYPE
  5
14
330
5
100
AcDbSymbolTableRecord
100
AcDbLinetypeTableRecord
  2
CONTINUOUS
 70
     0
  3
Solid line
 72
    65
 73
     0
 40
0.0
  0
ENDTAB
  0
TABLE
  2
LAYER
  5
2
102
{ACAD_XDICTIONARY
360
559E
102
}
330
0
100
AcDbSymbolTable
 70
     5
  0
LAYER
  5
F
102
{ACAD_XDICTIONARY
360
CD7F
102
}
330
2
100
AcDbSymbolTableRecord
100
AcDbLayerTableRecord
  2
0
 70
     0
 62
     7
  6
CONTINUOUS
370
    -3
390
352
  0
LAYER
  5
2F4
102
{ACAD_XDICTIONARY
360
CD8D
102
}
330
2
100
AcDbSymbolTableRecord
100
AcDbLayerTableRecord
  2
文字
 70
     0
 62
     7
  6
CONTINUOUS
370
    -3
390
352
  0
LAYER
  5
306B15
330
2
100
AcDbSymbolTableRecord
100
AcDbLayerTableRecord
  2
C-SUNPO
 70
     0
 62
     7
  6
CONTINUOUS
370
    -3
390
352
  0
LAYER
  5
31D3CB
330
2
100
AcDbSymbolTableRecord
100
AcDbLayerTableRecord
  2
姿図
 70
     0
 62
     8
  6
CONTINUOUS
370
    -3
390
352
  0
ENDTAB
  0
TABLE
  2
STYLE
  5
3
330
0
100
AcDbSymbolTable
 70
     1
  0
STYLE
  5
10
330
3
100
AcDbSymbolTableRecord
100
AcDbTextStyleTableRecord
  2
STANDARD
 70
     0
 40
0.0
 41
1.0
 50
0.0
 71
     0
 42
3.0
  3
MONOTXT
  4
BIGFONT
  0
ENDTAB
  0
TABLE
  2
VIEW
  5
6
330
0
100
AcDbSymbolTable
 70
     0
  0
ENDTAB
  0
TABLE
  2
UCS
  5
7
330
0
100
AcDbSymbolTable
 70
     0
  0
ENDTAB
  0
TABLE
  2
APPID
  5
9
330
0
100
AcDbSymbolTable
 70
    25
  0
APPID
  5
11
330
9
100
AcDbSymbolTableRecord
100
AcDbRegAppTableRecord
  2
ACAD
 70
     0
  0
APPID
  5
C058
330
9
100
AcDbSymbolTableRecord
100
AcDbRegAppTableRecord
  2
AcAecLayerStandard
 70
     0
  0
APPID
  5
CD77
330
9
100
AcDbSymbolTableRecord
100
AcDbRegAppTableRecord
  2
ACAD_MLEADERVER
 70
     0
  0
APPID
  5
D036
330
9
100
AcDbSymbolTableRecord
100
AcDbRegAppTableRecord
  2
ACAD_PSEXT
 70
     0
  0
APPID
  5
D28E
330
9
100
AcDbSymbolTableRecord
100
AcDbRegAppTableRecord
  2
ACAD_DSTYLE_DIMJAG
 70
     0
  0
APPID
  5
D28F
330
9
100
AcDbSymbolTableRecord
100
AcDbRegAppTableRecord
  2
ACAD_DSTYLE_DIMTALN
 70
     0
  0
APPID
  5
10E35
330
9
100
AcDbSymbolTableRecord
100
AcDbRegAppTableRecord
  2
ACAD_EXEMPT_FROM_CAD_STANDARDS
 70
     0
  0
APPID
  5
36B90
330
9
100
AcDbSymbolTableRecord
100
AcDbRegAppTableRecord
  2
ACAD_DSTYLE_DIMRADIAL_EXTENSION
 70
     0
  0
APPID
  5
4CBB9
330
9
100
AcDbSymbolTableRecord
100
AcDbRegAppTableRecord
  2
WACOM_STRING
 70
     0
  0
APPID
  5
4CBBA
330
9
100
AcDbSymbolTableRecord
100
AcDbRegAppTableRecord
  2
WACOM_DRSYM_ARROW
 70
     0
  0
APPID
  5
83B4C
330
9
100
AcDbSymbolTableRecord
100
AcDbRegAppTableRecord
  2
ACAD_DSTYLE_DIMRADIAL_EXTE
 70
     0
  0
APPID
  5
83B4D
330
9
100
AcDbSymbolTableRecord
100
AcDbRegAppTableRecord
  2
ACAD_DSTYLE_DIMBREAK
 70
     0
  0
APPID
  5
83B4E
330
9
100
AcDbSymbolTableRecord
100
AcDbRegAppTableRecord
  2
ACAD_DSTYLE_DIMARC_LENGTH_
 70
     0
  0
APPID
  5
8B472
330
9
100
AcDbSymbolTableRecord
100
AcDbRegAppTableRecord
  2
LAYER_SCALE
 70
     0
  0
APPID
  5
8B473
330
9
100
AcDbSymbolTableRecord
100
AcDbRegAppTableRecord
  2
KCAD_DIM_EXT
 70
     0
  0
APPID
  5
16ECBA
330
9
100
AcDbSymbolTableRecord
100
AcDbRegAppTableRecord
  2
GENIUS_GENDTOL_13
 70
     0
  0
APPID
  5
23CCFB
330
9
100
AcDbSymbolTableRecord
100
AcDbRegAppTableRecord
  2
AcadAnnotative
 70
     0
  0
APPID
  5
31A28D
330
9
100
AcDbSymbolTableRecord
100
AcDbRegAppTableRecord
  2
ACAD_DSTYLE_DIMFLIPARROW_WHICH_SYMBOL
 70
     0
  0
APPID
  5
35C75E
330
9
100
AcDbSymbolTableRecord
100
AcDbRegAppTableRecord
  2
AcadStringInfo
 70
     0
  0
APPID
  5
35C75F
330
9
100
AcDbSymbolTableRecord
100
AcDbRegAppTableRecord
  2
RAK
 70
     0
  0
APPID
  5
37FFFD
330
9
100
AcDbSymbolTableRecord
100
AcDbRegAppTableRecord
  2
AECBASE
 70
     0
  0
APPID
  5
37FFFE
330
9
100
AcDbSymbolTableRecord
100
AcDbRegAppTableRecord
  2
AEC_2DSECTION_XDATA
 70
     0
  0
APPID
  5
37FFFF
330
9
100
AcDbSymbolTableRecord
100
AcDbRegAppTableRecord
  2
AEC_MASSGROUP_XDADA
 70
     0
  0
APPID
  5
381CD5
330
9
100
AcDbSymbolTableRecord
100
AcDbRegAppTableRecord
  2
ACAD_SPLINE_DATA
 70
     0
  0
APPID
  5
381CD6
330
9
100
AcDbSymbolTableRecord
100
AcDbRegAppTableRecord
  2
ACAD_SPLINE_DATA2
 70
     0
  0
ENDTAB
  0
TABLE
  2
DIMSTYLE
  5
A
330
0
100
AcDbSymbolTable
 70
     1
100
AcDbDimStyleTable
  0
DIMSTYLE
105
1CC
330
A
100
AcDbSymbolTableRecord
100
AcDbDimStyleTableRecord
  2
STANDARD
 70
     0
 41
2.5
 42
1.5
 43
7.0
 44
1.0
 73
     0
 74
     0
 77
     3
 78
     8
 79
     2
140
3.0
141
0.0
146
0.6
147
1.0
171
     0
172
     1
176
     8
177
     8
271
     3
178
   256
179
     3
271
     3
272
     3
274
     0
289
     0
340
10
341
265D
342
265D
372
    -1
1001
ACAD_DSTYLE_DIMJAG
1070
   388
1040
1.5
1001
ACAD_DSTYLE_DIMTALN
1070
   392
1070
     0
  0
ENDTAB
  0
TABLE
  2
BLOCK_RECORD
  5
1
330
0
100
AcDbSymbolTable
 70
     1
  0
BLOCK_RECORD
  5
18
102
{ACAD_XDICTIONARY
360
D25F
102
}
330
1
100
AcDbSymbolTableRecord
100
AcDbBlockTableRecord
  2
*MODEL_SPACE
340
355
  0
BLOCK_RECORD
  5
15
330
1
100
AcDbSymbolTableRecord
100
AcDbBlockTableRecord
  2
*PAPER_SPACE
340
356
  0
BLOCK_RECORD
  5
265D
330
1
100
AcDbSymbolTableRecord
100
AcDbBlockTableRecord
  2
_OPEN30
340
0
  0
ENDTAB
  0
ENDSEC
  0
SECTION
  2
BLOCKS
  0
BLOCK
  5
39
330
18
100
AcDbEntity
  8
0
100
AcDbBlockBegin
  2
*MODEL_SPACE
 70
     0
 10
0.0
 20
0.0
 30
0.0
  3
*MODEL_SPACE
  1
*MODEL_SPACE
  0
ENDBLK
  5
3A
330
18
100
AcDbEntity
  8
0
100
AcDbBlockEnd
  0
BLOCK
  5
37
330
15
100
AcDbEntity
 67
     1
  8
0
100
AcDbBlockBegin
  2
*PAPER_SPACE
 70
     0
 10
0.0
 20
0.0
 30
0.0
  3
*PAPER_SPACE
  1
*PAPER_SPACE
  0
ENDBLK
  5
38
330
15
100
AcDbEntity
 67
     1
  8
0
100
AcDbBlockEnd
  0
BLOCK
  5
265E
330
265D
100
AcDbEntity
  8
0
100
AcDbBlockBegin
  2
_OPEN30
 70
     0
 10
0.0
 20
0.0
 30
0.0
  3
_OPEN30
  1
_OPEN30
  0
LINE
  5
265F
330
265D
100
AcDbEntity
  8
0
  6
ByBlock
 62
     0
100
AcDbLine
 10
-1.0
 20
0.26794919
 30
0.0
 11
0.0
 21
0.0
 31
0.0
  0
LINE
  5
2660
330
265D
100
AcDbEntity
  8
0
  6
ByBlock
 62
     0
100
AcDbLine
 10
0.0
 20
0.0
 30
0.0
 11
-1.0
 21
-0.26794919
 31
0.0
  0
LINE
  5
2661
330
265D
100
AcDbEntity
  8
0
  6
ByBlock
 62
     0
100
AcDbLine
 10
0.0
 20
0.0
 30
0.0
 11
-1.0
 21
0.0
 31
0.0
  0
ENDBLK
  5
2662
330
265D
100
AcDbEntity
  8
0
100
AcDbBlockEnd
  0
ENDSEC
  0
SECTION
  2
ENTITIES
  0
MTEXT
  5
8182F
330
18
100
AcDbEntity
  8
0
100
AcDbMText
 10
5598.734167156057
 20
-2635.335630549191
 30
0.0
 40
3.0
 41
0.0
 71
     7
 72
     1
  1
\A1;
 73
     1
 44
1.0
  0
MTEXT
  5
3073B9
330
18
100
AcDbEntity
  8
C-SUNPO
 62
     7
100
AcDbMText
 10
8897.245354628267
 20
-2466.345110988795
 30
0.0
 40
2.0
 41
0.0
 71
     5
 72
     1
  1
\A1;\P\P 
 11
0.9999986675605709
 21
0.0016324451239504
 31
0.0
 73
     1
 44
1.0
  0
ARC
  5
386F4B
330
18
100
AcDbEntity
  8
姿図
100
AcDbCircle
 10
-726.6281581772009
 20
-1808.903151844875
 30
0.0
 40
2.294642857142878
100
AcDbArc
 50
358.3403752217269
 51
61.66062462290632
  0
LINE
  5
386F4C
330
18
100
AcDbEntity
  8
姿図
100
AcDbLine
 10
-748.8502076073572
 20
-1794.806604888887
 30
0.0
 11
-755.4775229470024
 21
-1805.094291994048
 31
0.0
  0
LINE
  5
386F4D
330
18
100
AcDbEntity
  8
姿図
100
AcDbLine
 10
-719.694799170415
 20
-1815.866422752586
 30
0.0
 11
-719.412351406575
 21
-1815.497181273645
 31
0.0
  0
SPLINE
  5
386F4E
330
18
100
AcDbEntity
  8
姿図
100
AcDbSpline
210
0.0
220
0.0
230
1.0
 70
     8
 71
     3
 72
     9
 73
     5
 74
     0
 42
0.000000001
 43
0.0000000001
 40
0.0
 40
0.0
 40
0.0
 40
0.0
 40
0.4310732976631114
 40
1.0
 40
1.0
 40
1.0
 40
1.0
 10
-757.1975977379155
 20
-1813.103467627698
 30
0.0
 10
-757.1693104825661
 20
-1813.351693176546
 30
0.0
 10
-757.1036899593222
 20
-1813.927524595922
 30
0.0
 10
-756.972013094847
 20
-1814.506895412023
 30
0.0
 10
-756.8970986105669
 20
-1814.836514939856
 30
0.0
  0
LINE
  5
386F4F
330
18
100
AcDbEntity
  8
姿図
100
AcDbLine
 10
-729.0278112164204
 20
-1807.943973881528
 30
0.0
 11
-728.5645207098787
 21
-1807.676487559622
 31
0.0
  0
LINE
  5
386F50
330
18
100
AcDbEntity
  8
姿図
100
AcDbLine
 10
-722.2125814361934
 20
-1815.45199636193
 30
0.0
 11
-722.2125814361934
 21
-1804.2936156131
 31
0.0
  0
LINE
  5
386F51
330
18
100
AcDbEntity
  8
姿図
100
AcDbLine
 10
-745.8269216381677
 20
-1800.66969331993
 30
0.0
 11
-745.7270566562547
 21
-1800.536109447109
 31
0.0
  0
LINE
  5
386F52
330
18
100
AcDbEntity
  8
姿図
100
AcDbLine
 10
-746.2883815556129
 20
-1800.721550522608
 30
0.0
 11
-746.1794385376573
 21
-1800.576068734412
 31
0.0
  0
LINE
  5
386F53
330
18
100
AcDbEntity
  8
姿図
100
AcDbLine
 10
-746.7445382141354
 20
-1800.78747388076
 30
0.0
 11
-746.6280703373594
 21
-1800.632197962856
 31
0.0
  0
LINE
  5
386F54
330
18
100
AcDbEntity
  8
姿図
100
AcDbLine
 10
-747.194940510747
 20
-1800.867402199185
 30
0.0
 11
-747.0718697374612
 21
-1800.703575601459
 31
0.0
  0
LINE
  5
386F55
330
18
100
AcDbEntity
  8
姿図
100
AcDbLine
 10
-747.6391449157217
 20
-1800.961252040529
 30
0.0
 11
-747.5101429613251
 21
-1800.789786626333
 31
0.0
  0
LINE
  5
386F56
330
18
100
AcDbEntity
  8
姿図
100
AcDbLine
 10
-748.0767111920557
 20
-1801.068935025485
 30
0.0
 11
-747.9423279412126
 21
-1800.890565838247
 31
0.0
  0
LINE
  5
386F57
330
18
100
AcDbEntity
  8
姿図
100
AcDbLine
 10
-748.5072099687306
 20
-1801.190341673347
 30
0.0
 11
-748.3679223723003
 21
-1801.00571220841
 31
0.0
  0
LINE
  5
386F58
330
18
100
AcDbEntity
  8
姿図
100
AcDbLine
 10
-748.9302153320849
 20
-1801.325352333133
 30
0.0
 11
-748.7864623099823
 21
-1801.135044579309
 31
0.0
  0
LINE
  5
386F59
330
18
100
AcDbEntity
  8
姿図
100
AcDbLine
 10
-749.3453097649015
 20
-1801.473835472817
 30
0.0
 11
-749.1975007671734
 21
-1801.278394628358
 31
0.0
  0
LINE
  5
386F5A
330
18
100
AcDbEntity
  8
姿図
100
AcDbLine
 10
-749.7520841464038
 20
-1801.635644637478
 30
0.0
 11
-749.6006160284355
 21
-1801.435590376063
 31
0.0
  0
LINE
  5
386F5B
330
18
100
AcDbEntity
  8
姿図
100
AcDbLine
 10
-750.1501358589439
 20
-1801.810618876746
 30
0.0
 11
-749.9951739154067
 21
-1801.606160723511
 31
0.0
  0
LINE
  5
386F5C
330
18
100
AcDbEntity
  8
姿図
100
AcDbLine
 10
-750.5390729039027
 20
-1801.998586642523
 30
0.0
 11
-750.3804008029256
 21
-1801.789435412948
 31
0.0
  0
LINE
  5
386F5D
330
18
100
AcDbEntity
  8
姿図
100
AcDbLine
 10
-750.9185113704124
 20
-1802.199359764443
 30
0.0
 11
-750.7558922829267
 21
-1801.985197707336
 31
0.0
  0
LINE
  5
386F5E
330
18
100
AcDbEntity
  8
姿図
100
AcDbLine
 10
-751.2880762070854
 20
-1802.412744541859
 30
0.0
 11
-751.1212554410031
 21
-1802.193228381452
 31
0.0
  0
LINE
  5
386F5F
330
18
100
AcDbEntity
  8
姿図
100
AcDbLine
 10
-751.6474039693821
 20
-1802.638526600173
 30
0.0
 11
-751.4761074878688
 21
-1802.413285159573
 31
0.0
  0
LINE
  5
386F60
330
18
100
AcDbEntity
  8
姿図
100
AcDbLine
 10
-751.9961393416706
 20
-1802.876485612509
 30
0.0
 11
-751.8200697295638
 21
-1802.64511900534
 31
0.0
  0
LINE
  5
386F61
330
18
100
AcDbEntity
  8
姿図
100
AcDbLine
 10
-752.3339380183616
 20
-1803.126384796044
 30
0.0
 11
-752.1527716833523
 21
-1802.888459768381
 31
0.0
  0
LINE
  5
386F62
330
18
100
AcDbEntity
  8
姿図
100
AcDbLine
 10
-752.6604672698408
 20
-1803.387978843344
 30
0.0
 11
-752.4738517259829
 21
-1803.143019600389
 31
0.0
  0
LINE
  5
386F63
330
18
100
AcDbEntity
  8
姿図
100
AcDbLine
 10
-752.9754033391655
 20
-1803.661009377161
 30
0.0
 11
-752.7829545726917
 21
-1803.40849606207
 31
0.0
  0
LINE
  5
386F64
330
18
100
AcDbEntity
  8
姿図
100
AcDbLine
 10
-753.2784375335978
 20
-1803.94520694706
 30
0.0
 11
-753.0797307833006
 21
-1803.684571077427
 31
0.0
  0
LINE
  5
386F65
330
18
100
AcDbEntity
  8
姿図
100
AcDbLine
 10
-753.5692680751163
 20
-1804.240290886124
 30
0.0
 11
-753.3638380793006
 21
-1803.970903329135
 31
0.0
  0
LINE
  5
386F66
330
18
100
AcDbEntity
  8
姿図
100
AcDbLine
 10
-753.8476114603104
 20
-1804.545969787146
 30
0.0
 11
-753.6349391212686
 21
-1804.267134579598
 31
0.0
  0
LINE
  5
386F67
330
18
100
AcDbEntity
  8
姿図
100
AcDbLine
 10
-746.4099982626248
 20
-1800.730134084949
 30
0.0
 11
-747.347174598296
 21
-1802.238822239409
 31
0.0
  0
LINE
  5
386F68
330
18
100
AcDbEntity
  8
姿図
100
AcDbLine
 10
-754.1131902773062
 20
-1804.861941311313
 30
0.0
 11
-753.8917135274655
 21
-1804.571589854734
 31
0.0
  0
LINE
  5
386F69
330
18
100
AcDbEntity
  8
姿図
100
AcDbLine
 10
-754.3657430839348
 20
-1805.18789561121
 30
0.0
 11
-754.1275369986851
 21
-1804.875617971757
 31
0.0
  0
LINE
  5
386F6A
330
18
100
AcDbEntity
  8
姿図
100
AcDbLine
 10
-754.6050209503708
 20
-1805.523510292346
 30
0.0
 11
-753.8753720747721
 21
-1804.566907954328
 31
0.0
  0
LINE
  5
386F6B
330
18
100
AcDbEntity
  8
姿図
100
AcDbLine
 10
-754.8307881176814
 20
-1805.86845307458
 30
0.0
 11
-753.6077122571311
 21
-1804.264716569453
 31
0.0
  0
LINE
  5
386F6C
330
18
100
AcDbEntity
  8
姿図
100
AcDbLine
 10
-755.0428213392778
 20
-1806.222384454052
 30
0.0
 11
-753.3265433867255
 21
-1803.971444646793
 31
0.0
  0
LINE
  5
386F6D
330
18
100
AcDbEntity
  8
姿図
100
AcDbLine
 10
-755.2409111980068
 20
-1806.584955421429
 30
0.0
 11
-753.0326981930851
 21
-1803.687956393774
 31
0.0
  0
LINE
  5
386F6E
330
18
100
AcDbEntity
  8
姿図
100
AcDbLine
 10
-755.4248624354213
 20
-1806.955806891644
 30
0.0
 11
-752.7267502684776
 21
-1803.414754201863
 31
0.0
  0
LINE
  5
386F6F
330
18
100
AcDbEntity
  8
姿図
100
AcDbLine
 10
-755.5944929639653
 20
-1807.334575217345
 30
0.0
 11
-752.4091796918483
 21
-1803.152195964445
 31
0.0
  0
LINE
  5
386F70
330
18
100
AcDbEntity
  8
姿図
100
AcDbLine
 10
-755.7496368304232
 20
-1807.720883253183
 30
0.0
 11
-752.0805719092659
 21
-1802.900753652001
 31
0.0
  0
LINE
  5
386F71
330
18
100
AcDbEntity
  8
姿図
100
AcDbLine
 10
-755.8901392768347
 20
-1808.114353473886
 30
0.0
 11
-751.7414063411311
 21
-1802.660743708794
 31
0.0
  0
LINE
  5
386F72
330
18
100
AcDbEntity
  8
姿図
100
AcDbLine
 10
-756.0158626673982
 20
-1808.514595426436
 30
0.0
 11
-751.3920846995943
 21
-1802.432354052085
 31
0.0
  0
LINE
  5
386F73
330
18
100
AcDbEntity
  8
姿図
100
AcDbLine
 10
-756.1266825372016
 20
-1808.921212574604
 30
0.0
 11
-751.0330083675325
 21
-1802.215756817894
 31
0.0
  0
LINE
  5
386F74
330
18
100
AcDbEntity
  8
姿図
100
AcDbLine
 10
-756.2224895678564
 20
-1809.333807241163
 30
0.0
 11
-750.664580703458
 21
-1802.011110832344
 31
0.0
  0
LINE
  5
386F75
330
18
100
AcDbEntity
  8
姿図
100
AcDbLine
 10
-756.3031889289541
 20
-1809.751971102894
 30
0.0
 11
-750.2872060536978
 21
-1801.818549254424
 31
0.0
  0
LINE
  5
386F76
330
18
100
AcDbEntity
  8
姿図
100
AcDbLine
 10
-756.3687015951527
 20
-1810.175288992293
 30
0.0
 11
-749.9012887645804
 21
-1801.638199157692
 31
0.0
  0
LINE
  5
386F77
330
18
100
AcDbEntity
  8
姿図
100
AcDbLine
 10
-756.4189630290907
 20
-1810.603347262778
 30
0.0
 11
-749.5072356519743
 21
-1801.470165655467
 31
0.0
  0
LINE
  5
386F78
330
18
100
AcDbEntity
  8
姿図
100
AcDbLine
 10
-756.4539238399301
 20
-1811.035719720195
 30
0.0
 11
-749.2539794374937
 21
-1801.511029200276
 31
0.0
  0
LINE
  5
386F79
330
18
100
AcDbEntity
  8
姿図
100
AcDbLine
 10
-756.4735471491794
 20
-1811.471981310896
 30
0.0
 11
-749.2730615054751
 21
-1801.935248552365
 31
0.0
  0
LINE
  5
386F7A
330
18
100
AcDbEntity
  8
姿図
100
AcDbLine
 10
-756.4778164932245
 20
-1811.911702798625
 30
0.0
 11
-749.2772122291906
 21
-1802.362827510728
 31
0.0
  0
LINE
  5
386F7B
330
18
100
AcDbEntity
  8
姿図
100
AcDbLine
 10
-725.1085134586182
 20
-1816.335287898016
 30
0.0
 11
-725.1085134586182
 21
-1816.361403714626
 31
0.0
  0
LINE
  5
386F7C
330
18
100
AcDbEntity
  8
姿図
100
AcDbLine
 10
-756.4667266037103
 20
-1812.354446962084
 30
0.0
 11
-749.2664281512825
 21
-1802.793349100075
 31
0.0
  0
LINE
  5
386F7D
330
18
100
AcDbEntity
  8
姿図
100
AcDbLine
 10
-756.4402886758926
 20
-1812.799780001744
 30
0.0
 11
-749.2407188206453
 21
-1803.226387314605
 31
0.0
  0
LINE
  5
386F7E
330
18
100
AcDbEntity
  8
姿図
100
AcDbLine
 10
-756.3985277344636
 20
-1813.24726013328
 30
0.0
 11
-749.2001102189174
 21
-1803.661512743822
 31
0.0
  0
LINE
  5
386F7F
330
18
100
AcDbEntity
  8
姿図
100
AcDbLine
 10
-756.3414865848152
 20
-1813.696448993651
 30
0.0
 11
-749.1446427745585
 21
-1804.09830056352
 31
0.0
  0
LINE
  5
386F80
330
18
100
AcDbEntity
  8
姿図
100
AcDbLine
 10
-754.735398933517
 20
-1812.098085132329
 30
0.0
 11
-749.074370313292
 21
-1804.536315172081
 31
0.0
  0
LINE
  5
386F81
330
18
100
AcDbEntity
  8
姿図
100
AcDbLine
 10
-753.6958031217854
 20
-1811.272055185577
 30
0.0
 11
-753.2578713532492
 21
-1810.686129143487
 31
0.0
  0
LINE
  5
386F82
330
18
100
AcDbEntity
  8
姿図
100
AcDbLine
 10
-753.2063955632382
 20
-1810.617257173461
 30
0.0
 11
-748.9893631244548
 21
-1804.975124389417
 31
0.0
  0
LINE
  5
386F83
330
18
100
AcDbEntity
  8
姿図
100
AcDbLine
 10
-721.3198473059155
 20
-1792.034387135005
 30
0.0
 11
-721.7800033052347
 21
-1792.469720752548
 31
0.0
  0
LINE
  5
386F84
330
18
100
AcDbEntity
  8
姿図
100
AcDbLine
 10
-727.6528686538381
 20
-1788.602658975469
 30
0.0
 11
-727.4588507404383
 21
-1787.994145196088
 31
0.0
  0
LINE
  5
386F85
330
18
100
AcDbEntity
  8
姿図
100
AcDbLine
 10
-715.0221736637312
 20
-1803.352137425996
 30
0.0
 11
-715.7559410766825
 21
-1803.282971216654
 31
0.0
  0
LINE
  5
386F86
330
18
100
AcDbEntity
  8
姿図
100
AcDbLine
 10
-739.7778088704403
 20
-1787.553972321814
 30
0.0
 11
-740.1459797021571
 21
-1786.90198905367
 31
0.0
  0
LINE
  5
386F87
330
18
100
AcDbEntity
  8
姿図
100
AcDbLine
 10
-720.8128766946129
 20
-1827.399677162714
 30
0.0
 11
-720.8128766946129
 21
-1826.66479049217
 31
0.0
  0
LINE
  5
386F88
330
18
100
AcDbEntity
  8
姿図
100
AcDbLine
 10
-758.612875740021
 20
-1826.66479049217
 30
0.0
 11
-758.612875740021
 21
-1827.399677162714
 31
0.0
  0
SPLINE
  5
386F89
330
18
100
AcDbEntity
  8
姿図
100
AcDbSpline
210
0.0
220
0.0
230
1.0
 70
     8
 71
     3
 72
    11
 73
     7
 74
     0
 42
0.000000001
 43
0.0000000001
 40
0.0
 40
0.0
 40
0.0
 40
0.0
 40
0.0149165483648847
 40
0.420441187871101
 40
0.8084052234782678
 40
1.0
 40
1.0
 40
1.0
 40
1.0
 10
-722.8605293044984
 20
-1821.774603792724
 30
0.0
 10
-722.8700165208611
 20
-1821.746675991427
 30
0.0
 10
-723.137425335516
 20
-1820.959496701384
 30
0.0
 10
-723.7300307404622
 20
-1819.471516959048
 30
0.0
 10
-724.4773341580302
 20
-1817.668180356621
 30
0.0
 10
-724.9762088707289
 20
-1816.634457994126
 30
0.0
 10
-725.1411305095538
 20
-1816.292722520723
 30
0.0
  0
SPLINE
  5
386F8A
330
18
100
AcDbEntity
  8
姿図
100
AcDbSpline
210
0.0
220
0.0
230
1.0
 70
     8
 71
     3
 72
    11
 73
     7
 74
     0
 42
0.000000001
 43
0.0000000001
 40
0.0
 40
0.0
 40
0.0
 40
0.0
 40
0.1471602446114391
 40
0.522501929191198
 40
0.9141210550826743
 40
1.0
 40
1.0
 40
1.0
 40
1.0
 10
-754.2842972626377
 20
-1816.289322158795
 30
0.0
 10
-754.4108791490692
 20
-1816.549547068176
 30
0.0
 10
-754.8603162917966
 20
-1817.473492373745
 30
0.0
 10
-755.5581077870233
 20
-1819.131505428961
 30
0.0
 10
-756.1836381620706
 20
-1820.688344877332
 30
0.0
 10
-756.489752364705
 20
-1821.574684711969
 30
0.0
 10
-756.5448075918439
 20
-1821.734094633161
 30
0.0
  0
LINE
  5
386F8B
330
18
100
AcDbEntity
  8
姿図
100
AcDbLine
 10
-756.8943939682731
 20
-1821.219435406528
 30
0.0
 11
-756.5799185508312
 21
-1821.769481550548
 31
0.0
  0
SPLINE
  5
386F8C
330
18
100
AcDbEntity
  8
姿図
100
AcDbSpline
210
0.0
220
0.0
230
1.0
 70
     8
 71
     3
 72
     9
 73
     5
 74
     0
 42
0.000000001
 43
0.0000000001
 40
0.0
 40
0.0
 40
0.0
 40
0.0
 40
0.6774133902114507
 40
1.0
 40
1.0
 40
1.0
 40
1.0
 10
-722.8605289752256
 20
-1821.774604134664
 30
0.0
 10
-722.7820974439496
 20
-1821.660438255737
 30
0.0
 10
-722.6663165450036
 20
-1821.491906188646
 30
0.0
 10
-722.5815354871979
 20
-1821.316669363554
 30
0.0
 10
-722.5541862531859
 20
-1821.260140310237
 30
0.0
  0
LINE
  5
386F8D
330
18
100
AcDbEntity
  8
姿図
100
AcDbLine
 10
-721.7128765464475
 20
-1818.094643720155
 30
0.0
 11
-721.7128765464475
 21
-1817.883444924158
 31
0.0
  0
LINE
  5
386F8E
330
18
100
AcDbEntity
  8
姿図
100
AcDbLine
 10
-757.7128758881867
 20
-1817.883444924158
 30
0.0
 11
-757.7128758881867
 21
-1818.094643720155
 31
0.0
  0
SPLINE
  5
386F8F
330
18
100
AcDbEntity
  8
姿図
100
AcDbSpline
210
0.0
220
0.0
230
1.0
 70
     8
 71
     3
 72
    36
 73
    32
 74
     0
 42
0.000000001
 43
0.0000000001
 40
0.0
 40
0.0
 40
0.0
 40
0.0
 40
0.0219490779091478
 40
0.0573166952190497
 40
0.09276681442024
 40
0.1282826694269576
 40
0.1638454794210288
 40
0.1994380920088242
 40
0.2350467339602094
 40
0.2706612340798595
 40
0.3062733316961921
 40
0.3418796211500268
 40
0.3774784038133418
 40
0.4130691395248984
 40
0.4486520778715838
 40
0.484227942183337
 40
0.5197978039682898
 40
0.5553628046759985
 40
0.5909242908229185
 40
0.626483629498138
 40
0.6620422458034378
 40
0.6976014636912293
 40
0.7331623291877901
 40
0.7687262718663305
 40
0.8042947388661934
 40
0.8398691445591882
 40
0.8754508441109368
 40
0.911041107069245
 40
0.9466410453485675
 40
0.9822513543091154
 40
1.0
 40
1.0
 40
1.0
 40
1.0
 10
-722.5610594822155
 20
-1814.709731705135
 30
0.0
 10
-722.6394201559847
 20
-1814.563477432143
 30
0.0
 10
-722.8440471965442
 20
-1814.181556532128
 30
0.0
 10
-723.2691720992061
 20
-1813.584554952289
 30
0.0
 10
-723.8236892769555
 20
-1812.920177263067
 30
0.0
 10
-724.46070739073
 20
-1812.281127228233
 30
0.0
 10
-725.1724645638827
 20
-1811.669750636561
 30
0.0
 10
-725.9565361660524
 20
-1811.089427094011
 30
0.0
 10
-726.8085534783736
 20
-1810.542994881597
 30
0.0
 10
-727.7242416587482
 20
-1810.033165770025
 30
0.0
 10
-728.6989233517697
 20
-1809.562401004762
 30
0.0
 10
-729.7277041931047
 20
-1809.132941786781
 30
0.0
 10
-730.8054703034553
 20
-1808.746810853973
 30
0.0
 10
-731.9268936064404
 20
-1808.405816638815
 30
0.0
 10
-733.0864511288127
 20
-1808.11155214684
 30
0.0
 10
-734.2784493549434
 20
-1807.865399243303
 30
0.0
 10
-735.4970412056309
 20
-1807.668504061738
 30
0.0
 10
-736.7362573200497
 20
-1807.521790812606
 30
0.0
 10
-737.990030376959
 20
-1807.425945846001
 30
0.0
 10
-739.2522250139477
 20
-1807.381417683003
 30
0.0
 10
-740.5166647081387
 20
-1807.388416017529
 30
0.0
 10
-741.7771584627858
 20
-1807.446903684139
 30
0.0
 10
-743.027533695686
 20
-1807.556608064571
 30
0.0
 10
-744.2616747460959
 20
-1807.717005693646
 30
0.0
 10
-745.4735316189781
 20
-1807.927355994078
 30
0.0
 10
-746.6572313560162
 20
-1808.186636220104
 30
0.0
 10
-747.8067772477552
 20
-1808.49377548063
 30
0.0
 10
-748.9173130389756
 20
-1808.846821885136
 30
0.0
 10
-749.9805087500071
 20
-1809.246102035009
 30
0.0
 10
-750.831051559814
 20
-1809.609428307055
 30
0.0
 10
-751.3085235254147
 20
-1809.850685180639
 30
0.0
 10
-751.4673437421925
 20
-1809.930933806155
 30
0.0
  0
SPLINE
  5
386F90
330
18
100
AcDbEntity
  8
姿図
100
AcDbSpline
210
0.0
220
0.0
230
1.0
 70
     8
 71
     3
 72
    10
 73
     6
 74
     0
 42
0.000000001
 43
0.0000000001
 40
0.0
 40
0.0
 40
0.0
 40
0.0
 40
0.1726546257520469
 40
0.7163255483619198
 40
1.0
 40
1.0
 40
1.0
 40
1.0
 10
-748.4540800795521
 20
-1807.036215176071
 30
0.0
 10
-748.5636375479052
 20
-1807.164937016783
 30
0.0
 10
-749.0181797488649
 20
-1807.698990145869
 30
0.0
 10
-749.6288054310544
 20
-1808.474850664144
 30
0.0
 10
-750.1018221510008
 20
-1809.147768756179
 30
0.0
 10
-750.2640068477702
 20
-1809.378494250873
 30
0.0
  0
SPLINE
  5
386F91
330
18
100
AcDbEntity
  8
姿図
100
AcDbSpline
210
0.0
220
0.0
230
1.0
 70
     8
 71
     3
 72
    14
 73
    10
 74
     0
 42
0.000000001
 43
0.0000000001
 40
0.0
 40
0.0
 40
0.0
 40
0.0
 40
0.033453286193217
 40
0.206578437138729
 40
0.3797307823516744
 40
0.5528197307549265
 40
0.7257763619263617
 40
0.8985131731676199
 40
0.9999999999999998
 40
0.9999999999999998
 40
0.9999999999999998
 40
0.9999999999999998
 10
-753.245210341175
 20
-1810.95382100468
 30
0.0
 10
-753.299562343724
 20
-1810.989302018082
 30
0.0
 10
-753.6351930999106
 20
-1811.208401937128
 30
0.0
 10
-754.2065536753747
 20
-1811.634842333483
 30
0.0
 10
-754.9262645098806
 20
-1812.244598477176
 30
0.0
 10
-755.569122407709
 20
-1812.884392384132
 30
0.0
 10
-756.1301606113858
 20
-1813.550213171747
 30
0.0
 10
-756.5559788268151
 20
-1814.141517649136
 30
0.0
 10
-756.7596100772834
 20
-1814.51716844665
 30
0.0
 10
-756.8349715216837
 20
-1814.656192229225
 30
0.0
  0
LINE
  5
386F92
330
18
100
AcDbEntity
  8
姿図
100
AcDbLine
 10
-753.2578713532492
 20
-1810.674280553502
 30
0.0
 11
-753.2578713532492
 21
-1810.973738672652
 31
0.0
  0
LINE
  5
386F93
330
18
100
AcDbEntity
  8
姿図
100
AcDbLine
 10
-743.378137056124
 20
-1789.391968644586
 30
0.0
 11
-743.4510386945999
 21
-1789.384612512634
 31
0.0
  0
LINE
  5
386F94
330
18
100
AcDbEntity
  8
姿図
100
AcDbLine
 10
-744.3989692061432
 20
-1790.126622015243
 30
0.0
 11
-744.4093342027905
 21
-1790.199155566349
 31
0.0
  0
LINE
  5
386F95
330
18
100
AcDbEntity
  8
姿図
100
AcDbLine
 10
-716.3778691929327
 20
-1808.631027598152
 30
0.0
 11
-716.3172330488154
 21
-1808.592760629449
 31
0.0
  0
LINE
  5
386F96
330
18
100
AcDbEntity
  8
姿図
100
AcDbLine
 10
-716.0182591105475
 20
-1807.440756733132
 30
0.0
 11
-716.0526331582304
 21
-1807.377831724778
 31
0.0
  0
LINE
  5
386F97
330
18
100
AcDbEntity
  8
姿図
100
AcDbLine
 10
-716.0867865935037
 20
-1807.346865374378
 30
0.0
 11
-716.124104993682
 21
-1807.337179902473
 31
0.0
  0
LINE
  5
386F98
330
18
100
AcDbEntity
  8
姿図
100
AcDbLine
 10
-720.9232270221819
 20
-1792.067711321426
 30
0.0
 11
-714.0457240385093
 21
-1781.537691112577
 31
0.0
  0
LINE
  5
386F99
330
18
100
AcDbEntity
  8
姿図
100
AcDbLine
 10
-719.8734675637869
 20
-1777.685937923508
 30
0.0
 11
-727.5080797412238
 21
-1787.797743540866
 31
0.0
  0
LINE
  5
386F9A
330
18
100
AcDbEntity
  8
姿図
100
AcDbLine
 10
-717.2487653287817
 20
-1796.75268770443
 30
0.0
 11
-710.3296680154402
 21
-1786.158984204997
 31
0.0
  0
LINE
  5
386F9B
330
18
100
AcDbEntity
  8
姿図
100
AcDbLine
 10
-725.5339295887802
 20
-1776.168687655152
 30
0.0
 11
-733.1022504534562
 21
-1786.192690012009
 31
0.0
  0
LINE
  5
386F9C
330
18
100
AcDbEntity
  8
姿図
100
AcDbLine
 10
-715.8493608834959
 20
-1802.570374667636
 30
0.0
 11
-708.5382419027205
 21
-1791.376452684976
 31
0.0
  0
LINE
  5
386F9D
330
18
100
AcDbEntity
  8
姿図
100
AcDbLine
 10
-730.9189930749826
 20
-1776.687935835511
 30
0.0
 11
-738.941712695935
 21
-1787.313773901734
 31
0.0
  0
LINE
  5
386F9E
330
18
100
AcDbEntity
  8
姿図
100
AcDbLine
 10
-714.8524344753433
 20
-1805.441821925156
 30
0.0
 11
-708.9441661032632
 21
-1796.395778100723
 31
0.0
  0
LINE
  5
386F9F
330
18
100
AcDbEntity
  8
姿図
100
AcDbLine
 10
-735.2088316838676
 20
-1779.164631974114
 30
0.0
 11
-741.3378098483907
 21
-1787.282271787205
 31
0.0
  0
SPLINE
  5
386FA0
330
18
100
AcDbEntity
  8
姿図
100
AcDbSpline
210
0.0
220
0.0
230
1.0
 70
     8
 71
     3
 72
     9
 73
     5
 74
     0
 42
0.000000001
 43
0.0000000001
 40
0.0
 40
0.0
 40
0.0
 40
0.0
 40
0.5508049548517234
 40
0.9999999999999998
 40
0.9999999999999998
 40
0.9999999999999998
 40
0.9999999999999998
 10
-730.3353999869955
 20
-1782.528082884999
 30
0.0
 10
-730.3550102410962
 20
-1782.535672651869
 30
0.0
 10
-730.3906131417752
 20
-1782.549452061083
 30
0.0
 10
-730.4304248702597
 20
-1782.541927312286
 30
0.0
 10
-730.4483081014336
 20
-1782.538547232411
 30
0.0
  0
SPLINE
  5
386FA1
330
18
100
AcDbEntity
  8
姿図
100
AcDbSpline
210
0.0
220
0.0
230
1.0
 70
     8
 71
     3
 72
    11
 73
     7
 74
     0
 42
0.000000001
 43
0.0000000001
 40
0.0
 40
0.0
 40
0.0
 40
0.0
 40
0.1614343168513459
 40
0.4650050428602775
 40
0.7685432961520176
 40
0.9999999999999998
 40
0.9999999999999998
 40
0.9999999999999998
 40
0.9999999999999998
 10
-730.3946801879706
 20
-1782.547943300739
 30
0.0
 10
-730.5859483002896
 20
-1782.5454116359
 30
0.0
 10
-731.1368883885034
 20
-1782.538119277376
 30
0.0
 10
-732.0335454713188
 20
-1782.58681915614
 30
0.0
 10
-732.9921396522768
 20
-1782.703213772682
 30
0.0
 10
-733.5835856319216
 20
-1782.827124517339
 30
0.0
 10
-733.8394649353168
 20
-1782.880732447932
 30
0.0
  0
LINE
  5
386FA2
330
18
100
AcDbEntity
  8
姿図
100
AcDbLine
 10
-714.8606641414235
 20
-1805.620241080162
 30
0.0
 11
-711.4856143183888
 21
-1800.452767272798
 31
0.0
  0
SPLINE
  5
386FA3
330
18
100
AcDbEntity
  8
姿図
100
AcDbSpline
210
0.0
220
0.0
230
1.0
 70
     8
 71
     3
 72
     9
 73
     5
 74
     0
 42
0.000000001
 43
0.0000000001
 40
0.0
 40
0.0
 40
0.0
 40
0.0
 40
0.5959400923472181
 40
0.9999999999999998
 40
0.9999999999999998
 40
0.9999999999999998
 40
0.9999999999999998
 10
-733.7964679058459
 20
-1782.866483365548
 30
0.0
 10
-733.8164306832986
 20
-1782.871016344352
 30
0.0
 10
-733.849928643428
 20
-1782.878622778056
 30
0.0
 10
-733.8693312415633
 20
-1782.865075330647
 30
0.0
 10
-733.8771710535739
 20
-1782.859601350298
 30
0.0
  0
SPLINE
  5
386FA4
330
18
100
AcDbEntity
  8
姿図
100
AcDbSpline
210
0.0
220
0.0
230
1.0
 70
     8
 71
     3
 72
    14
 73
    10
 74
     0
 42
0.000000001
 43
0.0000000001
 40
0.0
 40
0.0
 40
0.0
 40
0.0
 40
0.0511877064873567
 40
0.1572034174235592
 40
0.2652544287689569
 40
0.4148237046607968
 40
0.6347596724107674
 40
0.8810790190330067
 40
1.0
 40
1.0
 40
1.0
 40
1.0
 10
-723.1741802242159
 20
-1790.561887839186
 30
0.0
 10
-723.1732458857759
 20
-1790.56122115174
 30
0.0
 10
-723.1703764234416
 20
-1790.559173676828
 30
0.0
 10
-723.1882916410905
 20
-1790.570765206679
 30
0.0
 10
-723.2352257647607
 20
-1790.593455091665
 30
0.0
 10
-723.3304339263448
 20
-1790.62252315108
 30
0.0
 10
-723.47002303839
 20
-1790.62516667143
 30
0.0
 10
-723.6062709334846
 20
-1790.591540009121
 30
0.0
 10
-723.6708757051637
 20
-1790.53636331705
 30
0.0
 10
-723.6919107942347
 20
-1790.518397977925
 30
0.0
  0
SPLINE
  5
386FA5
330
18
100
AcDbEntity
  8
姿図
100
AcDbSpline
210
0.0
220
0.0
230
1.0
 70
     8
 71
     3
 72
     9
 73
     5
 74
     0
 42
0.000000001
 43
0.0000000001
 40
0.0
 40
0.0
 40
0.0
 40
0.0
 40
0.4705024535852698
 40
1.0
 40
1.0
 40
1.0
 40
1.0
 10
-723.6824699001681
 20
-1790.535369694382
 30
0.0
 10
-723.8084843676029
 20
-1790.446303363921
 30
0.0
 10
-724.0763139325167
 20
-1790.257002904843
 30
0.0
 10
-724.3563834100759
 20
-1790.08706953485
 30
0.0
 10
-724.5046795112694
 20
-1789.997090232385
 30
0.0
  0
SPLINE
  5
386FA6
330
18
100
AcDbEntity
  8
姿図
100
AcDbSpline
210
0.0
220
0.0
230
1.0
 70
     8
 71
     3
 72
    13
 73
     9
 74
     0
 42
0.000000001
 43
0.0000000001
 40
0.0
 40
0.0
 40
0.0
 40
0.0
 40
0.2716070499179472
 40
0.490516575873601
 40
0.672547539624406
 40
0.8167200548564164
 40
0.9417120241776279
 40
1.0
 40
1.0
 40
1.0
 40
1.0
 10
-724.4943265330594
 20
-1790.003149806367
 30
0.0
 10
-724.5406180667887
 20
-1789.969240965405
 30
0.0
 10
-724.6242195956293
 20
-1789.908002317269
 30
0.0
 10
-724.6938831420156
 20
-1789.78754044888
 30
0.0
 10
-724.7220456633121
 20
-1789.690106404912
 30
0.0
 10
-724.727058970213
 20
-1789.629713629295
 30
0.0
 10
-724.7255344227742
 20
-1789.605826275233
 30
0.0
 10
-724.7257464026402
 20
-1789.607767355792
 30
0.0
 10
-724.7258138179668
 20
-1789.608384671869
 30
0.0
  0
SPLINE
  5
386FA7
330
18
100
AcDbEntity
  8
姿図
100
AcDbSpline
210
0.0
220
0.0
230
1.0
 70
     8
 71
     3
 72
    10
 73
     6
 74
     0
 42
0.000000001
 43
0.0000000001
 40
0.0
 40
0.0
 40
0.0
 40
0.0
 40
0.3442360472463124
 40
0.7118235032574172
 40
1.0
 40
1.0
 40
1.0
 40
1.0
 10
-736.1821780827318
 20
-1783.67334794477
 30
0.0
 10
-736.4567709361161
 20
-1783.806429423892
 30
0.0
 10
-737.0245837739329
 20
-1784.081620024774
 30
0.0
 10
-737.7657869716687
 20
-1784.545226865064
 30
0.0
 10
-738.2156140846226
 20
-1784.889049680685
 30
0.0
 10
-738.4132913143739
 20
-1785.040143155844
 30
0.0
  0
SPLINE
  5
386FA8
330
18
100
AcDbEntity
  8
姿図
100
AcDbSpline
210
0.0
220
0.0
230
1.0
 70
     8
 71
     3
 72
     9
 73
     5
 74
     0
 42
0.000000001
 43
0.0000000001
 40
0.0
 40
0.0
 40
0.0
 40
0.0
 40
0.2083134628354365
 40
0.9999999999999998
 40
0.9999999999999998
 40
0.9999999999999998
 40
0.9999999999999998
 10
-738.3959530722494
 20
-1785.023767302067
 30
0.0
 10
-738.3974463357644
 20
-1785.02582316561
 30
0.0
 10
-738.4046146843393
 20
-1785.035692251912
 30
0.0
 10
-738.4002390133172
 20
-1785.032138171703
 30
0.0
 10
-738.3967748534773
 20
-1785.02932445425
 30
0.0
  0
SPLINE
  5
386FA9
330
18
100
AcDbEntity
  8
姿図
100
AcDbSpline
210
0.0
220
0.0
230
1.0
 70
     8
 71
     3
 72
    16
 73
    12
 74
     0
 42
0.000000001
 43
0.0000000001
 40
0.0
 40
0.0
 40
0.0
 40
0.0
 40
0.0482458051470702
 40
0.16928243903167
 40
0.2838295894430192
 40
0.3980518614863318
 40
0.5182421899442318
 40
0.6491406542458897
 40
0.771905619630426
 40
0.8921029010846279
 40
1.0
 40
1.0
 40
1.0
 40
1.0
 10
-714.0523522889825
 20
-1781.532911492184
 30
0.0
 10
-714.0387757874869
 20
-1781.516087174316
 30
0.0
 10
-713.9911392462457
 20
-1781.457054859383
 30
0.0
 10
-713.9675432457346
 20
-1781.326297887413
 30
0.0
 10
-713.982092584566
 20
-1781.17021203562
 30
0.0
 10
-714.0508211994666
 20
-1781.026780450902
 30
0.0
 10
-714.1674288580916
 20
-1780.908934615706
 30
0.0
 10
-714.3225749071725
 20
-1780.836791128961
 30
0.0
 10
-714.4914120053953
 20
-1780.825665099699
 30
0.0
 10
-714.6472575233165
 20
-1780.868011345588
 30
0.0
 10
-714.7243572641037
 20
-1780.93564452814
 30
0.0
 10
-714.7608283001045
 20
-1780.967637531106
 30
0.0
  0
LWPOLYLINE
  5
386FAA
330
18
100
AcDbEntity
  8
姿図
100
AcDbPolyline
 90
        3
 70
   128
 43
0.0
 10
-721.6122769581357
 20
-1785.685622868797
 10
-720.4480265735774
 20
-1782.216241308385
 10
-719.0718147487745
 20
-1778.115237689325
  0
SPLINE
  5
386FAB
330
18
100
AcDbEntity
  8
姿図
100
AcDbSpline
210
0.0
220
0.0
230
1.0
 70
     8
 71
     3
 72
    16
 73
    12
 74
     0
 42
0.000000001
 43
0.0000000001
 40
0.0
 40
0.0
 40
0.0
 40
0.0
 40
0.107459996077814
 40
0.2260599487164002
 40
0.3460318614060642
 40
0.4738373063293599
 40
0.61377939425034
 40
0.740701959215964
 40
0.8654287961241006
 40
0.9892586968424462
 40
1.0
 40
1.0
 40
1.0
 40
1.0
 10
-719.0746300265463
 20
-1778.113608490826
 30
0.0
 10
-719.0627573058563
 20
-1778.068801567344
 30
0.0
 10
-719.0377810660628
 20
-1777.974542762261
 30
0.0
 10
-719.0655598270772
 20
-1777.824643962655
 30
0.0
 10
-719.1401355453042
 20
-1777.684501471897
 30
0.0
 10
-719.2658500871048
 20
-1777.570479460041
 30
0.0
 10
-719.4266822430981
 20
-1777.50760755584
 30
0.0
 10
-719.5988370413406
 20
-1777.506406669414
 30
0.0
 10
-719.7480278087342
 20
-1777.56613895679
 30
0.0
 10
-719.8447838130113
 20
-1777.633622708412
 30
0.0
 10
-719.8707520708738
 20
-1777.685002486775
 30
0.0
 10
-719.8728248243469
 20
-1777.689103555649
 30
0.0
  0
LWPOLYLINE
  5
386FAC
330
18
100
AcDbEntity
  8
姿図
100
AcDbPolyline
 90
        3
 70
   128
 43
0.0
 10
-710.8697423420704
 20
-1785.477649018545
 10
-713.1320962666267
 20
-1786.229806144735
 10
-718.2137500233915
 20
-1787.919280442295
  0
LINE
  5
386FAD
330
18
100
AcDbEntity
  8
姿図
100
AcDbLine
 10
-722.4849923231877
 20
-1789.138010889082
 30
0.0
 11
-722.5415178324856
 21
-1789.158568231029
 31
0.0
  0
LINE
  5
386FAE
330
18
100
AcDbEntity
  8
姿図
100
AcDbLine
 10
-723.437373463732
 20
-1788.506493611098
 30
0.0
 11
-721.6619071771629
 21
-1785.788108613876
 31
0.0
  0
SPLINE
  5
386FAF
330
18
100
AcDbEntity
  8
姿図
100
AcDbSpline
210
0.0
220
0.0
230
1.0
 70
     8
 71
     3
 72
    10
 73
     6
 74
     0
 42
0.000000001
 43
0.0000000001
 40
0.0
 40
0.0
 40
0.0
 40
0.0
 40
0.0006207497682266
 40
0.793380543699155
 40
1.0
 40
1.0
 40
1.0
 40
1.0
 10
-723.4519016141221
 20
-1788.550701401423
 30
0.0
 10
-723.4519008480714
 20
-1788.550680675082
 30
0.0
 10
-723.4509217581963
 20
-1788.524190330362
 30
0.0
 10
-723.4357828268502
 20
-1788.505105733065
 30
0.0
 10
-723.4388857177036
 20
-1788.508868597893
 30
0.0
 10
-723.439527233545
 20
-1788.509646561899
 30
0.0
  0
LINE
  5
386FB0
330
18
100
AcDbEntity
  8
姿図
100
AcDbLine
 10
-720.4900953845643
 20
-1786.517942912694
 30
0.0
 11
-722.4543756011947
 21
-1789.119567202041
 31
0.0
  0
SPLINE
  5
386FB1
330
18
100
AcDbEntity
  8
姿図
100
AcDbSpline
210
0.0
220
0.0
230
1.0
 70
     8
 71
     3
 72
    15
 73
    11
 74
     0
 42
0.000000001
 43
0.0000000001
 40
0.0
 40
0.0
 40
0.0
 40
0.0
 40
0.0378122828516779
 40
0.1830265551653784
 40
0.3196377494040152
 40
0.4541393731655267
 40
0.5941028710692209
 40
0.7460023054132573
 40
0.8926177863603189
 40
1.0
 40
1.0
 40
1.0
 40
1.0
 10
-710.3343021931433
 20
-1786.155836445279
 30
0.0
 10
-710.3251830649469
 20
-1786.144901070928
 30
0.0
 10
-710.2810428413472
 20
-1786.091969490346
 30
0.0
 10
-710.2535149511436
 20
-1785.968626787493
 30
0.0
 10
-710.2610096122742
 20
-1785.811654187893
 30
0.0
 10
-710.3231960003868
 20
-1785.666649609503
 30
0.0
 10
-710.4326345376821
 20
-1785.545383858134
 30
0.0
 10
-710.5812020996104
 20
-1785.468053496041
 30
0.0
 10
-710.737141276475
 20
-1785.443024569179
 30
0.0
 10
-710.8291232801639
 20
-1785.470978335373
 30
0.0
 10
-710.8680103700143
 20
-1785.482796305999
 30
0.0
  0
LWPOLYLINE
  5
386FB2
330
18
100
AcDbEntity
  8
姿図
100
AcDbPolyline
 90
        3
 70
   128
 43
0.0
 10
-723.9614089388696
 20
-1783.100286180568
 10
-724.1956710010606
 20
-1781.013518528783
 10
-724.7127950515877
 20
-1776.407046226239
  0
SPLINE
  5
386FB3
330
18
100
AcDbEntity
  8
姿図
100
AcDbSpline
210
0.0
220
0.0
230
1.0
 70
     8
 71
     3
 72
    14
 73
    10
 74
     0
 42
0.000000001
 43
0.0000000001
 40
0.0
 40
0.0
 40
0.0
 40
0.0
 40
0.1362779644740697
 40
0.2805840871231554
 40
0.4367455759878244
 40
0.5890331112518945
 40
0.7373677001355162
 40
0.883910294734547
 40
1.0
 40
1.0
 40
1.0
 40
1.0
 10
-724.7133508631528
 20
-1776.406737495855
 30
0.0
 10
-724.7234266673311
 20
-1776.358035556746
 30
0.0
 10
-724.7441718430337
 20
-1776.257762638973
 30
0.0
 10
-724.8391519332399
 20
-1776.125697060604
 30
0.0
 10
-724.9747063127742
 20
-1776.028366843202
 30
0.0
 10
-725.1383607726848
 20
-1775.984365003061
 30
0.0
 10
-725.3016410166719
 20
-1776.000753833438
 30
0.0
 10
-725.4419168171371
 20
-1776.064171957712
 30
0.0
 10
-725.5028290891833
 20
-1776.138173116715
 30
0.0
 10
-725.5297537580554
 20
-1776.170883384044
 30
0.0
  0
LWPOLYLINE
  5
386FB4
330
18
100
AcDbEntity
  8
姿図
100
AcDbPolyline
 90
        3
 70
   128
 43
0.0
 10
-708.9064183320655
 20
-1790.673860398994
 10
-711.4812226497015
 20
-1790.512795607612
 10
-713.1068667679809
 20
-1790.411104969551
  0
SPLINE
  5
386FB5
330
18
100
AcDbEntity
  8
姿図
100
AcDbSpline
210
0.0
220
0.0
230
1.0
 70
     8
 71
     3
 72
    14
 73
    10
 74
     0
 42
0.000000001
 43
0.0000000001
 40
0.0
 40
0.0
 40
0.0
 40
0.0
 40
0.0289534563688383
 40
0.2023711039060778
 40
0.3643936424090838
 40
0.5224255392533407
 40
0.6856285721374533
 40
0.8622582340035654
 40
1.0
 40
1.0
 40
1.0
 40
1.0
 10
-708.5416287971252
 20
-1791.374161916142
 30
0.0
 10
-708.5355670006597
 20
-1791.367246750557
 30
0.0
 10
-708.493197881522
 20
-1791.31891298082
 30
0.0
 10
-708.4642660040734
 20
-1791.199991668648
 30
0.0
 10
-708.4667493250735
 20
-1791.043141321112
 30
0.0
 10
-708.5244874031813
 20
-1790.897002787465
 30
0.0
 10
-708.6285824282048
 20
-1790.775952079843
 30
0.0
 10
-708.762349310683
 20
-1790.693465545329
 30
0.0
 10
-708.8624297966898
 20
-1790.683267558454
 30
0.0
 10
-708.9062800377186
 20
-1790.678799312942
 30
0.0
  0
LINE
  5
386FB6
330
18
100
AcDbEntity
  8
姿図
100
AcDbLine
 10
-728.4442279242825
 20
-1780.023283763075
 30
0.0
 11
-730.1481785821902
 21
-1776.765543199173
 31
0.0
  0
SPLINE
  5
386FB7
330
18
100
AcDbEntity
  8
姿図
100
AcDbSpline
210
0.0
220
0.0
230
1.0
 70
     8
 71
     3
 72
    14
 73
    10
 74
     0
 42
0.000000001
 43
0.0000000001
 40
0.0
 40
0.0
 40
0.0
 40
0.0
 40
0.0201385475597958
 40
0.1926240625548146
 40
0.3832464578221951
 40
0.5608423123587257
 40
0.734280217740581
 40
0.9064760069732848
 40
1.0
 40
1.0
 40
1.0
 40
1.0
 10
-730.1504006759959
 20
-1776.767467143474
 30
0.0
 10
-730.1523971656223
 20
-1776.761617880706
 30
0.0
 10
-730.1714934754023
 20
-1776.705670014848
 30
0.0
 10
-730.2588137594571
 20
-1776.617849657235
 30
0.0
 10
-730.4007684203034
 20
-1776.530406721456
 30
0.0
 10
-730.5695808389863
 20
-1776.502458176298
 30
0.0
 10
-730.7279451083893
 20
-1776.534714970804
 30
0.0
 10
-730.8515026740524
 20
-1776.601595874568
 30
0.0
 10
-730.896912714017
 20
-1776.669885200882
 30
0.0
 10
-730.9128954467475
 20
-1776.693920635593
 30
0.0
  0
LINE
  5
386FB8
330
18
100
AcDbEntity
  8
姿図
100
AcDbLine
 10
-709.1619902359907
 20
-1795.729124599919
 30
0.0
 11
-710.9076797740863
 21
-1795.004256436226
 31
0.0
  0
LINE
  5
386FB9
330
18
100
AcDbEntity
  8
姿図
100
AcDbLine
 10
-721.6671426060014
 20
-1785.784783298617
 30
0.0
 11
-721.6152170300915
 21
-1785.685834446061
 31
0.0
  0
LINE
  5
386FBA
330
18
100
AcDbEntity
  8
姿図
100
AcDbLine
 10
-733.5016029560356
 20
-1780.108520974534
 30
0.0
 11
-734.5300608045025
 21
-1779.121214159819
 31
0.0
  0
SPLINE
  5
386FBB
330
18
100
AcDbEntity
  8
姿図
100
AcDbSpline
210
0.0
220
0.0
230
1.0
 70
     8
 71
     3
 72
    13
 73
     9
 74
     0
 42
0.000000001
 43
0.0000000001
 40
0.0
 40
0.0
 40
0.0
 40
0.0
 40
0.0434618117811297
 40
0.2498736897936502
 40
0.442160797731974
 40
0.6300669064077808
 40
0.8243069797561604
 40
1.0
 40
1.0
 40
1.0
 40
1.0
 10
-708.9467403537446
 20
-1796.390800771349
 30
0.0
 10
-708.9392926298322
 20
-1796.382010467291
 30
0.0
 10
-708.8964736543138
 20
-1796.331472636043
 30
0.0
 10
-708.8691260442478
 20
-1796.211090374112
 30
0.0
 10
-708.874597426844
 20
-1796.05516972123
 30
0.0
 10
-708.9345643813349
 20
-1795.912691884328
 30
0.0
 10
-709.031462381532
 20
-1795.795772294835
 30
0.0
 10
-709.1208265691147
 20
-1795.753343829256
 30
0.0
 10
-709.1632684708803
 20
-1795.733193198261
 30
0.0
  0
SPLINE
  5
386FBC
330
18
100
AcDbEntity
  8
姿図
100
AcDbSpline
210
0.0
220
0.0
230
1.0
 70
     8
 71
     3
 72
    13
 73
     9
 74
     0
 42
0.000000001
 43
0.0000000001
 40
0.0
 40
0.0
 40
0.0
 40
0.0
 40
0.0222299417336479
 40
0.2496912293857673
 40
0.4627142617987663
 40
0.6704037587481549
 40
0.8763494782784274
 40
0.9999999999999998
 40
0.9999999999999998
 40
0.9999999999999998
 40
0.9999999999999998
 10
-734.5313278441361
 20
-1779.12322545403
 30
0.0
 10
-734.5348838490031
 20
-1779.118762980964
 30
0.0
 10
-734.5748256193193
 20
-1779.068639575364
 30
0.0
 10
-734.686968153781
 20
-1779.013051954724
 30
0.0
 10
-734.8510232482547
 20
-1778.978915461315
 30
0.0
 10
-735.0113422206741
 20
-1779.009073640296
 30
0.0
 10
-735.1380899726182
 20
-1779.075644434628
 30
0.0
 10
-735.1860638998617
 20
-1779.145948723479
 30
0.0
 10
-735.2040616813601
 20
-1779.172323908957
 30
0.0
  0
SPLINE
  5
386FBD
330
18
100
AcDbEntity
  8
姿図
100
AcDbSpline
210
0.0
220
0.0
230
1.0
 70
     8
 71
     3
 72
    10
 73
     6
 74
     0
 42
0.000000001
 43
0.0000000001
 40
0.0
 40
0.0
 40
0.0
 40
0.0
 40
0.1966081636844115
 40
0.7802624747830385
 40
1.0
 40
1.0
 40
1.0
 40
1.0
 10
-711.4904165895767
 20
-1800.448315867967
 30
0.0
 10
-711.4791790613194
 20
-1800.434088242121
 30
0.0
 10
-711.4345816171208
 20
-1800.3776242462
 30
0.0
 10
-711.4094583382501
 20
-1800.281797749066
 30
0.0
 10
-711.4186593211857
 20
-1800.20836815073
 30
0.0
 10
-711.4211759029185
 20
-1800.188284254571
 30
0.0
  0
LWPOLYLINE
  5
386FBE
330
18
100
AcDbEntity
  8
姿図
100
AcDbPolyline
 90
       20
 70
   128
 43
0.0
 10
-724.3344776953644
 20
-1808.969609054367
 10
-724.3545139120201
 20
-1809.166191732252
 10
-724.4448951944737
 20
-1809.435214719999
 10
-724.6016119944886
 20
-1809.629902410287
 10
-724.8148197302152
 20
-1809.738022973961
 10
-725.0711196550936
 20
-1809.752780418585
 10
-725.354409038815
 20
-1809.673250030992
 10
-725.6468866001476
 20
-1809.504427618275
 10
-725.9301759838693
 20
-1809.256921624495
 10
-726.1864757441117
 20
-1808.946283176718
 10
-726.3996838091107
 20
-1808.592031465975
 10
-726.5564016792604
 20
-1808.21642460224
 10
-726.646781809261
 20
-1807.84306395837
 10
-726.665146804591
 20
-1807.495408948884
 10
-726.6103414958661
 20
-1807.195303809714
 10
-726.4858104824525
 20
-1806.961605064035
 10
-726.2993782609219
 20
-1806.80899817459
 10
-726.0627579508472
 20
-1806.747071253541
 10
-725.7908192402656
 20
-1806.779714845472
 10
-725.5389070328073
 20
-1806.883519015366
  0
LINE
  5
386FBF
330
18
100
AcDbEntity
  8
姿図
100
AcDbLine
 10
-736.1467908643231
 20
-1804.032291371331
 30
0.0
 11
-735.8298235144633
 21
-1804.402784036988
 31
0.0
  0
ARC
  5
386FC0
330
18
100
AcDbEntity
  8
姿図
100
AcDbCircle
 10
-730.5136213940594
 20
-1799.460554997065
 30
0.0
 40
7.254886060889775
100
AcDbArc
 50
201.7836065605081
 51
219.0619013244545
  0
ARC
  5
386FC1
330
18
100
AcDbEntity
  8
姿図
100
AcDbCircle
 10
-739.3930220686461
 20
-1800.902704424918
 30
0.0
 40
11.25170155428953
100
AcDbArc
 50
133.3783116664272
 51
147.1941815178835
  0
ARC
  5
386FC2
330
18
100
AcDbEntity
  8
姿図
100
AcDbCircle
 10
-738.6159945249818
 20
-1801.846889117822
 30
0.0
 40
12.4719208409694
100
AcDbArc
 50
107.0072415507957
 51
132.9937594215981
  0
ARC
  5
386FC3
330
18
100
AcDbEntity
  8
姿図
100
AcDbCircle
 10
-737.5560445079741
 20
-1805.393802623031
 30
0.0
 40
16.17376508801022
100
AcDbArc
 50
84.09970789649661
 51
106.9227533703011
  0
ARC
  5
386FC4
330
18
100
AcDbEntity
  8
姿図
100
AcDbCircle
 10
-737.9253512991054
 20
-1809.707904337222
 30
0.0
 40
20.50311714608309
100
AcDbArc
 50
65.68910203361683
 51
84.31245027145084
  0
ARC
  5
386FC5
330
18
100
AcDbEntity
  8
姿図
100
AcDbCircle
 10
-738.7612127648321
 20
-1811.742480996695
 30
0.0
 40
22.70151836167555
100
AcDbArc
 50
47.69587498619461
 51
65.88058559451665
  0
ARC
  5
386FC6
330
18
100
AcDbEntity
  8
姿図
100
AcDbCircle
 10
-737.7218348027428
 20
-1810.708433137067
 30
0.0
 40
21.23730931224459
100
AcDbArc
 50
29.70232915950807
 51
47.89207537996817
  0
ARC
  5
386FC7
330
18
100
AcDbEntity
  8
姿図
100
AcDbCircle
 10
-734.1233338163519
 20
-1808.732420825824
 30
0.0
 40
17.13263786613184
100
AcDbArc
 50
7.966609581202076
 51
29.92521982068842
  0
ARC
  5
386FC8
330
18
100
AcDbEntity
  8
姿図
100
AcDbCircle
 10
-730.1205979781096
 20
-1808.169149787101
 30
0.0
 40
13.09046566496538
100
AcDbArc
 50
342.7968114761707
 51
7.953164446304102
  0
ARC
  5
386FC9
330
18
100
AcDbEntity
  8
姿図
100
AcDbCircle
 10
-728.4269019825406
 20
-1808.616439779667
 30
0.0
 40
11.34049053584494
100
AcDbArc
 50
322.6457668581492
 51
342.4247030728974
  0
LINE
  5
386FCA
330
18
100
AcDbEntity
  8
姿図
100
AcDbLine
 10
-728.5320576760396
 20
-1807.649672259057
 30
0.0
 11
-728.5297086477799
 21
-1807.646547697368
 31
0.0
  0
ARC
  5
386FCB
330
18
100
AcDbEntity
  8
姿図
100
AcDbCircle
 10
-745.8090800717755
 20
-1811.381071168096
 30
0.0
 40
11.5055580162336
100
AcDbArc
 50
108.2460166973829
 51
188.3428006192126
  0
ARC
  5
386FCC
330
18
100
AcDbEntity
  8
姿図
100
AcDbCircle
 10
-728.948056109024
 20
-1808.791776034288
 30
0.0
 40
11.63649043828977
100
AcDbArc
 50
308.4452464031368
 51
2.435821169327186
  0
LINE
  5
386FCD
330
18
100
AcDbEntity
  8
姿図
100
AcDbLine
 10
-721.4250425470764
 20
-1797.822218849241
 30
0.0
 11
-728.5297086477799
 21
-1807.646547697368
 31
0.0
  0
SPLINE
  5
386FCE
330
18
100
AcDbEntity
  8
姿図
100
AcDbSpline
210
0.0
220
0.0
230
1.0
 70
     8
 71
     3
 72
    13
 73
     9
 74
     0
 42
0.000000001
 43
0.0000000001
 40
0.0
 40
0.0
 40
0.0
 40
0.0
 40
0.0047506119485834
 40
0.2245085931138995
 40
0.5091524945262758
 40
0.7138773254464784
 40
0.8565679843689376
 40
1.0
 40
1.0
 40
1.0
 40
1.0
 10
-728.9493057140332
 20
-1807.684699885523
 30
0.0
 10
-728.9486095560878
 20
-1807.684881184187
 30
0.0
 10
-728.915709912288
 20
-1807.693449155766
 30
0.0
 10
-728.8380898367011
 20
-1807.708751437408
 30
0.0
 10
-728.7248531026925
 20
-1807.715383470386
 30
0.0
 10
-728.629618713865
 20
-1807.703069737533
 30
0.0
 10
-728.5653309366421
 20
-1807.681047251862
 30
0.0
 10
-728.5431679047113
 20
-1807.66014863974
 30
0.0
 10
-728.5320576760396
 20
-1807.649672259057
 30
0.0
  0
LINE
  5
386FCF
330
18
100
AcDbEntity
  8
姿図
100
AcDbLine
 10
-729.4119470603259
 20
-1807.951811265109
 30
0.0
 11
-728.9493057140332
 21
-1807.684699885523
 31
0.0
  0
LINE
  5
386FD0
330
18
100
AcDbEntity
  8
姿図
100
AcDbLine
 10
-727.9022628443417
 20
-1809.958439544525
 30
0.0
 11
-730.8999589984323
 21
-1806.229684403134
 31
0.0
  0
ELLIPSE
  5
386FD1
330
18
100
AcDbEntity
  8
姿図
100
AcDbEllipse
 10
-730.9873458237444
 20
-1806.242048406304
 30
0.0
 11
0.08182761254443
 21
-0.0574844493186788
 31
0.0
210
0.0
220
0.0
230
1.0
 40
0.7888344021448708
 41
0.8711149042747823
 42
2.148047646051729
  0
LINE
  5
386FD2
330
18
100
AcDbEntity
  8
姿図
100
AcDbLine
 10
-730.9940031054393
 20
-1806.156588448685
 30
0.0
 11
-731.1526705142868
 21
-1806.134578800853
 31
0.0
  0
ELLIPSE
  5
386FD3
330
18
100
AcDbEntity
  8
姿図
100
AcDbEllipse
 10
-731.1593278731352
 20
-1806.049118398918
 30
0.0
 11
0.0818260426451048
 21
-0.0574863413666691
 31
0.0
210
0.0
220
0.0
230
1.0
 40
0.7888305858255088
 41
3.778489942119563
 42
5.289670083385419
  0
LINE
  5
386FD4
330
18
100
AcDbEntity
  8
姿図
100
AcDbLine
 10
-731.2520791248561
 20
-1806.041288369622
 30
0.0
 11
-731.2728341428419
 21
-1805.894923327914
 31
0.0
  0
ELLIPSE
  5
386FD5
330
18
100
AcDbEntity
  8
姿図
100
AcDbEllipse
 10
-731.3655852493525
 20
-1805.887094358128
 30
0.0
 11
0.0818252525246521
 21
-0.0574872433415337
 31
0.0
210
0.0
220
0.0
230
1.0
 40
0.7888395287361271
 41
0.636914132842735
 42
2.179501032130525
  0
LINE
  5
386FD6
330
18
100
AcDbEntity
  8
姿図
100
AcDbLine
 10
-731.3751706422936
 20
-1805.801269332268
 30
0.0
 11
-731.5334020946766
 21
-1805.783834933247
 31
0.0
  0
ELLIPSE
  5
386FD7
330
18
100
AcDbEntity
  8
姿図
100
AcDbEllipse
 10
-731.5429877741775
 20
-1805.698009282938
 30
0.0
 11
0.0818237516146496
 21
-0.05748910037421239
 31
0.0
210
0.0
220
0.0
230
1.0
 40
0.7888351379970727
 41
3.809942625897086
 42
5.321122767163044
  0
LINE
  5
386FD8
330
18
100
AcDbEntity
  8
姿図
100
AcDbLine
 10
-731.6353095523808
 20
-1805.692887731181
 30
0.0
 11
-731.6610072761712
 21
-1805.546174453709
 31
0.0
  0
ELLIPSE
  5
386FD9
330
18
100
AcDbEntity
  8
姿図
100
AcDbEllipse
 10
-731.7533287931017
 20
-1805.541053586422
 30
0.0
 11
0.08182289283837459
 21
-0.05749013315555369
 31
0.0
210
0.0
220
0.0
230
1.0
 40
0.7888437801476608
 41
0.6683683230762683
 42
2.210955222361964
  0
LINE
  5
386FDA
330
18
100
AcDbEntity
  8
姿図
100
AcDbLine
 10
-731.7658317567743
 20
-1805.454947520074
 30
0.0
 11
-731.9234731532787
 21
-1805.442105863848
 31
0.0
  0
ELLIPSE
  5
386FDB
330
18
100
AcDbEntity
  8
姿図
100
AcDbEllipse
 10
-731.9359767184874
 20
-1805.356000047568
 30
0.0
 11
0.0818214654448753
 21
-0.05749194682089611
 31
0.0
210
0.0
220
0.0
230
1.0
 40
0.7888388323456859
 41
3.84139601676217
 42
5.352576158028422
  0
LINE
  5
386FDC
330
18
100
AcDbEntity
  8
姿図
100
AcDbLine
 10
-732.0277773837196
 20
-1805.353591239714
 30
0.0
 11
-732.0583931178962
 21
-1805.206675531056
 31
0.0
  0
ELLIPSE
  5
386FDD
330
18
100
AcDbEntity
  8
姿図
100
AcDbEllipse
 10
-732.1501937989282
 20
-1805.20426759165
 30
0.0
 11
0.08182054281900261
 21
-0.05749310731818011
 31
0.0
210
0.0
220
0.0
230
1.0
 40
0.788847139528837
 41
0.6998231659686849
 42
2.242410065255458
  0
LINE
  5
386FDE
330
18
100
AcDbEntity
  8
姿図
100
AcDbLine
 10
-732.165603505251
 20
-1805.117966528878
 30
0.0
 11
-732.3224971244663
 21
-1805.10972959697
 31
0.0
  0
ELLIPSE
  5
386FDF
330
18
100
AcDbEntity
  8
姿図
100
AcDbEllipse
 10
-732.3379068734229
 20
-1805.023428214634
 30
0.0
 11
0.08181919317956959
 21
-0.0574948694364253
 31
0.0
210
0.0
220
0.0
230
1.0
 40
0.7888416542269975
 41
3.872849966382143
 42
5.384030107649018
  0
LINE
  5
386FE0
330
18
100
AcDbEntity
  8
姿図
100
AcDbLine
 10
-732.4290953947011
 20
-1805.023734238099
 30
0.0
 11
-732.464600492577
 21
-1804.876761902956
 31
0.0
  0
ELLIPSE
  5
386FE1
330
18
100
AcDbEntity
  8
姿図
100
AcDbEllipse
 10
-732.5557886089844
 20
-1804.877068740928
 30
0.0
 11
0.0818182117646984
 21
-0.0574961540518047
 31
0.0
210
0.0
220
0.0
230
1.0
 40
0.7888495935604412
 41
0.7312785074107974
 42
2.273865406698651
  0
LINE
  5
386FE2
330
18
100
AcDbEntity
  8
姿図
100
AcDbLine
 10
-732.5740887853855
 20
-1804.79065675935
 30
0.0
 11
-732.7300798693523
 21
-1804.787033301594
 31
0.0
  0
ELLIPSE
  5
386FE3
330
18
100
AcDbEntity
  8
姿図
100
AcDbEllipse
 10
-732.7483815824465
 20
-1804.700621992382
 30
0.0
 11
0.08181694380959929
 21
-0.05749785664817611
 31
0.0
210
0.0
220
0.0
230
1.0
 40
0.7888435924546818
 41
3.90430432419054
 42
5.415484465457131
  0
LINE
  5
386FE4
330
18
100
AcDbEntity
  8
姿図
100
AcDbLine
 10
-732.8388687878928
 20
-1804.703643515273
 30
0.0
 11
-732.8792263709756
 21
-1804.556758267538
 31
0.0
  0
ELLIPSE
  5
386FE5
330
18
100
AcDbEntity
  8
姿図
100
AcDbEllipse
 10
-732.9697129501615
 20
-1804.559779940018
 30
0.0
 11
0.0818159089010351
 21
-0.0574992612908929
 31
0.0
210
0.0
220
0.0
230
1.0
 40
0.7888511325114347
 41
0.7627341912982507
 42
2.305321090586192
  0
LINE
  5
386FE6
330
18
100
AcDbEntity
  8
姿図
100
AcDbLine
 10
-732.9908865435708
 20
-1804.473343289789
 30
0.0
 11
-733.1458216514196
 21
-1804.474335972688
 31
0.0
  0
ELLIPSE
  5
386FE7
330
18
100
AcDbEntity
  8
姿図
100
AcDbEllipse
 10
-733.1669957565781
 20
-1804.38789995158
 30
0.0
 11
0.0818147262374964
 21
-0.0575008966274595
 31
0.0
210
0.0
220
0.0
230
1.0
 40
0.7888446393443999
 41
3.935758937985396
 42
5.446939079251228
  0
LINE
  5
386FE8
330
18
100
AcDbEntity
  8
姿図
100
AcDbLine
 10
-733.2566912413332
 20
-1804.393632743579
 30
0.0
 11
-733.3018621262247
 21
-1804.246980388447
 31
0.0
  0
ELLIPSE
  5
386FE9
330
18
100
AcDbEntity
  8
姿図
100
AcDbEllipse
 10
-733.3915583291083
 20
-1804.25271431466
 30
0.0
 11
0.0818136433441623
 21
-0.0575024167302516
 31
0.0
210
0.0
220
0.0
230
1.0
 40
0.7888517502794711
 41
0.7941900601533464
 42
2.336776959439946
  0
LINE
  5
386FEA
330
18
100
AcDbEntity
  8
姿図
100
AcDbLine
 10
-733.4155838724027
 20
-1804.166338272232
 30
0.0
 11
-733.5693102218069
 21
-1804.17194786156
 31
0.0
  0
ELLIPSE
  5
386FEB
330
18
100
AcDbEntity
  8
姿図
100
AcDbEllipse
 10
-733.5933362741679
 20
-1804.085570711128
 30
0.0
 11
0.08181254924170392
 21
-0.05750397733680052
 31
0.0
210
0.0
220
0.0
230
1.0
 40
0.7888447907467464
 41
3.967213654540303
 42
5.478393795806637
  0
LINE
  5
386FEC
330
18
100
AcDbEntity
  8
姿図
100
AcDbLine
 10
-733.6821524817943
 20
-1804.094010273232
 30
0.0
 11
-733.73209221674
 21
-1803.947735095097
 31
0.0
  0
ELLIPSE
  5
386FED
330
18
100
AcDbEntity
  8
姿図
100
AcDbEllipse
 10
-733.8209084353646
 20
-1803.956174901555
 30
0.0
 11
0.0818114240641421
 21
-0.0575056078742477
 31
0.0
210
0.0
220
0.0
230
1.0
 40
0.7888514444163369
 41
0.8256459557589563
 42
2.368232855044771
  0
LINE
  5
386FEE
330
18
100
AcDbEntity
  8
姿図
100
AcDbLine
 10
-733.8477616083005
 20
-1803.869943023257
 30
0.0
 11
-734.0001280632958
 21
-1803.880164011377
 31
0.0
  0
ELLIPSE
  5
386FEF
330
18
100
AcDbEntity
  8
姿図
100
AcDbEllipse
 10
-734.0269823885968
 20
-1803.793932633485
 30
0.0
 11
0.0818104214418441
 21
-0.0575070865781413
 31
0.0
210
0.0
220
0.0
230
1.0
 40
0.7888440460603924
 41
3.998668320217968
 42
5.509848461483723
  0
LINE
  5
386FF0
330
18
100
AcDbEntity
  8
姿図
100
AcDbLine
 10
-734.1148316993349
 20
-1803.805070007258
 30
0.0
 11
-734.1694905642253
 21
-1803.659315530298
 31
0.0
  0
ELLIPSE
  5
386FF1
330
18
100
AcDbEntity
  8
姿図
100
AcDbEllipse
 10
-734.2573395522131
 20
-1803.670454349301
 30
0.0
 11
0.08180925984930811
 21
-0.0575088220868096
 31
0.0
210
0.0
220
0.0
230
1.0
 40
0.7888502161363034
 41
0.8571017197903316
 42
2.399688619078225
  0
LINE
  5
386FF2
330
18
100
AcDbEntity
  8
姿図
100
AcDbLine
 10
-734.2869946607843
 20
-1803.584453917613
 30
0.0
 11
-734.4378500854062
 21
-1803.599274713798
 31
0.0
  0
ELLIPSE
  5
386FF3
330
18
100
AcDbEntity
  8
姿図
100
AcDbEllipse
 10
-734.4675061435053
 20
-1803.513273530224
 30
0.0
 11
0.0818083512638737
 21
-0.0575102120415494
 31
0.0
210
0.0
220
0.0
230
1.0
 40
0.7888424082377039
 41
4.030122781583671
 42
5.541302922849425
  0
LINE
  5
386FF4
330
18
100
AcDbEntity
  8
姿図
100
AcDbLine
 10
-734.5543018278418
 20
-1803.527098054959
 30
0.0
 11
-734.6136258220268
 21
-1803.382008754271
 31
0.0
  0
ELLIPSE
  5
386FF5
330
18
100
AcDbEntity
  8
姿図
100
AcDbEllipse
 10
-734.7004209748324
 20
-1803.395834629588
 30
0.0
 11
0.08180715927153412
 21
-0.05751204664195341
 31
0.0
210
0.0
220
0.0
230
1.0
 40
0.7888480703063089
 41
0.888557194449829
 42
2.431144093737273
  0
LINE
  5
386FF6
330
18
100
AcDbEntity
  8
姿図
100
AcDbLine
 10
-734.7328487197519
 20
-1803.310149841131
 30
0.0
 11
-734.8820439536685
 21
-1803.329556193222
 31
0.0
  0
ELLIPSE
  5
386FF7
330
18
100
AcDbEntity
  8
姿図
100
AcDbEllipse
 10
-734.9144727951324
 20
-1803.243870377996
 30
0.0
 11
0.08180634690643281
 21
-0.0575133413544648
 31
0.0
210
0.0
220
0.0
230
1.0
 40
0.7888398837728828
 41
4.061576886021613
 42
5.572757027288143
  0
LINE
  5
386FF8
330
18
100
AcDbEntity
  8
姿図
100
AcDbLine
 10
-735.0001288864842
 20
-1803.260367789459
 30
0.0
 11
-735.0640597287747
 21
-1803.116087569884
 31
0.0
  0
ELLIPSE
  5
386FF9
330
18
100
AcDbEntity
  8
姿図
100
AcDbEllipse
 10
-735.1497154353515
 20
-1803.132586758923
 30
0.0
 11
0.081805130651162
 21
-0.0575152687746936
 31
0.0
210
0.0
220
0.0
230
1.0
 40
0.788845015435574
 41
0.9200122230984442
 42
2.462599122385817
  0
LINE
  5
386FFA
330
18
100
AcDbEntity
  8
姿図
100
AcDbLine
 10
-735.1848835481987
 20
-1803.047301695833
 30
0.0
 11
-735.3322723945302
 21
-1803.071274599301
 31
0.0
  0
ELLIPSE
  5
386FFB
330
18
100
AcDbEntity
  8
姿図
100
AcDbEllipse
 10
-735.367441241356
 20
-1802.985989045185
 30
0.0
 11
0.0818044163082732
 21
-0.0575164621311188
 31
0.0
210
0.0
220
0.0
230
1.0
 40
0.7888364826721633
 41
4.093030482344937
 42
5.604210623611442
  0
LINE
  5
386FFC
330
18
100
AcDbEntity
  8
姿図
100
AcDbLine
 10
-735.4518732968031
 20
-1803.005144410235
 30
0.0
 11
-735.5203480961986
 21
-1802.861815275519
 31
0.0
  0
ELLIPSE
  5
386FFD
330
18
100
AcDbEntity
  8
姿図
100
AcDbEllipse
 10
-735.604779534382
 20
-1802.880970531173
 30
0.0
 11
0.08180318202391849
 21
-0.0575184757319889
 31
0.0
210
0.0
220
0.0
230
1.0
 40
0.7888410636366503
 41
0.9514666508838846
 42
2.494053550171579
  0
LINE
  5
386FFE
330
18
100
AcDbEntity
  8
姿図
100
AcDbLine
 10
-735.642652982221
 20
-1802.796170118911
 30
0.0
 11
-735.7880899026312
 21
-1802.82468486619
 31
0.0
  0
ELLIPSE
  5
386FFF
330
18
100
AcDbEntity
  8
姿図
100
AcDbEllipse
 10
-735.8259644570071
 20
-1802.739884029535
 30
0.0
 11
0.0818025671161422
 21
-0.0575195620219659
 31
0.0
210
0.0
220
0.0
230
1.0
 40
0.7888322184185453
 41
4.124483421400156
 42
5.635663562666606
  0
LINE
  5
387000
330
18
100
AcDbEntity
  8
姿図
100
AcDbLine
 10
-735.9090888948944
 20
-1802.761676387815
 30
0.0
 11
-735.9820404798552
 21
-1802.619441292869
 31
0.0
  0
ELLIPSE
  5
387001
330
18
100
AcDbEntity
  8
姿図
100
AcDbEllipse
 10
-736.0651641785989
 20
-1802.641234261178
 30
0.0
 11
0.08180132110913969
 21
-0.05752165482365971
 31
0.0
210
0.0
220
0.0
230
1.0
 40
0.7888362305746223
 41
0.9829203253576168
 42
2.525507224644524
  0
LINE
  5
387002
330
18
100
AcDbEntity
  8
姿図
100
AcDbLine
 10
-736.1057065773755
 20
-1802.557001490455
 30
0.0
 11
-736.2490473506166
 21
-1802.59003109296
 31
0.0
  0
ELLIPSE
  5
387003
330
18
100
AcDbEntity
  8
姿図
100
AcDbEllipse
 10
-736.2895899350297
 20
-1802.505798206982
 30
0.0
 11
0.08180080665454169
 21
-0.05752262876294619
 31
0.0
210
0.0
220
0.0
230
1.0
 40
0.7888271079140138
 41
4.155935556662408
 42
5.667115697928387
  0
LINE
  5
387004
330
18
100
AcDbEntity
  8
姿図
100
AcDbLine
 10
-736.3713252363145
 20
-1802.530207821516
 30
0.0
 11
-736.4486798498554
 21
-1802.389204398138
 31
0.0
  0
ELLIPSE
  5
387005
330
18
100
AcDbEntity
  8
姿図
100
AcDbEllipse
 10
-736.5304150239418
 20
-1802.41361453969
 30
0.0
 11
0.08179955527833731
 21
-0.05752479347306411
 31
0.0
210
0.0
220
0.0
230
1.0
 40
0.7888305354095153
 41
1.01437309708842
 42
2.556959996374798
  0
LINE
  5
387006
330
18
100
AcDbEntity
  8
姿図
100
AcDbLine
 10
-736.5735853281401
 20
-1802.33003192548
 30
0.0
 11
-736.7146883671429
 21
-1802.367544071756
 31
0.0
  0
ELLIPSE
  5
387007
330
18
100
AcDbEntity
  8
姿図
100
AcDbEllipse
 10
-736.7578601330507
 20
-1802.283962591971
 30
0.0
 11
0.0817991418962265
 21
-0.0575256502243917
 31
0.0
210
0.0
220
0.0
230
1.0
 40
0.7888211714138585
 41
4.187386744823465
 42
5.698566886089878
  0
LINE
  5
387008
330
18
100
AcDbEntity
  8
姿図
100
AcDbLine
 10
-736.838125291175
 20
-1802.310965321374
 30
0.0
 11
-736.9198085177666
 21
-1802.171333863286
 31
0.0
  0
ELLIPSE
  5
387009
330
18
100
AcDbEntity
  8
姿図
100
AcDbEllipse
 10
-737.0000729239953
 20
-1802.198335999895
 30
0.0
 11
0.08179789152592321
 21
-0.05752787926711282
 31
0.0
210
0.0
220
0.0
230
1.0
 40
0.7888240007144934
 41
1.045824820255078
 42
2.58841171954166
  0
LINE
  5
38700A
330
18
100
AcDbEntity
  8
姿図
100
AcDbLine
 10
-737.0458295704483
 20
-1802.11548803476
 30
0.0
 11
-737.1845559223219
 21
-1802.157445090484
 31
0.0
  0
ELLIPSE
  5
38700B
330
18
100
AcDbEntity
  8
姿図
100
AcDbEllipse
 10
-737.2303129249212
 20
-1802.074596109472
 30
0.0
 11
0.0817975794341806
 21
-0.0575286144593079
 31
0.0
210
0.0
220
0.0
230
1.0
 40
0.7888144324430585
 41
4.218836846362368
 42
5.730016987628419
  0
LINE
  5
38700C
330
18
100
AcDbEntity
  8
姿図
100
AcDbLine
 10
-737.3090287368649
 20
-1802.104163711911
 30
0.0
 11
-737.3949589169886
 21
-1801.966041851405
 31
0.0
  0
ELLIPSE
  5
38700D
330
18
100
AcDbEntity
  8
姿図
100
AcDbEllipse
 10
-737.4736743831157
 20
-1801.995611095721
 30
0.0
 11
0.08179633644112989
 21
-0.05753090000575872
 31
0.0
210
0.0
220
0.0
230
1.0
 40
0.7888166523878363
 41
1.077275353232551
 42
2.619862252518833
  0
LINE
  5
38700E
330
18
100
AcDbEntity
  8
姿図
100
AcDbLine
 10
-737.521971737699
 20
-1801.913577418856
 30
0.0
 11
-737.6581844251854
 21
-1801.959938327929
 31
0.0
  0
ELLIPSE
  5
38700F
330
18
100
AcDbEntity
  8
姿図
100
AcDbEllipse
 10
-737.7064820567737
 20
-1801.877905378926
 30
0.0
 11
0.0817961254553552
 21
-0.0575315097508309
 31
0.0
210
0.0
220
0.0
230
1.0
 40
0.7888069177049695
 41
4.250285726101466
 42
5.761465867367437
  0
LINE
  5
387010
330
18
100
AcDbEntity
  8
姿図
100
AcDbLine
 10
-737.7835712995056
 20
-1801.910010974354
 30
0.0
 11
-737.87366348092
 21
-1801.773533682531
 31
0.0
  0
ELLIPSE
  5
387011
330
18
100
AcDbEntity
  8
姿図
100
AcDbEllipse
 10
-737.9507520138412
 20
-1801.805639892172
 30
0.0
 11
0.08179489618180472
 21
-0.05753384375046981
 31
0.0
210
0.0
220
0.0
230
1.0
 40
0.7888085195479384
 41
1.108724559152143
 42
2.651311458439299
  0
LINE
  5
387012
330
18
100
AcDbEntity
  8
姿図
100
AcDbLine
 10
-738.0015416291135
 20
-1801.724502356447
 30
0.0
 11
-738.1351076262226
 21
-1801.775221500489
 31
0.0
  0
ELLIPSE
  5
387013
330
18
100
AcDbEntity
  8
姿図
100
AcDbEllipse
 10
-738.1858976071652
 20
-1801.694084510337
 30
0.0
 11
0.08179478571577189
 21
-0.0575343246588247
 31
0.0
210
0.0
220
0.0
230
1.0
 40
0.7887986569717214
 41
4.28173325374504
 42
5.792913395011494
  0
LINE
  5
387014
330
18
100
AcDbEntity
  8
姿図
100
AcDbLine
 10
-738.261283436863
 20
-1801.728693798943
 30
0.0
 11
-738.3554500331481
 21
-1801.593999849344
 31
0.0
  0
ELLIPSE
  5
387015
330
18
100
AcDbEntity
  8
姿図
100
AcDbEllipse
 10
-738.430834998148
 20
-1801.628609867892
 30
0.0
 11
0.0817935764495701
 21
-0.05753669887154451
 31
0.0
210
0.0
220
0.0
230
1.0
 40
0.7887996344162517
 41
1.140172306449428
 42
2.682759205736199
  0
LINE
  5
387016
330
18
100
AcDbEntity
  8
姿図
100
AcDbLine
 10
-738.4840670682802
 20
-1801.548448017342
 30
0.0
 11
-738.6148533490212
 21
-1801.603476736369
 31
0.0
  0
ELLIPSE
  5
387017
330
18
100
AcDbEntity
  8
姿図
100
AcDbEllipse
 10
-738.6680864508272
 20
-1801.523314912711
 30
0.0
 11
0.0817935655181259
 21
-0.0575370480652424
 31
0.0
210
0.0
220
0.0
230
1.0
 40
0.788789682964882
 41
4.313179304398351
 42
5.824359445663522
  0
LINE
  5
387018
330
18
100
AcDbEntity
  8
姿図
100
AcDbLine
 10
-738.7416949481591
 20
-1801.560396215227
 30
0.0
 11
-738.8398417874506
 21
-1801.427615256331
 31
0.0
  0
ELLIPSE
  5
387019
330
18
100
AcDbEntity
  8
姿図
100
AcDbEllipse
 10
-738.9134495520933
 20
-1801.46469573014
 30
0.0
 11
0.081792382466972
 21
-0.05753945409432501
 31
0.0
210
0.0
220
0.0
230
1.0
 40
0.7887900321906917
 41
1.17161846938637
 42
2.714205368673135
  0
LINE
  5
38701A
330
18
100
AcDbEntity
  8
姿図
100
AcDbLine
 10
-738.9690725860637
 20
-1801.385590066864
 30
0.0
 11
-739.0969487586239
 21
-1801.444870575829
 31
0.0
  0
ELLIPSE
  5
38701B
330
18
100
AcDbEntity
  8
姿図
100
AcDbEllipse
 10
-739.1525727255867
 20
-1801.365765115022
 30
0.0
 11
0.08179246968950341
 21
-0.0575396692180945
 31
0.0
210
0.0
220
0.0
230
1.0
 40
0.7887800312279744
 41
4.344623759060382
 42
5.855803900327264
  0
LINE
  5
38701C
330
18
100
AcDbEntity
  8
姿図
100
AcDbLine
 10
-739.2243310228032
 20
-1801.405279821013
 30
0.0
 11
-739.3263612990587
 21
-1801.274543022474
 31
0.0
  0
ELLIPSE
  5
38701D
330
18
100
AcDbEntity
  8
姿図
100
AcDbEllipse
 10
-739.3981193933776
 20
-1801.314059242383
 30
0.0
 11
0.0817913189569595
 21
-0.0575420985436637
 31
0.0
210
0.0
220
0.0
230
1.0
 40
0.7887797509018565
 41
1.203062928549264
 42
2.745649827837019
  0
LINE
  5
38701E
330
18
100
AcDbEntity
  8
姿図
100
AcDbLine
 10
-739.4560781035179
 20
-1801.236087061464
 30
0.0
 11
-739.5809190444406
 21
-1801.299562335907
 31
0.0
  0
ELLIPSE
  5
38701F
330
18
100
AcDbEntity
  8
姿図
100
AcDbEllipse
 10
-739.6388783019829
 20
-1801.221590599899
 30
0.0
 11
0.08179150256319188
 21
-0.05754217777395359
 31
0.0
210
0.0
220
0.0
230
1.0
 40
0.7887697399783558
 41
4.37606650510007
 42
5.887246646366357
  0
LINE
  5
387020
330
18
100
AcDbEntity
  8
姿図
100
AcDbLine
 10
-739.7087155331155
 20
-1801.263500891735
 30
0.0
 11
-739.8145291475691
 21
-1801.134938282942
 31
0.0
  0
ELLIPSE
  5
387021
330
18
100
AcDbEntity
  8
姿図
100
AcDbEllipse
 10
-739.884366211383
 20
-1801.176849064645
 30
0.0
 11
0.0817903901238992
 21
-0.0575446217869598
 31
0.0
210
0.0
220
0.0
230
1.0
 40
0.7887688312605632
 41
1.234505571322332
 42
2.777092470609685
  0
LINE
  5
387022
330
18
100
AcDbEntity
  8
姿図
100
AcDbLine
 10
-739.9446022246078
 20
-1801.100087672933
 30
0.0
 11
-740.0662861031597
 21
-1801.167694985357
 31
0.0
  0
ELLIPSE
  5
387023
330
18
100
AcDbEntity
  8
姿図
100
AcDbEllipse
 10
-740.1265232551248
 20
-1801.090933650183
 30
0.0
 11
0.0817906679610019
 21
-0.05754456383883881
 31
0.0
210
0.0
220
0.0
230
1.0
 40
0.7887588499593232
 41
4.407507436696068
 42
5.918687577961852
  0
LINE
  5
387024
330
18
100
AcDbEntity
  8
姿図
100
AcDbLine
 10
-740.1943703757843
 20
-1801.135197833863
 30
0.0
 11
-740.3038632784038
 21
-1801.008935642018
 31
0.0
  0
ELLIPSE
  5
387025
330
18
100
AcDbEntity
  8
姿図
100
AcDbEllipse
 10
-740.3717101392047
 20
-1801.053200606807
 30
0.0
 11
0.08178959963686341
 21
-0.05754701387523661
 31
0.0
210
0.0
220
0.0
230
1.0
 40
0.7887573164967941
 41
1.265946292330054
 42
2.808533191616982
  0
LINE
  5
387026
330
18
100
AcDbEntity
  8
姿図
100
AcDbLine
 10
-740.4341655289313
 20
-1800.977724224535
 30
0.0
 11
-740.5525705143773
 21
-1801.049398566423
 31
0.0
  0
ELLIPSE
  5
387027
330
18
100
AcDbEntity
  8
姿図
100
AcDbEllipse
 10
-740.6150263383169
 20
-1800.973923208508
 30
0.0
 11
0.08178996917808951
 21
-0.05754681800701891
 31
0.0
210
0.0
220
0.0
230
1.0
 40
0.7887474042758973
 41
4.438946455258244
 42
5.950126596524709
  0
LINE
  5
387028
330
18
100
AcDbEntity
  8
姿図
100
AcDbLine
 10
-740.6808167889512
 20
-1801.020498028207
 30
0.0
 11
-740.7938803198931
 21
-1800.89665981957
 31
0.0
  0
ELLIPSE
  5
387029
330
18
100
AcDbEntity
  8
姿図
100
AcDbEllipse
 10
-740.8596702272251
 20
-1800.943235894969
 30
0.0
 11
0.08178895061496411
 21
-0.0575492653822707
 31
0.0
210
0.0
220
0.0
230
1.0
 40
0.7887452521881695
 41
1.297384993855233
 42
2.839971893142626
  0
LINE
  5
38702A
330
18
100
AcDbEntity
  8
姿図
100
AcDbLine
 10
-740.9242826691861
 20
-1800.869120295629
 30
0.0
 11
-741.0392928576933
 21
-1800.944789434254
 31
0.0
  0
ELLIPSE
  5
38702B
330
18
100
AcDbEntity
  8
姿図
100
AcDbEllipse
 10
-741.103905457995
 20
-1800.870674750053
 30
0.0
 11
0.0817894089700531
 21
-0.0575489313980668
 31
0.0
210
0.0
220
0.0
230
1.0
 40
0.7887354482209762
 41
4.470383469813754
 42
5.981563611079356
  0
LINE
  5
38702C
330
18
100
AcDbEntity
  8
姿図
100
AcDbLine
 10
-741.1675746936706
 20
-1800.919512887462
 30
0.0
 11
-741.284096241824
 21
-1800.798224509804
 31
0.0
  0
ELLIPSE
  5
38702D
330
18
100
AcDbEntity
  8
姿図
100
AcDbEllipse
 10
-741.3477649177483
 20
-1800.847063451025
 30
0.0
 11
0.08178844561547299
 21
-0.0575513674415334
 31
0.0
210
0.0
220
0.0
230
1.0
 40
0.7887326860728291
 41
1.328821586221271
 42
2.871408485507727
  0
LINE
  5
38702E
330
18
100
AcDbEntity
  8
姿図
100
AcDbLine
 10
-741.414470273703
 20
-1800.774381596118
 30
0.0
 11
-741.5259717370717
 21
-1800.853970637563
 31
0.0
  0
ELLIPSE
  5
38702F
330
18
100
AcDbEntity
  8
姿図
100
AcDbEllipse
 10
-741.5926781494898
 20
-1800.781290168583
 30
0.0
 11
0.0817889895417921
 21
-0.05755089569165511
 31
0.0
210
0.0
220
0.0
230
1.0
 40
0.7887230290969767
 41
4.501818397362118
 42
6.012998538628418
  0
LINE
  5
387030
330
18
100
AcDbEntity
  8
姿図
100
AcDbLine
 10
-741.654162693907
 20
-1800.832345460591
 30
0.0
 11
-741.7740289896165
 21
-1800.713722495868
 31
0.0
  0
ELLIPSE
  5
387031
330
18
100
AcDbEntity
  8
姿図
100
AcDbEllipse
 10
-741.8355125202432
 20
-1800.764778185566
 30
0.0
 11
0.0817880866231917
 21
-0.05755331178088599
 31
0.0
210
0.0
220
0.0
230
1.0
 40
0.7887196678656562
 41
1.360255988141854
 42
2.902842887428056
  0
LINE
  5
387032
330
18
100
AcDbEntity
  8
姿図
100
AcDbLine
 10
-741.9042456293578
 20
-1800.693602050154
 30
0.0
 11
-742.0121283906556
 21
-1800.777033819237
 31
0.0
  0
ELLIPSE
  5
387033
330
18
100
AcDbEntity
  8
姿図
100
AcDbEllipse
 10
-742.0808620531658
 20
-1800.705857675887
 30
0.0
 11
0.0817887125394919
 21
-0.057552703159999
 31
0.0
210
0.0
220
0.0
230
1.0
 40
0.7887101960262743
 41
4.533251163202086
 42
6.044431304468294
  0
LINE
  5
387034
330
18
100
AcDbEntity
  8
姿図
100
AcDbLine
 10
-742.1401013692584
 20
-1800.759078645588
 30
0.0
 11
-742.2631932159678
 21
-1800.643240098271
 31
0.0
  0
ELLIPSE
  5
387035
330
18
100
AcDbEntity
  8
姿図
100
AcDbEllipse
 10
-742.3224316867135
 20
-1800.696461304216
 30
0.0
 11
0.0817878750434602
 21
-0.0575550907549101
 31
0.0
210
0.0
220
0.0
230
1.0
 40
0.7887062490540854
 41
1.391688127036263
 42
2.9342750263227
  0
LINE
  5
387036
330
18
100
AcDbEntity
  8
姿図
100
AcDbLine
 10
-742.3931247059372
 20
-1800.626860374109
 30
0.0
 11
-742.4972820809535
 21
-1800.714051992611
 31
0.0
  0
ELLIPSE
  5
387037
330
18
100
AcDbEntity
  8
姿図
100
AcDbEllipse
 10
-742.5679753904487
 20
-1800.644451714727
 30
0.0
 11
0.0817885790437459
 21
-0.0575543466980264
 31
0.0
210
0.0
220
0.0
230
1.0
 40
0.788696999755052
 41
4.564681701219311
 42
6.07586184248541
  0
LINE
  5
387038
330
18
100
AcDbEntity
  8
姿図
100
AcDbLine
 10
-742.6249106407786
 20
-1800.699785075866
 30
0.0
 11
-742.751107524843
 21
-1800.586846148482
 31
0.0
  0
ELLIPSE
  5
387039
330
18
100
AcDbEntity
  8
姿図
100
AcDbEllipse
 10
-742.8080418867274
 20
-1800.642180227487
 30
0.0
 11
0.0817878116961311
 21
-0.0575566973745581
 31
0.0
210
0.0
220
0.0
230
1.0
 40
0.7886924826973285
 41
1.423117939314818
 42
2.965704838601471
  0
LINE
  5
38703A
330
18
100
AcDbEntity
  8
姿図
100
AcDbLine
 10
-742.880624790317
 20
-1800.574224639113
 30
0.0
 11
-742.9809547046528
 21
-1800.665088285868
 31
0.0
  0
ELLIPSE
  5
38703B
330
18
100
AcDbEntity
  8
姿図
100
AcDbEllipse
 10
-743.0535374392852
 20
-1800.597132885376
 30
0.0
 11
0.0817885895657469
 21
-0.057555819850947
 31
0.0
210
0.0
220
0.0
230
1.0
 40
0.7886834924520711
 41
4.596109954142955
 42
6.10729009540874
  0
LINE
  5
38703C
330
18
100
AcDbEntity
  8
姿図
100
AcDbLine
 10
-743.1081130636993
 20
-1800.654524458082
 30
0.0
 11
-743.2372885445737
 21
-1800.544595410459
 31
0.0
  0
ELLIPSE
  5
38703D
330
18
100
AcDbEntity
  8
姿図
100
AcDbEllipse
 10
-743.2918638816462
 20
-1800.601988524248
 30
0.0
 11
0.0817878968128412
 21
-0.05755812533427471
 31
0.0
210
0.0
220
0.0
230
1.0
 40
0.7886784232141953
 41
1.45454537062124
 42
2.997132269908178
  0
LINE
  5
38703E
330
18
100
AcDbEntity
  8
姿図
100
AcDbLine
 10
-743.3662651450068
 20
-1800.535744286504
 30
0.0
 11
-743.4626674998963
 21
-1800.630191760421
 31
0.0
  0
ELLIPSE
  5
38703F
330
18
100
AcDbEntity
  8
姿図
100
AcDbEllipse
 10
-743.5370690085551
 20
-1800.563947885803
 30
0.0
 11
0.0817887440451273
 21
-0.0575571168392273
 31
0.0
210
0.0
220
0.0
230
1.0
 40
0.7886697275028994
 41
4.627535873765292
 42
6.138716015031433
  0
LINE
  5
387040
330
18
100
AcDbEntity
  8
姿図
100
AcDbLine
 10
-743.5892311932519
 20
-1800.623342051456
 30
0.0
 11
-743.721258830391
 21
-1800.516530862651
 31
0.0
  0
ELLIPSE
  5
387041
330
18
100
AcDbEntity
  8
姿図
100
AcDbEllipse
 10
-743.7734201975737
 20
-1800.57592585886
 30
0.0
 11
0.08178813003672759
 21
-0.0575593690362908
 31
0.0
210
0.0
220
0.0
230
1.0
 40
0.7886641261645903
 41
1.485970376037599
 42
3.028557275324268
  0
LINE
  5
387042
330
18
100
AcDbEntity
  8
姿図
100
AcDbLine
 10
-743.8495663496032
 20
-1800.511458112367
 30
0.0
 11
-743.9419463146387
 21
-1800.609395889489
 31
0.0
  0
ELLIPSE
  5
387043
330
18
100
AcDbEntity
  8
姿図
100
AcDbEllipse
 10
-744.0180929109772
 20
-1800.544929465597
 30
0.0
 11
0.08178904185137981
 21
-0.05755823258086679
 31
0.0
210
0.0
220
0.0
230
1.0
 40
0.7886557592939686
 41
4.65895942112516
 42
6.170139562391202
  0
LINE
  5
387044
330
18
100
AcDbEntity
  8
姿図
100
AcDbLine
 10
-744.067789560303
 20
-1800.606267527265
 30
0.0
 11
-744.202539620437
 21
-1800.5026795149
 31
0.0
  0
ELLIPSE
  5
387045
330
18
100
AcDbEntity
  8
姿図
100
AcDbEllipse
 10
-744.2522355965648
 20
-1800.564017952025
 30
0.0
 11
0.0817885104235075
 21
-0.05756042361218759
 31
0.0
210
0.0
220
0.0
230
1.0
 40
0.7886496480344914
 41
1.517392920257805
 42
3.05997981954487
  0
LINE
  5
387046
330
18
100
AcDbEntity
  8
姿図
100
AcDbLine
 10
-744.3300516178842
 20
-1800.501391225947
 30
0.0
 11
-744.4183186431952
 21
-1800.602722170206
 31
0.0
  0
ELLIPSE
  5
387047
330
18
100
AcDbEntity
  8
姿図
100
AcDbEllipse
 10
-744.4961344340348
 20
-1800.540096393643
 30
0.0
 11
0.0817894817855063
 21
-0.05755916271088781
 31
0.0
210
0.0
220
0.0
230
1.0
 40
0.7886416430018622
 41
4.690380566654811
 42
6.201560707920632
  0
LINE
  5
387048
330
18
100
AcDbEntity
  8
姿図
100
AcDbLine
 10
-744.5433166469829
 20
-1800.603316869689
 30
0.0
 11
-744.6806561041229
 21
-1800.503056211372
 31
0.0
  0
ELLIPSE
  5
387049
330
18
100
AcDbEntity
  8
姿図
100
AcDbEllipse
 10
-744.7278375456289
 20
-1800.56627655541
 30
0.0
 11
0.08178903644608231
 21
-0.05756128494137869
 31
0.0
210
0.0
220
0.0
230
1.0
 40
0.7886350460051859
 41
1.548812977716847
 42
3.091399877003671
  0
LINE
  5
38704A
330
18
100
AcDbEntity
  8
姿図
100
AcDbLine
 10
-744.807246468531
 20
-1800.50555181745
 30
0.0
 11
-744.8913132969701
 21
-1800.610177652273
 31
0.0
  0
ELLIPSE
  5
38704B
330
18
100
AcDbEntity
  8
姿図
100
AcDbEllipse
 10
-744.9707218084594
 20
-1800.549453439599
 30
0.0
 11
0.0817900620861565
 21
-0.05755990359791959
 31
0.0
210
0.0
220
0.0
230
1.0
 40
0.7886274343708509
 41
4.721799290286847
 42
6.232979431552872
  0
LINE
  5
38704C
330
18
100
AcDbEntity
  8
姿図
100
AcDbLine
 10
-745.0153435696027
 20
-1800.614493896986
 30
0.0
 11
-745.1551357757629
 21
-1800.517658116367
 31
0.0
  0
ELLIPSE
  5
38704D
330
18
100
AcDbEntity
  8
姿図
100
AcDbEllipse
 10
-745.1997566830628
 20
-1800.582699440047
 30
0.0
 11
0.081789706000734
 21
-0.0575619496668409
 31
0.0
210
0.0
220
0.0
230
1.0
 40
0.7886203777338211
 41
1.580230532683571
 42
3.122817431970698
  0
LINE
  5
38704E
330
18
100
AcDbEntity
  8
姿図
100
AcDbLine
 10
-745.2806793836756
 20
-1800.523936861584
 30
0.0
 11
-745.3604633679068
 21
-1800.631752846773
 31
0.0
  0
ELLIPSE
  5
38704F
330
18
100
AcDbEntity
  8
姿図
100
AcDbEllipse
 10
-745.4413866738097
 20
-1800.572991369191
 30
0.0
 11
0.08179078043639269
 21
-0.05756045235791869
 31
0.0
210
0.0
220
0.0
230
1.0
 40
0.7886131894942727
 41
4.753215581525235
 42
6.264395722791278
  0
LINE
  5
387050
330
18
100
AcDbEntity
  8
姿図
100
AcDbLine
 10
-745.4834037493797
 20
-1800.639788549985
 30
0.0
 11
-745.6255113980296
 21
-1800.546472509772
 31
0.0
  0
ELLIPSE
  5
387051
330
18
100
AcDbEntity
  8
姿図
100
AcDbEllipse
 10
-745.6675272816527
 20
-1800.613270398531
 30
0.0
 11
0.0817905164161062
 21
-0.0575624152075918
 31
0.0
210
0.0
220
0.0
230
1.0
 40
0.7886057011191951
 41
1.611645579312239
 42
3.154232478599461
  0
LINE
  5
387052
330
18
100
AcDbEntity
  8
姿図
100
AcDbLine
 10
-745.7498851016238
 20
-1800.556527935201
 30
0.0
 11
-745.8253065577617
 21
-1800.667429520639
 31
0.0
  0
ELLIPSE
  5
387053
330
18
100
AcDbEntity
  8
姿図
100
AcDbEllipse
 10
-745.9076645406867
 20
-1800.610686953324
 30
0.0
 11
0.0817916339732961
 21
-0.0575608068649771
 31
0.0
210
0.0
220
0.0
230
1.0
 40
0.7885989645929898
 41
4.784629439482115
 42
6.295809580747843
  0
LINE
  5
387054
330
18
100
AcDbEntity
  8
姿図
100
AcDbLine
 10
-745.9470348880678
 20
-1800.679173470558
 30
0.0
 11
-746.0913180384996
 21
-1800.58947127337
 31
0.0
  0
ELLIPSE
  5
387055
330
18
100
AcDbEntity
  8
姿図
100
AcDbEllipse
 10
-746.1306877082924
 20
-1800.657959261017
 30
0.0
 11
0.08179146446389041
 21
-0.05756267976824599
 31
0.0
210
0.0
220
0.0
230
1.0
 40
0.7885910740771565
 41
1.643058121659325
 42
3.185645020946319
  0
LINE
  5
387056
330
18
100
AcDbEntity
  8
姿図
100
AcDbLine
 10
-746.2143986899526
 20
-1800.603293117889
 30
0.0
 11
-746.2853838610125
 21
-1800.717168529498
 31
0.0
  0
ELLIPSE
  5
387057
330
18
100
AcDbEntity
  8
姿図
100
AcDbEllipse
 10
-746.3690952491323
 20
-1800.662502991007
 30
0.0
 11
0.0817926193000176
 21
-0.0575609657589738
 31
0.0
210
0.0
220
0.0
230
1.0
 40
0.7885848157922531
 41
4.816040872865926
 42
6.327221014132241
  0
LINE
  5
387058
330
18
100
AcDbEntity
  8
姿図
100
AcDbLine
 10
-746.4057806143232
 20
-1800.732612556432
 30
0.0
 11
-746.5520963623792
 21
-1800.646611271005
 31
0.0
  0
ELLIPSE
  5
387059
330
18
100
AcDbEntity
  8
姿図
100
AcDbEllipse
 10
-746.5887808795596
 20
-1800.716721924993
 30
0.0
 11
0.0817925463721849
 21
-0.05756274234544639
 31
0.0
210
0.0
220
0.0
230
1.0
 40
0.7885765543124951
 41
1.674468173655173
 42
3.217055072942413
  0
LINE
  5
38705A
330
18
100
AcDbEntity
  8
姿図
100
AcDbLine
 10
-746.6737624602292
 20
-1800.664186422224
 30
0.0
 11
-746.7402415404931
 21
-1800.780923885923
 31
0.0
  0
ELLIPSE
  5
38705B
330
18
100
AcDbEntity
  8
姿図
100
AcDbEllipse
 10
-746.8252234227447
 20
-1800.728388346067
 30
0.0
 11
0.0817937324992499
 21
-0.0575609284504495
 31
0.0
210
0.0
220
0.0
230
1.0
 40
0.7885707989011151
 41
4.847449899943731
 42
6.358630041210499
  0
LINE
  5
38705C
330
18
100
AcDbEntity
  8
姿図
100
AcDbLine
 10
-746.8591871909803
 20
-1800.800051455458
 30
0.0
 11
-747.007391973957
 21
-1800.717836249929
 31
0.0
  0
ELLIPSE
  5
38705D
330
18
100
AcDbEntity
  8
姿図
100
AcDbEllipse
 10
-747.041354712799
 20
-1800.789500398803
 30
0.0
 11
0.08179375784095561
 21
-0.05756260273119549
 31
0.0
210
0.0
220
0.0
230
1.0
 40
0.7885621990870818
 41
1.705875759042068
 42
3.248462658329565
  0
LINE
  5
38705E
330
18
100
AcDbEntity
  8
姿図
100
AcDbLine
 10
-747.1275236631035
 20
-1800.739146462667
 30
0.0
 11
-747.1894298103042
 21
-1800.858632113197
 31
0.0
  0
ELLIPSE
  5
38705F
330
18
100
AcDbEntity
  8
姿図
100
AcDbEllipse
 10
-747.2755989180869
 20
-1800.808277997613
 30
0.0
 11
0.08179496914965512
 21
-0.0575606951222626
 31
0.0
210
0.0
220
0.0
230
1.0
 40
0.7885569691930404
 41
4.878856548459967
 42
6.390036689725192
  0
LINE
  5
387060
330
18
100
AcDbEntity
  8
姿図
100
AcDbLine
 10
-747.3068077955903
 20
-1800.881424599985
 30
0.0
 11
-747.4567544287912
 21
-1800.803075509707
 31
0.0
  0
ELLIPSE
  5
387061
330
18
100
AcDbEntity
  8
姿図
100
AcDbEllipse
 10
-747.4879625722792
 20
-1800.876222858882
 30
0.0
 11
0.0817950940594301
 21
-0.0575622615130129
 31
0.0
210
0.0
220
0.0
230
1.0
 40
0.7885480649992206
 41
1.737280911270425
 42
3.279867810557516
  0
LINE
  5
387062
330
18
100
AcDbEntity
  8
姿図
100
AcDbLine
 10
-747.575233171222
 20
-1800.828101018111
 30
0.0
 11
-747.6325067870813
 21
-1800.950214526585
 31
0.0
  0
ELLIPSE
  5
387063
330
18
100
AcDbEntity
  8
姿図
100
AcDbEllipse
 10
-747.7197772689183
 20
-1800.902093104204
 30
0.0
 11
0.0817963243427471
 21
-0.0575602667283164
 31
0.0
210
0.0
220
0.0
230
1.0
 40
0.7885433811891238
 41
4.910260855514966
 42
6.421440996780964
  0
LINE
  5
387064
330
18
100
AcDbEntity
  8
姿図
100
AcDbLine
 10
-747.7482012033327
 20
-1800.976649883507
 30
0.0
 11
-747.8997411849706
 21
-1800.902246183737
 31
0.0
  0
ELLIPSE
  5
387065
330
18
100
AcDbEntity
  8
姿図
100
AcDbEllipse
 10
-747.928163709961
 20
-1800.976803720631
 30
0.0
 11
0.08179654972542499
 21
-0.05756172007112781
 31
0.0
210
0.0
220
0.0
230
1.0
 40
0.788534207759433
 41
1.768683673359014
 42
3.311270572645872
  0
LINE
  5
387066
330
18
100
AcDbEntity
  8
姿図
100
AcDbLine
 10
-748.0164497597642
 20
-1800.930961138741
 30
0.0
 11
-748.0690328923656
 21
-1801.055584647625
 31
0.0
  0
ELLIPSE
  5
387067
330
18
100
AcDbEntity
  8
姿図
100
AcDbEllipse
 10
-748.1573201248336
 20
-1801.009741081657
 30
0.0
 11
0.08179779270415111
 21
-0.05755964498929699
 31
0.0
210
0.0
220
0.0
230
1.0
 40
0.7885300884408998
 41
4.941662867415699
 42
6.452843008681627
  0
LINE
  5
387068
330
18
100
AcDbEntity
  8
姿図
100
AcDbLine
 10
-748.1829296467457
 20
-1801.085634268891
 30
0.0
 11
-748.3359148043063
 21
-1801.015249342013
 31
0.0
  0
ELLIPSE
  5
387069
330
18
100
AcDbEntity
  8
姿図
100
AcDbEllipse
 10
-748.3615237004677
 20
-1801.091143722883
 30
0.0
 11
0.08179811906688891
 21
-0.05756098057239001
 31
0.0
210
0.0
220
0.0
230
1.0
 40
0.7885206819700109
 41
1.800084097717426
 42
3.342670997004308
  0
LINE
  5
38706A
330
18
100
AcDbEntity
  8
姿図
100
AcDbLine
 10
-748.4507386247187
 20
-1801.047625613287
 30
0.0
 11
-748.4985808954063
 21
-1801.174634231165
 31
0.0
  0
ELLIPSE
  5
38706B
330
18
100
AcDbEntity
  8
姿図
100
AcDbEllipse
 10
-748.5877956838594
 20
-1801.131115694413
 30
0.0
 11
0.0817993684140675
 21
-0.0575588323854461
 31
0.0
210
0.0
220
0.0
230
1.0
 40
0.7885171433219661
 41
4.973062639484918
 42
6.484242780750482
  0
LINE
  5
38706C
330
18
100
AcDbEntity
  8
姿図
100
AcDbLine
 10
-748.6105657304441
 20
-1801.208271697456
 30
0.0
 11
-748.7648454218715
 21
-1801.141973698025
 31
0.0
  0
ELLIPSE
  5
38706D
330
18
100
AcDbEntity
  8
姿図
100
AcDbEllipse
 10
-748.7876148698095
 20
-1801.21913002586
 30
0.0
 11
0.0817997958649244
 21
-0.05756004596137392
 31
0.0
210
0.0
220
0.0
230
1.0
 40
0.7885075409156608
 41
1.831482245933423
 42
3.374069145221135
  0
LINE
  5
38706E
330
18
100
AcDbEntity
  8
姿図
100
AcDbLine
 10
-748.8776707243378
 20
-1801.177977547244
 30
0.0
 11
-748.9207225776388
 21
-1801.307248378589
 31
0.0
  0
ELLIPSE
  5
38706F
330
18
100
AcDbEntity
  8
姿図
100
AcDbEllipse
 10
-749.01077911859
 20
-1801.266097160385
 30
0.0
 11
0.08180104523091811
 21
-0.0575578321462444
 31
0.0
210
0.0
220
0.0
230
1.0
 40
0.7885045968254295
 41
5.004460235832608
 42
6.51564037709852
  0
LINE
  5
387070
330
18
100
AcDbEntity
  8
姿図
100
AcDbLine
 10
-749.0306886444877
 20
-1801.344439381572
 30
0.0
 11
-749.1861079471854
 21
-1801.282293992793
 31
0.0
  0
ELLIPSE
  5
387071
330
18
100
AcDbEntity
  8
姿図
100
AcDbEllipse
 10
-749.2060167174448
 20
-1801.360636322533
 30
0.0
 11
0.0818015734790549
 21
-0.0575589199482138
 31
0.0
210
0.0
220
0.0
230
1.0
 40
0.7884948363483881
 41
1.862878188519895
 42
3.405465087807364
  0
LINE
  5
387072
330
18
100
AcDbEntity
  8
姿図
100
AcDbLine
 10
-749.2968247547732
 20
-1801.321892347422
 30
0.0
 11
-749.3350450316555
 21
-1801.453295177703
 31
0.0
  0
ELLIPSE
  5
387073
330
18
100
AcDbEntity
  8
姿図
100
AcDbEllipse
 10
-749.4258529954436
 20
-1801.414552269162
 30
0.0
 11
0.08180281651669928
 21
-0.05755664823742989
 31
0.0
210
0.0
220
0.0
230
1.0
 40
0.7884924983594586
 41
5.035855729103094
 42
6.547035870369207
  0
LINE
  5
387074
330
18
100
AcDbEntity
  8
姿図
100
AcDbLine
 10
-749.4428808716569
 20
-1801.494002747114
 30
0.0
 11
-749.5992898021145
 21
-1801.436072421247
 31
0.0
  0
ELLIPSE
  5
387075
330
18
100
AcDbEntity
  8
姿図
100
AcDbEllipse
 10
-749.6163163312639
 20
-1801.515522963271
 30
0.0
 11
0.08180344487323062
 21
-0.05755760699375401
 31
0.0
210
0.0
220
0.0
230
1.0
 40
0.788482618291197
 41
1.894272004636294
 42
3.436858903923123
  0
LINE
  5
387076
330
18
100
AcDbEntity
  8
姿図
100
AcDbLine
 10
-749.7077861622574
 20
-1801.479224984289
 30
0.0
 11
-749.7411383135004
 21
-1801.612630739731
 31
0.0
  0
ELLIPSE
  5
387077
330
18
100
AcDbEntity
  8
姿図
100
AcDbEllipse
 10
-749.832607686616
 20
-1801.576334513473
 30
0.0
 11
0.0818046752630722
 21
-0.0575552853449964
 31
0.0
210
0.0
220
0.0
230
1.0
 40
0.788480895556027
 41
5.067249200179828
 42
6.578429341445745
  0
LINE
  5
387078
330
18
100
AcDbEntity
  8
姿図
100
AcDbLine
 10
-749.846737571717
 20
-1801.656814768907
 30
0.0
 11
-750.003980137203
 21
-1801.603155446815
 31
0.0
  0
ELLIPSE
  5
387079
330
18
100
AcDbEntity
  8
姿図
100
AcDbEllipse
 10
-750.0181087950841
 20
-1801.68363709366
 30
0.0
 11
0.08180540264478969
 21
-0.0575561122916071
 31
0.0
210
0.0
220
0.0
230
1.0
 40
0.7884709348358367
 41
1.925663781763732
 42
3.468250681050261
  0
LINE
  5
38707A
330
18
100
AcDbEntity
  8
姿図
100
AcDbLine
 10
-750.110150518144
 20
-1801.64982106639
 30
0.0
 11
-750.1386003817515
 21
-1801.785099009478
 31
0.0
  0
ELLIPSE
  5
38707B
330
18
100
AcDbEntity
  8
姿図
100
AcDbEllipse
 10
-750.2306417743347
 20
-1801.751284233778
 30
0.0
 11
0.0818066141195004
 21
-0.0575537488565345
 31
0.0
210
0.0
220
0.0
230
1.0
 40
0.788469834085968
 41
5.09864073786398
 42
6.609820879129418
  0
LINE
  5
38707C
330
18
100
AcDbEntity
  8
姿図
100
AcDbLine
 10
-750.241859913649
 20
-1801.832715162124
 30
0.0
 11
-750.3997803683882
 21
-1801.783381406803
 31
0.0
  0
ELLIPSE
  5
38707D
330
18
100
AcDbEntity
  8
姿図
100
AcDbEllipse
 10
-750.4109975882528
 20
-1801.86481280535
 30
0.0
 11
0.08180743905288068
 21
-0.05755444174745609
 31
0.0
210
0.0
220
0.0
230
1.0
 40
0.7884598319620756
 41
1.957053615365665
 42
3.499640514652565
  0
LINE
  5
38707E
330
18
100
AcDbEntity
  8
姿図
100
AcDbLine
 10
-750.5035197322777
 20
-1801.833513132701
 30
0.0
 11
-750.5270395259034
 21
-1801.970528604929
 31
0.0
  0
ELLIPSE
  5
38707F
330
18
100
AcDbEntity
  8
姿図
100
AcDbEllipse
 10
-750.6195624470109
 20
-1801.939228775822
 30
0.0
 11
0.08180862542246817
 21
-0.05755204483977399
 31
0.0
210
0.0
220
0.0
230
1.0
 40
0.7884593574780342
 41
5.130030438518344
 42
6.641210579784266
  0
LINE
  5
387080
330
18
100
AcDbEntity
  8
姿図
100
AcDbLine
 10
-750.6278572982428
 20
-1802.021531665604
 30
0.0
 11
-750.7863007196391
 21
-1801.976569390449
 31
0.0
  0
ELLIPSE
  5
387081
330
18
100
AcDbEntity
  8
姿図
100
AcDbEllipse
 10
-750.7945949769655
 20
-1802.058871299786
 30
0.0
 11
0.081809546050124
 21
-0.0575526019557131
 31
0.0
210
0.0
220
0.0
230
1.0
 40
0.7884493533529459
 41
1.988441608502663
 42
3.531028507790021
  0
LINE
  5
387082
330
18
100
AcDbEntity
  8
姿図
100
AcDbLine
 10
-750.8875069097612
 20
-1802.030117373417
 30
0.0
 11
-750.906073625506
 21
-1802.168735431152
 31
0.0
  0
ELLIPSE
  5
387083
330
18
100
AcDbEntity
  8
姿図
100
AcDbEllipse
 10
-750.9989858868952
 20
-1802.139982661035
 30
0.0
 11
0.0818107012258054
 21
-0.0575501800186089
 31
0.0
210
0.0
220
0.0
230
1.0
 40
0.7884495069521881
 41
5.161418405690993
 42
6.672598546956797
  0
LINE
  5
387084
330
18
100
AcDbEntity
  8
姿図
100
AcDbLine
 10
-751.0043500951676
 20
-1802.223074017799
 30
0.0
 11
-751.1631590499255
 21
-1802.182529207734
 31
0.0
  0
ELLIPSE
  5
387085
330
18
100
AcDbEntity
  8
姿図
100
AcDbEllipse
 10
-751.1685223969107
 20
-1802.265621064664
 30
0.0
 11
0.0818117153141316
 21
-0.0575506001733786
 31
0.0
210
0.0
220
0.0
230
1.0
 40
0.7884395402270776
 41
2.0198278714263
 42
3.562414770713731
  0
LINE
  5
387086
330
18
100
AcDbEntity
  8
姿図
100
AcDbLine
 10
-751.2617320909912
 20
-1802.239441816477
 30
0.0
 11
-751.2753279172842
 21
-1802.379525953576
 31
0.0
  0
ELLIPSE
  5
387087
330
18
100
AcDbEntity
  8
姿図
100
AcDbEllipse
 10
-751.3685376488609
 20
-1802.353347769569
 30
0.0
 11
0.081812833332549
 21
-0.05754816174660251
 31
0.0
210
0.0
220
0.0
230
1.0
 40
0.7884403212553363
 41
5.192804749699472
 42
6.70398489096562
  0
LINE
  5
387088
330
18
100
AcDbEntity
  8
姿図
100
AcDbLine
 10
-751.3709647656328
 20
-1802.437146349413
 30
0.0
 11
-751.5299843517355
 21
-1802.401058846998
 31
0.0
  0
ELLIPSE
  5
387089
330
18
100
AcDbEntity
  8
姿図
100
AcDbEllipse
 10
-751.5324108268705
 20
-1802.484858062928
 30
0.0
 11
0.0818139382803906
 21
-0.0575484442915482
 31
0.0
210
0.0
220
0.0
230
1.0
 40
0.7884304311775984
 41
2.051212521142685
 42
3.593799420430523
  0
LINE
  5
38708A
330
18
100
AcDbEntity
  8
姿図
100
AcDbLine
 10
-751.6258270055321
 20
-1802.46127994709
 30
0.0
 11
-751.6344366517931
 21
-1802.6026920709
 31
0.0
  0
ELLIPSE
  5
38708B
330
18
100
AcDbEntity
  8
姿図
100
AcDbEllipse
 10
-751.7278530299359
 20
-1802.579113535822
 30
0.0
 11
0.08181501332671817
 21
-0.05754599797799649
 31
0.0
210
0.0
220
0.0
230
1.0
 40
0.7884318365136918
 41
5.224189587200241
 42
6.735369728466729
  0
LINE
  5
38708C
330
18
100
AcDbEntity
  8
姿図
100
AcDbLine
 10
-751.7273421765053
 20
-1802.663536775264
 30
0.0
 11
-751.8864136435678
 21
-1802.631942680273
 31
0.0
  0
ELLIPSE
  5
38708D
330
18
100
AcDbEntity
  8
姿図
100
AcDbEllipse
 10
-751.885901152897
 20
-1802.716365934129
 30
0.0
 11
0.0818162061763133
 21
-0.0575461428043695
 31
0.0
210
0.0
220
0.0
230
1.0
 40
0.7884220620226781
 41
2.082595680955535
 42
3.625182580241892
  0
LINE
  5
38708E
330
18
100
AcDbEntity
  8
姿図
100
AcDbLine
 10
-751.9794312443227
 20
-1802.695411539118
 30
0.0
 11
-751.9830473945339
 21
-1802.838010556958
 31
0.0
  0
ELLIPSE
  5
38708F
330
18
100
AcDbEntity
  8
姿図
100
AcDbEllipse
 10
-752.0765774292194
 20
-1802.81705715624
 30
0.0
 11
0.0818172326071363
 21
-0.0575436972366106
 31
0.0
210
0.0
220
0.0
230
1.0
 40
0.7884240860904466
 41
5.255573040729917
 42
6.766753181995562
  0
LINE
  5
387090
330
18
100
AcDbEntity
  8
姿図
100
AcDbLine
 10
-752.0731272282391
 20
-1802.902022051123
 30
0.0
 11
-752.23209460411
 21
-1802.874951463526
 31
0.0
  0
ELLIPSE
  5
387091
330
18
100
AcDbEntity
  8
姿図
100
AcDbEllipse
 10
-752.2286445227164
 20
-1802.959916207947
 30
0.0
 11
0.08181851005596739
 21
-0.05754370477575321
 31
0.0
210
0.0
220
0.0
230
1.0
 40
0.788414465662043
 41
2.113977479971481
 42
3.656564379259787
  0
LINE
  5
387092
330
18
100
AcDbEntity
  8
姿図
100
AcDbLine
 10
-752.322196663692
 20
-1802.941605198194
 30
0.0
 11
-752.3208147080423
 21
-1803.085253100572
 31
0.0
  0
ELLIPSE
  5
387093
330
18
100
AcDbEntity
  8
姿図
100
AcDbEllipse
 10
-752.4143666978306
 20
-1803.066943809195
 30
0.0
 11
0.0818194824211389
 21
-0.057541268582277
 31
0.0
210
0.0
220
0.0
230
1.0
 40
0.7884171004559432
 41
5.28695523821834
 42
6.798135379484516
  0
LINE
  5
387094
330
18
100
AcDbEntity
  8
姿図
100
AcDbLine
 10
-752.4079827048872
 20
-1803.152364925142
 30
0.0
 11
-752.5666877330896
 21
-1803.129846626198
 31
0.0
  0
ELLIPSE
  5
387095
330
18
100
AcDbEntity
  8
姿図
100
AcDbEllipse
 10
-752.5603026900015
 20
-1803.215268529666
 30
0.0
 11
0.08182084083469481
 21
-0.0575411398039023
 31
0.0
210
0.0
220
0.0
230
1.0
 40
0.7884076719580224
 41
2.145358052612266
 42
3.687944951898968
  0
LINE
  5
387096
330
18
100
AcDbEntity
  8
姿図
100
AcDbLine
 10
-752.6537840309015
 20
-1803.199620987274
 30
0.0
 11
-752.6474071797948
 21
-1803.344173633719
 31
0.0
  0
ELLIPSE
  5
387097
330
18
100
AcDbEntity
  8
姿図
100
AcDbEllipse
 10
-752.7408874785451
 20
-1803.328526886733
 30
0.0
 11
0.081821753898879
 21
-0.0575387215755754
 31
0.0
210
0.0
220
0.0
230
1.0
 40
0.7884109070704695
 41
5.318336312496134
 42
6.829516453762232
  0
LINE
  5
387098
330
18
100
AcDbEntity
  8
姿図
100
AcDbLine
 10
-752.7315749301792
 20
-1803.414321063822
 30
0.0
 11
-752.889862029573
 21
-1803.396376254664
 31
0.0
  0
ELLIPSE
  5
387099
330
18
100
AcDbEntity
  8
姿図
100
AcDbEllipse
 10
-752.8805483481846
 20
-1803.482170897376
 30
0.0
 11
0.08182318932577461
 21
-0.0575384579837959
 31
0.0
210
0.0
220
0.0
230
1.0
 40
0.7884017076080531
 41
2.176737538066186
 42
3.719324437353084
  0
LINE
  5
38709A
330
18
100
AcDbEntity
  8
姿図
100
AcDbLine
 10
-752.9738666255561
 20
-1803.469200339026
 30
0.0
 11
-752.9625001473488
 21
-1803.614517818703
 31
0.0
  0
ELLIPSE
  5
38709B
330
18
100
AcDbEntity
  8
姿図
100
AcDbEllipse
 10
-753.0558175347714
 20
-1803.601548237934
 30
0.0
 11
0.08182403808837081
 21
-0.057536066240381
 31
0.0
210
0.0
220
0.0
230
1.0
 40
0.788405530276013
 41
5.349716400767103
 42
6.860896542034029
  0
LINE
  5
38709C
330
18
100
AcDbEntity
  8
姿図
100
AcDbLine
 10
-753.0435845923466
 20
-1803.687631614705
 30
0.0
 11
-753.201298922655
 21
-1803.674275840945
 31
0.0
  0
ELLIPSE
  5
38709D
330
18
100
AcDbEntity
  8
姿図
100
AcDbEllipse
 10
-753.1890654534627
 20
-1803.760359910661
 30
0.0
 11
0.0818255462756952
 21
-0.0575356698677965
 31
0.0
210
0.0
220
0.0
230
1.0
 40
0.7883965960512009
 41
2.208116079760714
 42
3.750702979047741
  0
LINE
  5
38709E
330
18
100
AcDbEntity
  8
姿図
100
AcDbLine
 10
-753.2821275231117
 20
-1803.750081217068
 30
0.0
 11
-753.2657832716043
 21
-1803.896016775097
 31
0.0
  0
ELLIPSE
  5
38709F
330
18
100
AcDbEntity
  8
姿図
100
AcDbEllipse
 10
-753.3588460685672
 20
-1803.885738423689
 30
0.0
 11
0.0818263259906758
 21
-0.0575333130247558
 31
0.0
210
0.0
220
0.0
230
1.0
 40
0.7884009912034738
 41
5.381095644078811
 42
6.892275785344801
  0
LINE
  5
3870A0
330
18
100
AcDbEntity
  8
姿図
100
AcDbLine
 10
-753.3437058797836
 20
-1803.972025748995
 30
0.0
 11
-753.5006905427771
 21
-1803.963274889143
 31
0.0
  0
ELLIPSE
  5
3870A1
330
18
100
AcDbEntity
  8
姿図
100
AcDbEllipse
 10
-753.4855495367017
 20
-1804.049561030553
 30
0.0
 11
0.0818279024006756
 21
-0.0575327864245026
 31
0.0
210
0.0
220
0.0
230
1.0
 40
0.7883923573721408
 41
2.239493824797349
 42
3.782080724084146
  0
LINE
  5
3870A2
330
18
100
AcDbEntity
  8
姿図
100
AcDbLine
 10
-753.5782646162759
 20
-1804.041982764641
 30
0.0
 11
-753.5569587258087
 21
-1804.18839363842
 31
0.0
  0
ELLIPSE
  5
3870A3
330
18
100
AcDbEntity
  8
姿図
100
AcDbEllipse
 10
-753.6496740273552
 20
-1804.180816982595
 30
0.0
 11
0.08182860859486139
 21
-0.0575304727602628
 31
0.0
210
0.0
220
0.0
230
1.0
 40
0.7883973076889674
 41
5.412474186764531
 42
6.92365432803048
  0
LINE
  5
3870A4
330
18
100
AcDbEntity
  8
姿図
100
AcDbLine
 10
-753.6316417889175
 20
-1804.267222514646
 30
0.0
 11
-753.7877415327284
 21
-1804.263084272823
 31
0.0
  0
ELLIPSE
  5
3870A5
330
18
100
AcDbEntity
  8
姿図
100
AcDbEllipse
 10
-753.769708003907
 20
-1804.349488850461
 30
0.0
 11
0.0818302484232732
 21
-0.05752981899599521
 31
0.0
210
0.0
220
0.0
230
1.0
 40
0.788389008223729
 41
2.270870923375938
 42
3.813457822661921
  0
LINE
  5
3870A6
330
18
100
AcDbEntity
  8
姿図
100
AcDbLine
 10
-753.8619848527414
 20
-1804.344618707077
 30
0.0
 11
-753.8357379028313
 21
-1804.491361658545
 31
0.0
  0
ELLIPSE
  5
3870A7
330
18
100
AcDbEntity
  8
姿図
100
AcDbEllipse
 10
-753.9280143990509
 20
-1804.48649270774
 30
0.0
 11
0.08183087691367072
 21
-0.05752755661966801
 31
0.0
210
0.0
220
0.0
230
1.0
 40
0.7883944942056252
 41
5.443852175887586
 42
6.955032317153182
  0
LINE
  5
3870A8
330
18
100
AcDbEntity
  8
姿図
100
AcDbLine
 10
-753.907106676067
 20
-1804.572930789083
 30
0.0
 11
-754.0621685537335
 21
-1804.573409637968
 31
0.0
  0
ELLIPSE
  5
3870A9
330
18
100
AcDbEntity
  8
姿図
100
AcDbEllipse
 10
-754.0412604249772
 20
-1804.659847377838
 30
0.0
 11
0.08183257510847849
 21
-0.05752677925367779
 31
0.0
210
0.0
220
0.0
230
1.0
 40
0.7883865617622253
 41
2.302247528209256
 42
3.844834427496437
  0
LINE
  5
3870AA
330
18
100
AcDbEntity
  8
姿図
100
AcDbLine
 10
-754.1330078571855
 20
-1804.657690317915
 30
0.0
 11
-754.1018448725226
 21
-1804.804620112624
 31
0.0
  0
ELLIPSE
  5
3870AB
330
18
100
AcDbEntity
  8
姿図
100
AcDbEllipse
 10
-754.1935924953121
 20
-1804.802463934087
 30
0.0
 11
0.08183312201819612
 21
-0.05752457607349731
 31
0.0
210
0.0
220
0.0
230
1.0
 40
0.7883925618082276
 41
5.475229760663824
 42
6.986409901930106
  0
LINE
  5
3870AC
330
18
100
AcDbEntity
  8
姿図
100
AcDbLine
 10
-754.169831690438
 20
-1804.888850135084
 30
0.0
 11
-754.3237009440002
 21
-1804.89394493911
 31
0.0
  0
ELLIPSE
  5
3870AD
330
18
100
AcDbEntity
  8
姿図
100
AcDbEllipse
 10
-754.2999388104581
 20
-1804.980330326287
 30
0.0
 11
0.0818348732995276
 21
-0.05752367915282262
 31
0.0
210
0.0
220
0.0
230
1.0
 40
0.7883850275994608
 41
2.333623793935931
 42
3.876210693222951
  0
LINE
  5
3870AE
330
18
100
AcDbEntity
  8
姿図
100
AcDbLine
 10
-754.3910660958998
 20
-1804.980888795209
 30
0.0
 11
-754.3550190158938
 21
-1805.127858867872
 31
0.0
  0
ELLIPSE
  5
3870AF
330
18
100
AcDbEntity
  8
姿図
100
AcDbEllipse
 10
-754.4461462226227
 20
-1805.128418836184
 30
0.0
 11
0.08183533507335029
 21
-0.0575215428453291
 31
0.0
210
0.0
220
0.0
230
1.0
 40
0.7883915180880212
 41
5.506607091884357
 42
7.017787233150516
  0
LINE
  5
3870B0
330
18
100
AcDbEntity
  8
姿図
100
AcDbLine
 10
-754.4195544020431
 20
-1805.214667092634
 30
0.0
 11
-754.5720805540813
 21
-1805.224373865212
 31
0.0
  0
ELLIPSE
  5
3870B1
330
18
100
AcDbEntity
  8
姿図
100
AcDbEllipse
 10
-754.5454878760137
 20
-1805.310621417832
 30
0.0
 11
0.0818371339541671
 21
-0.05752053088608021
 31
0.0
210
0.0
220
0.0
230
1.0
 40
0.7883844117614667
 41
2.364999876508184
 42
3.907586775795905
  0
LINE
  5
3870B2
330
18
100
AcDbEntity
  8
姿図
100
AcDbLine
 10
-754.6359050414338
 20
-1805.313894595986
 30
0.0
 11
-754.5950094274879
 21
-1805.460761232833
 31
0.0
  0
ELLIPSE
  5
3870B3
330
18
100
AcDbEntity
  8
姿図
100
AcDbEllipse
 10
-754.6854263409436
 20
-1805.464035735895
 30
0.0
 11
0.08183750737185851
 21
-0.0575184688661565
 31
0.0
210
0.0
220
0.0
230
1.0
 40
0.7883913671458389
 41
5.537984321324388
 42
7.049164462590156
  0
LINE
  5
3870B4
330
18
100
AcDbEntity
  8
姿図
100
AcDbLine
 10
-754.6560304908697
 20
-1805.550061168337
 30
0.0
 11
-754.8070620761473
 21
-1805.564369269164
 31
0.0
  0
ELLIPSE
  5
3870B5
330
18
100
AcDbEntity
  8
姿図
100
AcDbEllipse
 10
-754.7776652943622
 20
-1805.65039469504
 30
0.0
 11
0.0818393481794146
 21
-0.0575173468359367
 31
0.0
210
0.0
220
0.0
230
1.0
 40
0.7883847166676905
 41
2.396375932594138
 42
3.938962831881288
  0
LINE
  5
3870B6
330
18
100
AcDbEntity
  8
姿図
100
AcDbLine
 10
-754.8672836664969
 20
-1805.656379242543
 30
0.0
 11
-754.8215787020088
 21
-1805.80299701855
 31
0.0
  0
ELLIPSE
  5
3870B7
330
18
100
AcDbEntity
  8
姿図
100
AcDbEllipse
 10
-754.9111967096869
 20
-1805.80898341986
 30
0.0
 11
0.0818396303681652
 21
-0.0575153662279178
 31
0.0
210
0.0
220
0.0
230
1.0
 40
0.7883921095743137
 41
5.569361601157141
 42
7.080541742422504
  0
LINE
  5
3870B8
330
18
100
AcDbEntity
  8
姿図
100
AcDbLine
 10
-754.8790251858017
 20
-1805.894702173232
 30
0.0
 11
-755.0284137025319
 21
-1805.913597350149
 31
0.0
  0
ELLIPSE
  5
3870B9
330
18
100
AcDbEntity
  8
姿図
100
AcDbEllipse
 10
-754.9962419344218
 20
-1805.999314842708
 30
0.0
 11
0.081841507266546
 21
-0.0575141395265817
 31
0.0
210
0.0
220
0.0
230
1.0
 40
0.7883859411200558
 41
2.427752118962126
 42
3.97033901824863
  0
LINE
  5
3870BA
330
18
100
AcDbEntity
  8
姿図
100
AcDbLine
 10
-755.0849724683274
 20
-1806.008004941785
 30
0.0
 11
-755.0345045806862
 21
-1806.15423033302
 31
0.0
  0
ELLIPSE
  5
3870BB
330
18
100
AcDbEntity
  8
姿図
100
AcDbEllipse
 10
-755.1232345207573
 20
-1806.162921466361
 30
0.0
 11
0.08184169571222812
 21
-0.05751224713636562
 31
0.0
210
0.0
220
0.0
230
1.0
 40
0.7883937424569205
 41
5.600739083356905
 42
7.111919224622589
  0
LINE
  5
3870BC
330
18
100
AcDbEntity
  8
姿図
100
AcDbLine
 10
-755.0883195207898
 20
-1806.248246991107
 30
0.0
 11
-755.2359174550027
 21
-1806.271711760512
 31
0.0
  0
ELLIPSE
  5
3870BD
330
18
100
AcDbEntity
  8
姿図
100
AcDbEllipse
 10
-755.2010020874384
 20
-1806.357037518777
 30
0.0
 11
0.0818436027249163
 21
-0.05751092157514389
 31
0.0
210
0.0
220
0.0
230
1.0
 40
0.7883880803083632
 41
2.459128591874363
 42
4.001715491160688
  0
LINE
  5
3870BE
330
18
100
AcDbEntity
  8
姿図
100
AcDbLine
 10
-755.2887570906896
 20
-1806.368425155974
 30
0.0
 11
-755.233576000004
 21
-1806.514111976578
 31
0.0
  0
ELLIPSE
  5
3870BF
330
18
100
AcDbEntity
  8
姿図
100
AcDbEllipse
 10
-755.3213305184335
 20
-1806.525500581277
 30
0.0
 11
0.08184369528140678
 21
-0.05750912386360339
 31
0.0
210
0.0
220
0.0
230
1.0
 40
0.7883962593789827
 41
5.63211691911437
 42
7.143297060380067
  0
LINE
  5
3870C0
330
18
100
AcDbEntity
  8
姿図
100
AcDbLine
 10
-755.2837063835858
 20
-1806.610350224733
 30
0.0
 11
-755.4293681969447
 21
-1806.638360639398
 31
0.0
  0
ELLIPSE
  5
3870C1
330
18
100
AcDbEntity
  8
姿図
100
AcDbEllipse
 10
-755.3917436798627
 20
-1806.723209694154
 30
0.0
 11
0.08184562631478801
 21
-0.05750770564247899
 31
0.0
210
0.0
220
0.0
230
1.0
 40
0.7883911258295969
 41
2.490505506479379
 42
4.033092405766441
  0
LINE
  5
3870C2
330
18
100
AcDbEntity
  8
姿図
100
AcDbLine
 10
-755.4784370067791
 20
-1806.737283841895
 30
0.0
 11
-755.4185960551558
 21
-1806.882288757526
 31
0.0
  0
ELLIPSE
  5
3870C3
330
18
100
AcDbEntity
  8
姿図
100
AcDbEllipse
 10
-755.5052892058828
 20
-1806.896362942796
 30
0.0
 11
0.08184562121272168
 21
-0.05750600870014469
 31
0.0
210
0.0
220
0.0
230
1.0
 40
0.7883996504506116
 41
5.663495258241466
 42
7.17467539950746
  0
LINE
  5
3870C4
330
18
100
AcDbEntity
  8
姿図
100
AcDbLine
 10
-755.4649934791933
 20
-1806.980651458203
 30
0.0
 11
-755.6085752797244
 21
-1807.013181479968
 31
0.0
  0
ELLIPSE
  5
3870C5
330
18
100
AcDbEntity
  8
姿図
100
AcDbEllipse
 10
-755.5682784727713
 20
-1807.097470001109
 30
0.0
 11
0.0818475700796739
 21
-0.05750450438382871
 31
0.0
210
0.0
220
0.0
230
1.0
 40
0.7883950657193872
 41
2.52188301620832
 42
4.064469915495796
  0
LINE
  5
3870C6
330
18
100
AcDbEntity
  8
姿図
100
AcDbLine
 10
-755.653824531412
 20
-1807.1142148806
 30
0.0
 11
-755.5893839756727
 21
-1807.25839702827
 31
0.0
  0
ELLIPSE
  5
3870C7
330
18
100
AcDbEntity
  8
姿図
100
AcDbEllipse
 10
-755.6749290380912
 20
-1807.275142554544
 30
0.0
 11
0.08184746593269671
 21
-0.0575029139070083
 31
0.0
210
0.0
220
0.0
230
1.0
 40
0.788403902349045
 41
5.694874248594367
 42
7.206054389860383
  0
LINE
  5
3870C8
330
18
100
AcDbEntity
  8
姿図
100
AcDbLine
 10
-755.6320016835069
 20
-1807.358787994343
 30
0.0
 11
-755.7733608963235
 21
-1807.395803220572
 31
0.0
  0
ELLIPSE
  5
3870C9
330
18
100
AcDbEntity
  8
姿図
100
AcDbEllipse
 10
-755.7304322476356
 20
-1807.479449089906
 30
0.0
 11
0.081849426376948
 21
-0.0575013303995107
 31
0.0
210
0.0
220
0.0
230
1.0
 40
0.7883998845000664
 41
2.553261272178193
 42
4.095848171464766
  0
LINE
  5
3870CA
330
18
100
AcDbEntity
  8
姿図
100
AcDbLine
 10
-755.814746467383
 20
-1807.498849872125
 30
0.0
 11
-755.745768539983
 21
-1807.642064205987
 31
0.0
  0
ELLIPSE
  5
3870CB
330
18
100
AcDbEntity
  8
姿図
100
AcDbEllipse
 10
-755.8300826010236
 20
-1807.661465606773
 30
0.0
 11
0.08184922218754311
 21
-0.05749985166784199
 31
0.0
210
0.0
220
0.0
230
1.0
 40
0.7884089983662279
 41
5.726254035492054
 42
7.237434176758371
  0
LINE
  5
3870CC
330
18
100
AcDbEntity
  8
姿図
100
AcDbLine
 10
-755.7845647140375
 20
-1807.74438553957
 30
0.0
 11
-755.9235630447929
 21
-1807.785850237035
 31
0.0
  0
ELLIPSE
  5
3870CD
330
18
100
AcDbEntity
  8
姿図
100
AcDbEllipse
 10
-755.8780449782588
 20
-1807.8687699933
 30
0.0
 11
0.08185118790802912
 21
-0.05749819618561251
 31
0.0
210
0.0
220
0.0
230
1.0
 40
0.7884055632363275
 41
2.584640422598043
 42
4.12722732188554
  0
LINE
  5
3870CE
330
18
100
AcDbEntity
  8
姿図
100
AcDbLine
 10
-755.9610441054648
 20
-1807.890806728419
 30
0.0
 11
-755.8875986121228
 21
-1808.032912575075
 31
0.0
  0
ELLIPSE
  5
3870CF
330
18
100
AcDbEntity
  8
姿図
100
AcDbEllipse
 10
-755.9705967768458
 20
-1808.054950845272
 30
0.0
 11
0.0818508830708993
 21
-0.05749683404134492
 31
0.0
210
0.0
220
0.0
230
1.0
 40
0.78841491847593
 41
5.757634761154085
 42
7.268814902420047
  0
LINE
  5
3870D0
330
18
100
AcDbEntity
  8
姿図
100
AcDbLine
 10
-755.9225343982716
 20
-1808.137063526512
 30
0.0
 11
-756.0590342111636
 21
-1808.182936258947
 31
0.0
  0
ELLIPSE
  5
3870D1
330
18
100
AcDbEntity
  8
姿図
100
AcDbEllipse
 10
-756.0109709886956
 20
-1808.265048498562
 30
0.0
 11
0.08185284774614837
 21
-0.05749511408529169
 31
0.0
210
0.0
220
0.0
230
1.0
 40
0.7884120796155948
 41
2.616020612201956
 42
4.15860751148914
  0
LINE
  5
3870D2
330
18
100
AcDbEntity
  8
姿図
100
AcDbLine
 10
-756.0925732244104
 20
-1808.289700319828
 30
0.0
 11
-756.0147312879335
 21
-1808.43055700563
 31
0.0
  0
ELLIPSE
  5
3870D3
330
18
100
AcDbEntity
  8
姿図
100
AcDbEllipse
 10
-756.0963328950314
 20
-1808.455209947617
 30
0.0
 11
0.0818524420508311
 21
-0.0574938729140229
 31
0.0
210
0.0
220
0.0
230
1.0
 40
0.7884216394109326
 41
5.789016564142735
 42
7.300196705409017
  0
LINE
  5
3870D4
330
18
100
AcDbEntity
  8
姿図
100
AcDbLine
 10
-756.0457731004062
 20
-1808.536434544003
 30
0.0
 11
-756.1796400523554
 21
-1808.586668932439
 31
0.0
  0
ELLIPSE
  5
3870D5
330
18
100
AcDbEntity
  8
姿図
100
AcDbEllipse
 10
-756.1290790970224
 20
-1808.667893526653
 30
0.0
 11
0.08185439936386281
 21
-0.05749209624029561
 31
0.0
210
0.0
220
0.0
230
1.0
 40
0.7884194080270638
 41
2.647401981672154
 42
4.189988880959552
  0
LINE
  5
3870D6
330
18
100
AcDbEntity
  8
姿図
100
AcDbLine
 10
-756.2092034324075
 20
-1808.695135250635
 30
0.0
 11
-756.1270434195922
 21
-1808.83460552371
 31
0.0
  0
ELLIPSE
  5
3870D7
330
18
100
AcDbEntity
  8
姿図
100
AcDbEllipse
 10
-756.2071668692113
 20
-1808.861847906398
 30
0.0
 11
0.08185389299532631
 21
-0.0574909799537267
 31
0.0
210
0.0
220
0.0
230
1.0
 40
0.7884291347527165
 41
5.8203995788248
 42
7.331579720091277
  0
LINE
  5
3870D8
330
18
100
AcDbEntity
  8
姿図
100
AcDbLine
 10
-756.1541589897082
 20
-1808.942103576249
 30
0.0
 11
-756.2852613718132
 21
-1808.996652481626
 31
0.0
  0
ELLIPSE
  5
3870D9
330
18
100
AcDbEntity
  8
姿図
100
AcDbEllipse
 10
-756.2322527447963
 20
-1809.076907518164
 30
0.0
 11
0.08185583665800783
 21
-0.05748915454359611
 31
0.0
210
0.0
220
0.0
230
1.0
 40
0.7884275196675045
 41
2.678784667100281
 42
4.221371566386758
  0
LINE
  5
3870DA
330
18
100
AcDbEntity
  8
姿図
100
AcDbLine
 10
-756.3108208012566
 20
-1809.106712703347
 30
0.0
 11
-756.2244217374428
 21
-1809.244658170819
 31
0.0
  0
ELLIPSE
  5
3870DB
330
18
100
AcDbEntity
  8
姿図
100
AcDbEllipse
 10
-756.3029893196349
 20
-1809.274463419043
 30
0.0
 11
0.0818552301960551
 21
-0.05748816656382161
 31
0.0
210
0.0
220
0.0
230
1.0
 40
0.7884373750354694
 41
5.851783934843437
 42
7.362964076109795
  0
LINE
  5
3870DC
330
18
100
AcDbEntity
  8
姿図
100
AcDbLine
 10
-756.2475866990557
 20
-1809.353669904413
 30
0.0
 11
-756.3757934609589
 21
-1809.412479724047
 31
0.0
  0
ELLIPSE
  5
3870DD
330
18
100
AcDbEntity
  8
姿図
100
AcDbEllipse
 10
-756.3203901120831
 20
-1809.491686825667
 30
0.0
 11
0.0818571539738855
 21
-0.0574863005925295
 31
0.0
210
0.0
220
0.0
230
1.0
 40
0.7884363826475945
 41
2.710168799443811
 42
4.252755698731446
  0
LINE
  5
3870DE
330
18
100
AcDbEntity
  8
姿図
100
AcDbLine
 10
-756.3973239151026
 20
-1809.524026636014
 30
0.0
 11
-756.3067727281659
 21
-1809.660308904759
 31
0.0
  0
ELLIPSE
  5
3870DF
330
18
100
AcDbEntity
  8
姿図
100
AcDbEllipse
 10
-756.3837056811117
 20
-1809.692649283857
 30
0.0
 11
0.0818564483907096
 21
-0.05748544383841649
 31
0.0
210
0.0
220
0.0
230
1.0
 40
0.7884463278590867
 41
5.883169756612308
 42
7.394349897878051
  0
LINE
  5
3870E0
330
18
100
AcDbEntity
  8
姿図
100
AcDbLine
 10
-756.325962056584
 20
-1809.770730147732
 30
0.0
 11
-756.4511487333739
 21
-1809.83374119573
 31
0.0
  0
ELLIPSE
  5
3870E1
330
18
100
AcDbEntity
  8
姿図
100
AcDbEllipse
 10
-756.3934042179417
 20
-1809.911822112063
 30
0.0
 11
0.0818583461267792
 21
-0.0574835456433434
 31
0.0
210
0.0
220
0.0
230
1.0
 40
0.7884459621215273
 41
2.741554504025804
 42
4.284141403312101
  0
LINE
  5
3870E2
330
18
100
AcDbEntity
  8
姿図
100
AcDbLine
 10
-756.468627821705
 20
-1809.946662261545
 30
0.0
 11
-756.3740134151539
 21
-1810.081151683332
 31
0.0
  0
ELLIPSE
  5
3870E3
330
18
100
AcDbEntity
  8
姿図
100
AcDbEllipse
 10
-756.4492362963382
 20
-1810.11599280188
 30
0.0
 11
0.08185754278346739
 21
-0.0574828225187858
 31
0.0
210
0.0
220
0.0
230
1.0
 40
0.788455958015223
 41
5.914557162824536
 42
7.425737304090888
  0
LINE
  5
3870E4
330
18
100
AcDbEntity
  8
姿図
100
AcDbLine
 10
-756.3892093296754
 20
-1810.192870279458
 30
0.0
 11
-756.5112507978946
 21
-1810.260020968829
 31
0.0
  0
ELLIPSE
  5
3870E5
330
18
100
AcDbEntity
  8
姿図
100
AcDbEllipse
 10
-756.4512230062651
 20
-1810.336898754546
 30
0.0
 11
0.08185940842275842
 21
-0.05748090056686551
 31
0.0
210
0.0
220
0.0
230
1.0
 40
0.7884562204160377
 41
2.77294190002904
 42
4.315528799315861
  0
LINE
  5
3870E6
330
18
100
AcDbEntity
  8
姿図
100
AcDbLine
 10
-756.5246620567998
 20
-1810.374207074118
 30
0.0
 11
-756.4260772854103
 21
-1810.506767156423
 31
0.0
  0
ELLIPSE
  5
3870E7
330
18
100
AcDbEntity
  8
姿図
100
AcDbEllipse
 10
-756.4995164945083
 20
-1810.544076184171
 30
0.0
 11
0.08185850906377831
 21
-0.05748031295094341
 31
0.0
210
0.0
220
0.0
230
1.0
 40
0.7884662276262754
 41
5.945946265990794
 42
7.457126407257112
  0
LINE
  5
3870E8
330
18
100
AcDbEntity
  8
姿図
100
AcDbLine
 10
-756.4372646395121
 20
-1810.619673991079
 30
0.0
 11
-756.5560410440609
 21
-1810.690899693477
 31
0.0
  0
ELLIPSE
  5
3870E9
330
18
100
AcDbEntity
  8
姿図
100
AcDbEllipse
 10
-756.4937894168899
 20
-1810.766497253792
 30
0.0
 11
0.0818603366766127
 21
-0.05747837580556601
 31
0.0
210
0.0
220
0.0
230
1.0
 40
0.7884671171828784
 41
2.804331100038068
 42
4.346917999324736
  0
LINE
  5
3870EA
330
18
100
AcDbEntity
  8
姿図
100
AcDbLine
 10
-756.5653726197388
 20
-1810.806236780918
 30
0.0
 11
-756.4629142895537
 21
-1810.936737114428
 31
0.0
  0
ELLIPSE
  5
3870EB
330
18
100
AcDbEntity
  8
姿図
100
AcDbEllipse
 10
-756.5344966551379
 20
-1810.976476964112
 30
0.0
 11
0.08185934342321849
 21
-0.05747792504488559
 31
0.0
210
0.0
220
0.0
230
1.0
 40
0.7884770962897769
 41
5.977337171992153
 42
7.488517313258222
  0
LINE
  5
3870EC
330
18
100
AcDbEntity
  8
姿図
100
AcDbLine
 10
-756.4700825465227
 20
-1811.050721171897
 30
0.0
 11
-756.5854766664787
 21
-1811.125949654594
 31
0.0
  0
ELLIPSE
  5
3870ED
330
18
100
AcDbEntity
  8
姿図
100
AcDbEllipse
 10
-756.5210614419075
 20
-1811.200193647948
 30
0.0
 11
0.08186112722836468
 21
-0.05747598133236669
 31
0.0
210
0.0
220
0.0
230
1.0
 40
0.7884786095526671
 41
2.835722209589548
 42
4.378309108876194
  0
LINE
  5
3870EE
330
18
100
AcDbEntity
  8
姿図
100
AcDbLine
 10
-756.5907167051286
 20
-1811.242323666865
 30
0.0
 11
-756.4844875490908
 21
-1811.370636503701
 31
0.0
  0
ELLIPSE
  5
3870EF
330
18
100
AcDbEntity
  8
姿図
100
AcDbEllipse
 10
-756.5541422570303
 20
-1811.412768414342
 30
0.0
 11
0.08186004257046881
 21
-0.05747566823533389
 31
0.0
210
0.0
220
0.0
230
1.0
 40
0.7884885212384642
 41
6.008729979662579
 42
7.519910120928996
  0
LINE
  5
3870F0
330
18
100
AcDbEntity
  8
姿図
100
AcDbLine
 10
-756.4876281478491
 20
-1811.485586387848
 30
0.0
 11
-756.5995267135567
 21
-1811.564742376758
 31
0.0
  0
ELLIPSE
  5
3870F1
330
18
100
AcDbEntity
  8
姿図
100
AcDbEllipse
 10
-756.5330121671221
 20
-1811.637559931034
 30
0.0
 11
0.08186177695785091
 21
-0.05747372661113561
 31
0.0
210
0.0
220
0.0
230
1.0
 40
0.7884906523017898
 41
2.867115326755706
 42
4.409702226042824
  0
LINE
  5
3870F2
330
18
100
AcDbEntity
  8
姿図
100
AcDbLine
 10
-756.6006712639114
 20
-1811.682041537553
 30
0.0
 11
-756.4907753320526
 21
-1811.808039129343
 31
0.0
  0
ELLIPSE
  5
3870F3
330
18
100
AcDbEntity
  8
姿図
100
AcDbEllipse
 10
-756.5584339123498
 20
-1811.852519967871
 30
0.0
 11
0.0818606037442464
 21
-0.0574735514443745
 31
0.0
210
0.0
220
0.0
230
1.0
 40
0.7885004575057283
 41
6.040124780399025
 42
7.55130492166509
  0
LINE
  5
3870F4
330
18
100
AcDbEntity
  8
姿図
100
AcDbLine
 10
-756.4898862969665
 20
-1811.92383964209
 30
0.0
 11
-756.5981780144037
 21
-1812.006845201445
 31
0.0
  0
ELLIPSE
  5
3870F5
330
18
100
AcDbEntity
  8
姿図
100
AcDbEllipse
 10
-756.5296297986106
 20
-1812.07816447533
 30
0.0
 11
0.08186228329677191
 21
-0.0574716205590705
 31
0.0
210
0.0
220
0.0
230
1.0
 40
0.7885031980309714
 41
2.898510541756186
 42
4.441097441043615
  0
LINE
  5
3870F6
330
18
100
AcDbEntity
  8
姿図
100
AcDbLine
 10
-756.5952264179194
 20
-1812.124952031422
 30
0.0
 11
-756.4817717115393
 21
-1812.248509671396
 31
0.0
  0
ELLIPSE
  5
3870F7
330
18
100
AcDbEntity
  8
姿図
100
AcDbEllipse
 10
-756.5473673857495
 20
-1812.295297643007
 30
0.0
 11
0.0818610247241623
 21
-0.0574715830459809
 31
0.0
210
0.0
220
0.0
230
1.0
 40
0.7885128581014902
 41
6.071521657796919
 42
7.58270179906283
  0
LINE
  5
3870F8
330
18
100
AcDbEntity
  8
姿図
100
AcDbLine
 10
-756.4768537011541
 20
-1812.365047135095
 30
0.0
 11
-756.5814318861101
 21
-1812.451823188868
 31
0.0
  0
ELLIPSE
  5
3870F9
330
18
100
AcDbEntity
  8
姿図
100
AcDbEllipse
 10
-756.5109176743626
 20
-1812.52157245735
 30
0.0
 11
0.08186264423895299
 21
-0.0574696715112495
 31
0.0
210
0.0
220
0.0
230
1.0
 40
0.788516197348254
 41
2.929907936598598
 42
4.472494835886186
  0
LINE
  5
3870FA
330
18
100
AcDbEntity
  8
姿図
100
AcDbLine
 10
-756.5743861184196
 20
-1812.570618687511
 30
0.0
 11
-756.4574859071743
 21
-1812.691617752109
 31
0.0
  0
ELLIPSE
  5
3870FB
330
18
100
AcDbEntity
  8
姿図
100
AcDbEllipse
 10
-756.5209535985559
 20
-1812.740664471644
 30
0.0
 11
0.0818613038397587
 21
-0.05746977083266101
 31
0.0
210
0.0
220
0.0
230
1.0
 40
0.788525674196023
 41
6.102920687317604
 42
7.614100828583366
  0
LINE
  5
3870FC
330
18
100
AcDbEntity
  8
姿図
100
AcDbLine
 10
-756.4485435313
 20
-1812.80877544751
 30
0.0
 11
-756.5493047922887
 21
-1812.899234935118
 31
0.0
  0
ELLIPSE
  5
3870FD
330
18
100
AcDbEntity
  8
姿図
100
AcDbEllipse
 10
-756.4768942609852
 20
-1812.967346286944
 30
0.0
 11
0.08186285834850079
 21
-0.0574678871873928
 31
0.0
210
0.0
220
0.0
230
1.0
 40
0.7885295990638375
 41
2.961307584751074
 42
4.503894484037386
  0
LINE
  5
3870FE
330
18
100
AcDbEntity
  8
姿図
100
AcDbLine
 10
-756.5381727559256
 20
-1813.01860428427
 30
0.0
 11
-756.4179409680146
 21
-1813.136921967078
 31
0.0
  0
ELLIPSE
  5
3870FF
330
18
100
AcDbEntity
  8
姿図
100
AcDbEllipse
 10
-756.4792186179873
 20
-1813.18818093049
 30
0.0
 11
0.08186143997707521
 21
-0.0574681219843143
 31
0.0
210
0.0
220
0.0
230
1.0
 40
0.7885388553101367
 41
6.134321935984468
 42
7.645502077250967
  0
LINE
  5
387100
330
18
100
AcDbEntity
  8
姿図
100
AcDbLine
 10
-756.4049834462752
 20
-1813.254588117629
 30
0.0
 11
-756.5018283430745
 21
-1813.348640936888
 31
0.0
  0
ELLIPSE
  5
387101
330
18
100
AcDbEntity
  8
姿図
100
AcDbEllipse
 10
-756.4275931354805
 20
-1813.415046039165
 30
0.0
 11
0.0818629247656588
 21
-0.0574662746608894
 31
0.0
210
0.0
220
0.0
230
1.0
 40
0.788543350387032
 41
2.992709550842653
 42
4.535296450129708
  0
LINE
  5
387102
330
18
100
AcDbEntity
  8
姿図
100
AcDbLine
 10
-756.4866205747522
 20
-1813.468465516203
 30
0.0
 11
-756.3631764067302
 21
-1813.583985854601
 31
0.0
  0
ELLIPSE
  5
387103
330
18
100
AcDbEntity
  8
姿図
100
AcDbEllipse
 10
-756.4222036314313
 20
-1813.63740537483
 30
0.0
 11
0.08186143258342329
 21
-0.0574666430394899
 31
0.0
210
0.0
220
0.0
230
1.0
 40
0.7885523495137177
 41
6.165725462115997
 42
7.676905603381878
  0
LINE
  5
387104
330
18
100
AcDbEntity
  8
姿図
100
AcDbLine
 10
-756.3462169100167
 20
-1813.702040318782
 30
0.0
 11
-756.4390506122176
 21
-1813.799594466413
 31
0.0
  0
ELLIPSE
  5
387105
330
18
100
AcDbEntity
  8
姿図
100
AcDbEllipse
 10
-756.3630629521062
 20
-1813.864229888408
 30
0.0
 11
0.0818628432102458
 21
-0.05746484033047501
 31
0.0
210
0.0
220
0.0
230
1.0
 40
0.7885573971372836
 41
3.024113890410453
 42
4.566700789697976
  0
ELLIPSE
  5
387106
330
18
100
AcDbEntity
  8
姿図
100
AcDbEllipse
 10
-729.3235528812432
 20
-1807.826046940824
 30
0.0
 11
0.3405013196908158
 21
-0.0637301529881924
 31
0.0
210
0.0
220
0.0
230
1.0
 40
0.4108083960004226
 41
4.527310612243573
 42
5.836258416253038
  0
LINE
  5
387107
330
18
100
AcDbEntity
  8
姿図
100
AcDbLine
 10
-724.4571625615681
 20
-1812.324782460548
 30
0.0
 11
-724.4571625615681
 21
-1809.457320245943
 31
0.0
  0
LINE
  5
387108
330
18
100
AcDbEntity
  8
姿図
100
AcDbLine
 10
-724.4571625615681
 20
-1808.160073976502
 30
0.0
 11
-724.4571625615681
 21
-1802.015034951917
 31
0.0
  0
ELLIPSE
  5
387109
330
18
100
AcDbEntity
  8
姿図
100
AcDbEllipse
 10
-739.7125810253299
 20
-1798.459591493923
 30
0.0
 11
14.75166904109091
 21
-13.49107910436089
 31
0.0
210
0.0
220
0.0
230
1.0
 40
0.6978529577390412
 41
0.5680484008803879
 42
0.8399181223160798
  0
LINE
  5
38710A
330
18
100
AcDbEntity
  8
姿図
100
AcDbLine
 10
-745.3604633679068
 20
-1800.631752846773
 30
0.0
 11
-745.2751782321285
 21
-1800.51747224777
 31
0.0
  0
LWPOLYLINE
  5
38710B
330
18
100
AcDbEntity
  8
姿図
100
AcDbPolyline
 90
       14
 70
   128
 43
0.0
 10
-742.2119498921681
 20
-1817.351260378115
 10
-741.5184603784137
 20
-1817.787260558545
 10
-740.5377809218172
 20
-1818.322674153394
 10
-739.5276263301324
 20
-1818.783497318645
 10
-738.496129628033
 20
-1819.166017577534
 10
-737.4515950617642
 20
-1819.467156608163
 10
-736.4024348788716
 20
-1819.684489255442
 10
-735.3570935955807
 20
-1819.81626596456
 10
-734.3239900448816
 20
-1819.861424949626
 10
-733.3114403268214
 20
-1819.819603981894
 10
-732.3275978809529
 20
-1819.691139251481
 10
-731.3803833513466
 20
-1819.477064419164
 10
-730.4774234242662
 20
-1819.179103442412
 10
-730.0048471108901
 20
-1818.981456478206
  0
ARC
  5
38710C
330
18
100
AcDbEntity
  8
姿図
100
AcDbCircle
 10
-740.3713529463607
 20
-1806.582202708696
 30
0.0
 40
8.205373524345243
100
AcDbArc
 50
133.5235955310702
 51
183.6345392062979
  0
ARC
  5
38710D
330
18
100
AcDbEntity
  8
姿図
100
AcDbCircle
 10
-734.7647671288441
 20
-1807.246385159482
 30
0.0
 40
10.8806491062835
100
AcDbArc
 50
247.3166711975123
 51
278.3942997678169
  0
ARC
  5
38710E
330
18
100
AcDbEntity
  8
姿図
100
AcDbCircle
 10
-739.9662896631871
 20
-1806.877430896035
 30
0.0
 40
6.714570187266438
100
AcDbArc
 50
113.2365036294867
 51
168.1821197612592
  0
ARC
  5
38710F
330
18
100
AcDbEntity
  8
姿図
100
AcDbCircle
 10
-734.5286045512601
 20
-1806.876571556722
 30
0.0
 40
11.00203129755468
100
AcDbArc
 50
251.8161212539477
 51
273.4431761479886
  0
ARC
  5
387110
330
18
100
AcDbEntity
  8
姿図
100
AcDbCircle
 10
-739.7254335582898
 20
-1806.642566226492
 30
0.0
 40
6.781126582219295
100
AcDbArc
 50
146.4586928123341
 51
169.6405237885166
  0
ELLIPSE
  5
387111
330
18
100
AcDbEntity
  8
姿図
100
AcDbEllipse
 10
-748.4780597495528
 20
-1806.885877051944
 30
0.0
 11
0.08185930368227901
 21
-0.0574602438633036
 31
0.0
210
0.0
220
0.0
230
1.0
 40
0.7886447265383199
 41
3.212591685356473
 42
3.959073564953883
  0
LINE
  5
387112
330
18
100
AcDbEntity
  8
姿図
100
AcDbLine
 10
-748.6721633495434
 20
-1806.51492307641
 30
0.0
 11
-748.5689921449278
 21
-1806.585967636519
 31
0.0
  0
ELLIPSE
  5
387113
330
18
100
AcDbEntity
  8
姿図
100
AcDbEllipse
 10
-748.6277820165724
 20
-1806.449715051805
 30
0.0
 11
0.0818602466025027
 21
-0.0574605153271506
 31
0.0
210
0.0
220
0.0
230
1.0
 40
0.7886300956673366
 41
3.181172471958941
 42
4.723759371245537
  0
LINE
  5
387114
330
18
100
AcDbEntity
  8
姿図
100
AcDbLine
 10
-748.6441185731263
 20
-1806.288024532923
 30
0.0
 11
-748.7113709492787
 21
-1806.394854444654
 31
0.0
  0
ELLIPSE
  5
387115
330
18
100
AcDbEntity
  8
姿図
100
AcDbEllipse
 10
-748.7277070528652
 20
-1806.233162014687
 30
0.0
 11
0.08185926270437001
 21
-0.05746197772861451
 31
0.0
210
0.0
220
0.0
230
1.0
 40
0.7886226237802207
 41
0.0395933523839307
 42
1.550773493650024
  0
LINE
  5
387116
330
18
100
AcDbEntity
  8
姿図
100
AcDbLine
 10
-748.8102368368553
 20
-1806.075795264538
 30
0.0
 11
-748.6807616359118
 21
-1806.169768080533
 31
0.0
  0
ELLIPSE
  5
387117
330
18
100
AcDbEntity
  8
姿図
100
AcDbEllipse
 10
-748.7632905554065
 20
-1806.012403962625
 30
0.0
 11
0.08186105196307381
 21
-0.05746098796171851
 31
0.0
210
0.0
220
0.0
230
1.0
 40
0.7886154180963652
 41
3.149755764134836
 42
4.692342663422108
  0
LINE
  5
387118
330
18
100
AcDbEntity
  8
姿図
100
AcDbLine
 10
-748.7740990423434
 20
-1805.851451606068
 30
0.0
 11
-748.8455190997328
 21
-1805.955470755674
 31
0.0
  0
ELLIPSE
  5
387119
330
18
100
AcDbEntity
  8
姿図
100
AcDbEllipse
 10
-748.8563271766978
 20
-1805.794519138552
 30
0.0
 11
0.08185997635735021
 21
-0.0574625332187679
 31
0.0
210
0.0
220
0.0
230
1.0
 40
0.7886083793631973
 41
0.0081778834739716
 42
1.51935802473995
  0
LINE
  5
38711A
330
18
100
AcDbEntity
  8
姿図
100
AcDbLine
 10
-748.9339170107646
 20
-1805.635890168972
 30
0.0
 11
-748.8068629487046
 21
-1805.733003860362
 31
0.0
  0
ELLIPSE
  5
38711B
330
18
100
AcDbEntity
  8
姿図
100
AcDbEllipse
 10
-748.8844516354864
 20
-1805.574375357653
 30
0.0
 11
0.0818617166153786
 21
-0.0574616598597473
 31
0.0
210
0.0
220
0.0
230
1.0
 40
0.7886007517558511
 41
3.118341564385988
 42
4.660928463672767
  0
ELLIPSE
  5
38711C
330
18
100
AcDbEntity
  8
姿図
100
AcDbEllipse
 10
-748.9705080258636
 20
-1805.355373772639
 30
0.0
 11
0.0818605521410519
 21
-0.0574632808568865
 31
0.0
210
0.0
220
0.0
230
1.0
 40
0.7885941739021657
 41
6.259950153156347
 42
7.771130294422639
  0
LINE
  5
38711D
330
18
100
AcDbEntity
  8
姿図
100
AcDbLine
 10
-749.0430808880845
 20
-1805.195639216885
 30
0.0
 11
-748.9185740761811
 21
-1805.295795879604
 31
0.0
  0
ELLIPSE
  5
38711E
330
18
100
AcDbEntity
  8
姿図
100
AcDbEllipse
 10
-748.9911456854556
 20
-1805.136061518238
 30
0.0
 11
0.0818622379654244
 21
-0.0574625283271857
 31
0.0
210
0.0
220
0.0
230
1.0
 40
0.7885861545149339
 41
3.438144464441153
 42
4.629516764601976
  0
ELLIPSE
  5
38711F
330
18
100
AcDbEntity
  8
姿図
100
AcDbEllipse
 10
-749.0701369176503
 20
-1804.916159300409
 30
0.0
 11
0.08186098780981869
 21
-0.0574642176524733
 31
0.0
210
0.0
220
0.0
230
1.0
 40
0.7885800634397603
 41
6.228539535127231
 42
7.739719676393419
  0
LINE
  5
387120
330
18
100
AcDbEntity
  8
姿図
100
AcDbLine
 10
-749.1376212083783
 20
-1804.755474642818
 30
0.0
 11
-749.0157836831613
 21
-1804.858576444575
 31
0.0
  0
ELLIPSE
  5
387121
330
18
100
AcDbEntity
  8
姿図
100
AcDbEllipse
 10
-749.0832674111668
 20
-1804.69789500722
 30
0.0
 11
0.0818626139831054
 21
-0.05746358989436121
 31
0.0
210
0.0
220
0.0
230
1.0
 40
0.7885716839545204
 41
3.575018550171705
 42
4.598107548955428
  0
ELLIPSE
  5
387122
330
18
100
AcDbEntity
  8
姿図
100
AcDbEllipse
 10
-749.1551155303705
 20
-1804.477309173515
 30
0.0
 11
0.0818612816694895
 21
-0.0574653398690473
 31
0.0
210
0.0
220
0.0
230
1.0
 40
0.7885661036288651
 41
6.19713131508675
 42
7.708311456352527
  0
LINE
  5
387123
330
18
100
AcDbEntity
  8
姿図
100
AcDbLine
 10
-749.2174442525306
 20
-1804.315834550674
 30
0.0
 11
-749.0983977418359
 21
-1804.421782316704
 31
0.0
  0
ELLIPSE
  5
387124
330
18
100
AcDbEntity
  8
姿図
100
AcDbEllipse
 10
-749.1607258995996
 20
-1804.260308242046
 30
0.0
 11
0.08186284321018891
 21
-0.05746484033047491
 31
0.0
210
0.0
220
0.0
230
1.0
 40
0.7885573971374287
 41
3.684427809766383
 42
4.566700789698009
  0
ELLIPSE
  5
387125
330
18
100
AcDbEntity
  8
姿図
100
AcDbEllipse
 10
-749.2253600003924
 20
-1804.039256484051
 30
0.0
 11
0.0818614325834517
 21
-0.0574666430394899
 31
0.0
210
0.0
220
0.0
230
1.0
 40
0.7885523495135927
 41
6.165725462115704
 42
7.676905603381911
  0
LINE
  5
387126
330
18
100
AcDbEntity
  8
姿図
100
AcDbLine
 10
-749.2824725952576
 20
-1803.87715143834
 30
0.0
 11
-749.1663327842616
 21
-1803.985835795137
 31
0.0
  0
ELLIPSE
  5
387127
330
18
100
AcDbEntity
  8
姿図
100
AcDbEllipse
 10
-749.223444708577
 20
-1803.823733068021
 30
0.0
 11
0.0818629247657157
 21
-0.05746627466088941
 31
0.0
210
0.0
220
0.0
230
1.0
 40
0.7885433503866655
 41
3.780346371724156
 42
4.535296450129419
  0
ELLIPSE
  5
387128
330
18
100
AcDbEntity
  8
姿図
100
AcDbEllipse
 10
-749.2808010049047
 20
-1803.602433537135
 30
0.0
 11
0.08186143997707521
 21
-0.0574681219843143
 31
0.0
210
0.0
220
0.0
230
1.0
 40
0.7885388553104633
 41
6.13432193598453
 42
7.645502077250995
  0
LINE
  5
387129
330
18
100
AcDbEntity
  8
姿図
100
AcDbLine
 10
-749.3326404592822
 20
-1803.439858682847
 30
0.0
 11
-749.2195229894292
 21
-1803.551175605512
 31
0.0
  0
ELLIPSE
  5
38712A
330
18
100
AcDbEntity
  8
姿図
100
AcDbEllipse
 10
-749.271361942207
 20
-1803.388600332137
 30
0.0
 11
0.08186285834855769
 21
-0.0574678871873857
 31
0.0
210
0.0
220
0.0
230
1.0
 40
0.788529599063503
 41
3.868156746534498
 42
4.503894484037456
  0
ELLIPSE
  5
38712B
330
18
100
AcDbEntity
  8
姿図
100
AcDbEllipse
 10
-749.3213838303303
 20
-1803.167271424277
 30
0.0
 11
0.0818613038397587
 21
-0.05746977083266101
 31
0.0
210
0.0
220
0.0
230
1.0
 40
0.7885256741958601
 41
6.102920687316945
 42
7.614100828583476
  0
LINE
  5
38712C
330
18
100
AcDbEntity
  8
姿図
100
AcDbLine
 10
-749.367898664706
 20
-1803.004386921827
 30
0.0
 11
-749.2579157226542
 21
-1803.118223734129
 31
0.0
  0
ELLIPSE
  5
38712D
330
18
100
AcDbEntity
  8
姿図
100
AcDbEllipse
 10
-749.304430311965
 20
-1802.955339457867
 30
0.0
 11
0.0818626442389246
 21
-0.0574696715112566
 31
0.0
210
0.0
220
0.0
230
1.0
 40
0.7885161973485683
 41
3.950609089541029
 42
4.472494835886092
  0
ELLIPSE
  5
38712E
330
18
100
AcDbEntity
  8
姿図
100
AcDbEllipse
 10
-749.3470684263193
 20
-1802.734199597945
 30
0.0
 11
0.0818610247241338
 21
-0.0574715830459951
 31
0.0
210
0.0
220
0.0
230
1.0
 40
0.7885128581016678
 41
6.071521657796998
 42
7.58270179906334
  0
LINE
  5
38712F
330
18
100
AcDbEntity
  8
姿図
100
AcDbLine
 10
-749.3882136103242
 20
-1802.571166162762
 30
0.0
 11
-749.2814724359313
 21
-1802.687413045186
 31
0.0
  0
ELLIPSE
  5
387130
330
18
100
AcDbEntity
  8
姿図
100
AcDbEllipse
 10
-749.3226171833621
 20
-1802.524378021387
 30
0.0
 11
0.0818622832967435
 21
-0.0574716205590704
 31
0.0
210
0.0
220
0.0
230
1.0
 40
0.7885031980312599
 41
4.029339144052338
 42
4.441097441043434
  0
ELLIPSE
  5
387131
330
18
100
AcDbEntity
  8
姿図
100
AcDbEllipse
 10
-749.3578294452761
 20
-1802.303645447745
 30
0.0
 11
0.0818606037441896
 21
-0.0574735514443816
 31
0.0
210
0.0
220
0.0
230
1.0
 40
0.7885004575061682
 41
6.256389047984685
 42
7.55130492166535
  0
LINE
  5
387132
330
18
100
AcDbEntity
  8
姿図
100
AcDbLine
 10
-749.3935635435892
 20
-1802.140623374252
 30
0.0
 11
-749.2901710680188
 21
-1802.259163841445
 31
0.0
  0
ELLIPSE
  5
387133
330
18
100
AcDbEntity
  8
姿図
100
AcDbEllipse
 10
-749.3259046081528
 20
-1802.096141329604
 30
0.0
 11
0.08186177695790781
 21
-0.0574737266111356
 31
0.0
210
0.0
220
0.0
230
1.0
 40
0.7884906523015867
 41
4.105422128528653
 42
4.409702226042466
  0
ELLIPSE
  5
387134
330
18
100
AcDbEntity
  8
姿図
100
AcDbEllipse
 10
-749.3536562673751
 20
-1801.876033878643
 30
0.0
 11
0.0818600425704972
 21
-0.05747566823533391
 31
0.0
210
0.0
220
0.0
230
1.0
 40
0.7884885212384444
 41
6.255929396983283
 42
7.519910120928682
  0
LINE
  5
387135
330
18
100
AcDbEntity
  8
姿図
100
AcDbLine
 10
-749.3839445132334
 20
-1801.713182850839
 30
0.0
 11
-749.2840013291597
 21
-1801.833902556893
 31
0.0
  0
ELLIPSE
  5
387136
330
18
100
AcDbEntity
  8
姿図
100
AcDbEllipse
 10
-749.3345530110391
 20
-1801.451786891631
 30
0.0
 11
0.08185934342319
 21
-0.05747792504489269
 31
0.0
210
0.0
220
0.0
230
1.0
 40
0.7884770962901495
 41
6.255496630110028
 42
7.488517313258732
  0
LINE
  5
387137
330
18
100
AcDbEntity
  8
姿図
100
AcDbLine
 10
-749.2811084254546
 20
-1801.388944966542
 30
0.0
 11
-749.2629711218877
 21
-1801.41204664203
 31
0.0
  0
LINE
  5
387138
330
18
100
AcDbEntity
  8
姿図
100
AcDbLine
 10
-733.6596645862536
 20
-1786.38262106844
 30
0.0
 11
-735.8934201454157
 21
-1789.305721402724
 31
0.0
  0
SPLINE
  5
387139
330
18
100
AcDbEntity
  8
姿図
100
AcDbSpline
210
0.0
220
0.0
230
1.0
 70
     8
 71
     3
 72
    12
 73
     8
 74
     0
 42
0.000000001
 43
0.0000000001
 40
0.0
 40
0.0
 40
0.0
 40
0.0
 40
0.2172132585024762
 40
0.4344276359233688
 40
0.651590120847623
 40
0.8687208757994961
 40
1.0
 40
1.0
 40
1.0
 40
1.0
 10
-733.0196362095656
 20
-1786.19514656654
 30
0.0
 10
-733.0740132505846
 20
-1786.191423913512
 30
0.0
 10
-733.1827676127322
 20
-1786.183978588279
 30
0.0
 10
-733.3529396821331
 20
-1786.210509307337
 30
0.0
 10
-733.5032781810705
 20
-1786.261374477069
 30
0.0
 10
-733.6067160708835
 20
-1786.323176556128
 30
0.0
 10
-733.6451738752367
 20
-1786.366352562261
 30
0.0
 10
-733.6596645862536
 20
-1786.38262106844
 30
0.0
  0
ARC
  5
38713A
330
18
100
AcDbEntity
  8
姿図
100
AcDbCircle
 10
-735.6222597766127
 20
-1806.423448379191
 30
0.0
 40
20.39504458576794
100
AcDbArc
 50
67.33312859721518
 51
82.66846112213567
  0
SPLINE
  5
38713B
330
18
100
AcDbEntity
  8
姿図
100
AcDbSpline
210
0.0
220
0.0
230
1.0
 70
     8
 71
     3
 72
    12
 73
     8
 74
     0
 42
0.000000001
 43
0.0000000001
 40
0.0
 40
0.0
 40
0.0
 40
0.0
 40
0.217114953523993
 40
0.4342262440419191
 40
0.6513471783972093
 40
0.8684836780523845
 40
1.0
 40
1.0
 40
1.0
 40
1.0
 10
-727.4802843885394
 20
-1788.038290973714
 30
0.0
 10
-727.4665682996077
 20
-1788.008209733508
 30
0.0
 10
-727.4391363531521
 20
-1787.948047760605
 30
0.0
 10
-727.4677339962477
 20
-1787.840161087424
 30
0.0
 10
-727.5458493330908
 20
-1787.735376020741
 30
0.0
 10
-727.6523743457561
 20
-1787.654290284445
 30
0.0
 10
-727.7323872627447
 20
-1787.617553032713
 30
0.0
 10
-727.7625691626145
 20
-1787.603695269554
 30
0.0
  0
LINE
  5
38713C
330
18
100
AcDbEntity
  8
姿図
100
AcDbLine
 10
-727.4802843885394
 20
-1788.038290973714
 30
0.0
 11
-729.484470056289
 21
-1791.022901352189
 31
0.0
  0
LINE
  5
38713D
330
18
100
AcDbEntity
  8
姿図
100
AcDbLine
 10
-756.4629142895537
 20
-1810.936737114428
 30
0.0
 11
-749.2629711218877
 21
-1801.41204664203
 31
0.0
  0
LINE
  5
38713E
330
18
100
AcDbEntity
  8
姿図
100
AcDbLine
 10
-749.3839445132334
 20
-1801.713182850839
 30
0.0
 11
-756.5907167051286
 21
-1811.242323666865
 31
0.0
  0
LINE
  5
38713F
330
18
100
AcDbEntity
  8
姿図
100
AcDbLine
 10
-756.4844875490908
 20
-1811.370636503701
 30
0.0
 11
-749.2840013291597
 21
-1801.833902556893
 31
0.0
  0
LINE
  5
387140
330
18
100
AcDbEntity
  8
姿図
100
AcDbLine
 10
-749.3935635435892
 20
-1802.140623374252
 30
0.0
 11
-756.6006712639114
 21
-1811.682041537553
 31
0.0
  0
LINE
  5
387141
330
18
100
AcDbEntity
  8
姿図
100
AcDbLine
 10
-756.4907753320526
 20
-1811.808039129343
 30
0.0
 11
-749.2901710680188
 21
-1802.259163841445
 31
0.0
  0
LINE
  5
387142
330
18
100
AcDbEntity
  8
姿図
100
AcDbLine
 10
-721.3405730186705
 20
-1792.057805283265
 30
0.0
 11
-723.4815980201655
 21
-1794.95283212663
 31
0.0
  0
SPLINE
  5
387143
330
18
100
AcDbEntity
  8
姿図
100
AcDbSpline
210
0.0
220
0.0
230
1.0
 70
     8
 71
     3
 72
    12
 73
     8
 74
     0
 42
0.000000001
 43
0.0000000001
 40
0.0
 40
0.0
 40
0.0
 40
0.0
 40
0.2172114258547053
 40
0.4344276299550874
 40
0.6515902440726146
 40
0.8687235208244096
 40
1.0
 40
1.0
 40
1.0
 40
1.0
 10
-720.8095655328265
 20
-1792.155652115021
 30
0.0
 10
-720.8518461470247
 20
-1792.119764540197
 30
0.0
 10
-720.9364083055156
 20
-1792.047988601089
 30
0.0
 10
-721.0747139465828
 20
-1791.988604769916
 30
0.0
 10
-721.2007849870238
 20
-1791.974728898247
 30
0.0
 10
-721.291013460015
 20
-1792.003304328042
 30
0.0
 10
-721.3270099770539
 20
-1792.042889921952
 30
0.0
 10
-721.3405730186705
 20
-1792.057805283265
 30
0.0
  0
ARC
  5
387144
330
18
100
AcDbEntity
  8
姿図
100
AcDbCircle
 10
-735.4097972141118
 20
-1807.426508761393
 30
0.0
 40
21.12737153223767
100
AcDbArc
 50
31.30826132422374
 51
46.28611070471944
  0
SPLINE
  5
387145
330
18
100
AcDbEntity
  8
姿図
100
AcDbSpline
210
0.0
220
0.0
230
1.0
 70
     8
 71
     3
 72
    12
 73
     8
 74
     0
 42
0.000000001
 43
0.0000000001
 40
0.0
 40
0.0
 40
0.0
 40
0.0
 40
0.2171132402223107
 40
0.4342250733687325
 40
0.651347539724053
 40
0.8684849454068782
 40
1.0
 40
1.0
 40
1.0
 40
1.0
 10
-717.2845269297432
 20
-1797.103015034609
 30
0.0
 10
-717.2685416891453
 20
-1797.069668589428
 30
0.0
 10
-717.2365713115476
 20
-1797.002975915177
 30
0.0
 10
-717.2282535855466
 20
-1796.855867571767
 30
0.0
 10
-717.2522669366526
 20
-1796.694680457139
 30
0.0
 10
-717.3004916070958
 20
-1796.552837514045
 30
0.0
 10
-717.3429101626825
 20
-1796.476592859369
 30
0.0
 10
-717.3589108490086
 20
-1796.447832643784
 30
0.0
  0
LINE
  5
387146
330
18
100
AcDbEntity
  8
姿図
100
AcDbLine
 10
-717.2845269297432
 20
-1797.103015034609
 30
0.0
 11
-719.2748664110986
 21
-1800.185474238466
 31
0.0
  0
LINE
  5
387147
330
18
100
AcDbEntity
  8
姿図
100
AcDbLine
 10
-749.3882136103242
 20
-1802.571166162762
 30
0.0
 11
-756.5952264179194
 21
-1812.124952031422
 31
0.0
  0
LINE
  5
387148
330
18
100
AcDbEntity
  8
姿図
100
AcDbLine
 10
-723.5862446937508
 20
-1794.868257744841
 30
0.0
 11
-721.8017550303337
 21
-1792.494111397518
 31
0.0
  0
LINE
  5
387149
330
18
100
AcDbEntity
  8
姿図
100
AcDbLine
 10
-721.3405730186705
 20
-1792.057805283265
 30
0.0
 11
-721.8017550303337
 21
-1792.494111397518
 31
0.0
  0
LINE
  5
38714A
330
18
100
AcDbEntity
  8
姿図
100
AcDbLine
 10
-756.4817717115393
 20
-1812.248509671396
 30
0.0
 11
-749.2814724359313
 21
-1802.687413045186
 31
0.0
  0
LINE
  5
38714B
330
18
100
AcDbEntity
  8
姿図
100
AcDbLine
 10
-727.6750141885527
 20
-1788.649036837385
 30
0.0
 11
-727.4802843885394
 21
-1788.038290973714
 31
0.0
  0
LINE
  5
38714C
330
18
100
AcDbEntity
  8
姿図
100
AcDbLine
 10
-727.6750141885527
 20
-1788.649036837385
 30
0.0
 11
-729.2898115025599
 21
-1791.119927023574
 31
0.0
  0
LINE
  5
38714D
330
18
100
AcDbEntity
  8
姿図
100
AcDbLine
 10
-749.367898664706
 20
-1803.004386921827
 30
0.0
 11
-756.5743861184196
 21
-1812.570618687511
 31
0.0
  0
LINE
  5
38714E
330
18
100
AcDbEntity
  8
姿図
100
AcDbLine
 10
-756.4574859071743
 20
-1812.691617752109
 30
0.0
 11
-749.2579157226542
 21
-1803.118223734129
 31
0.0
  0
LINE
  5
38714F
330
18
100
AcDbEntity
  8
姿図
100
AcDbLine
 10
-749.3326404592822
 20
-1803.439858682847
 30
0.0
 11
-756.5381727559256
 21
-1813.01860428427
 31
0.0
  0
LINE
  5
387150
330
18
100
AcDbEntity
  8
姿図
100
AcDbLine
 10
-756.4179409680146
 20
-1813.136921967078
 30
0.0
 11
-749.2195229894292
 21
-1803.551175605512
 31
0.0
  0
LINE
  5
387151
330
18
100
AcDbEntity
  8
姿図
100
AcDbLine
 10
-749.2824725952576
 20
-1803.87715143834
 30
0.0
 11
-756.4866205747522
 21
-1813.468465516203
 31
0.0
  0
LINE
  5
387152
330
18
100
AcDbEntity
  8
姿図
100
AcDbLine
 10
-756.3631764067302
 20
-1813.583985854601
 30
0.0
 11
-749.1663327842616
 21
-1803.985835795137
 31
0.0
  0
LINE
  5
387153
330
18
100
AcDbEntity
  8
姿図
100
AcDbLine
 10
-749.2174442525306
 20
-1804.315834550674
 30
0.0
 11
-756.4197815999141
 21
-1813.919757176222
 31
0.0
  0
LINE
  5
387154
330
18
100
AcDbEntity
  8
姿図
100
AcDbLine
 10
-748.8897222534702
 20
-1805.414322380995
 30
0.0
 11
-752.3867872029435
 21
-1810.10108863594
 31
0.0
  0
LINE
  5
387155
330
18
100
AcDbEntity
  8
姿図
100
AcDbLine
 10
-717.3717860526839
 20
-1805.325895107865
 30
0.0
 11
-715.8593608818501
 21
-1803.346212266356
 31
0.0
  0
LINE
  5
387156
330
18
100
AcDbEntity
  8
姿図
100
AcDbLine
 10
-715.1174018337633
 20
-1803.416151688106
 30
0.0
 11
-715.8593608818501
 21
-1803.346212266356
 31
0.0
  0
LINE
  5
387157
330
18
100
AcDbEntity
  8
姿図
100
AcDbLine
 10
-715.1174018337633
 20
-1803.416151688106
 30
0.0
 11
-717.1560429206017
 21
-1806.357906157304
 31
0.0
  0
SPLINE
  5
387158
330
18
100
AcDbEntity
  8
姿図
100
AcDbSpline
210
0.0
220
0.0
230
1.0
 70
     8
 71
     3
 72
    12
 73
     8
 74
     0
 42
0.000000001
 43
0.0000000001
 40
0.0
 40
0.0
 40
0.0
 40
0.0
 40
0.2172128718408258
 40
0.4344264581024284
 40
0.6515920271817898
 40
0.8687225354217233
 40
1.0
 40
1.0
 40
1.0
 40
1.0
 10
-714.9047196165546
 20
-1803.597232584249
 30
0.0
 10
-714.9112826806822
 20
-1803.551830440109
 30
0.0
 10
-714.9244088305237
 20
-1803.461026002499
 30
0.0
 10
-714.9676957127158
 20
-1803.375934493038
 30
0.0
 10
-715.0219461284267
 20
-1803.342862749276
 30
0.0
 10
-715.0746591534707
 20
-1803.362082308614
 30
0.0
 10
-715.1057042706092
 20
-1803.401354301115
 30
0.0
 10
-715.1174018337633
 20
-1803.416151688106
 30
0.0
  0
ARC
  5
387159
330
18
100
AcDbEntity
  8
姿図
100
AcDbCircle
 10
-727.8350577397287
 20
-1804.897202915274
 30
0.0
 40
12.99552102999915
100
AcDbArc
 50
345.0089134005723
 51
5.74102368956932
  0
SPLINE
  5
38715A
330
18
100
AcDbEntity
  8
姿図
100
AcDbSpline
210
0.0
220
0.0
230
1.0
 70
     8
 71
     3
 72
    12
 73
     8
 74
     0
 42
0.000000001
 43
0.0000000001
 40
0.0
 40
0.0
 40
0.0
 40
0.0
 40
0.2171137494273419
 40
0.4342257097746268
 40
0.6513456632883763
 40
0.8684836425925903
 40
1.0
 40
1.0
 40
1.0
 40
1.0
 10
-715.5606674835421
 20
-1808.89548227543
 30
0.0
 10
-715.5401539974937
 20
-1808.861867389245
 30
0.0
 10
-715.4991271944336
 20
-1808.794637893871
 30
0.0
 10
-715.4280447783784
 20
-1808.650774471559
 30
0.0
 10
-715.3609282018906
 20
-1808.494933811482
 30
0.0
 10
-715.3109624755824
 20
-1808.358864798586
 30
0.0
 10
-715.2898057913544
 20
-1808.286162532577
 30
0.0
 10
-715.2818252508832
 20
-1808.258738415927
 30
0.0
  0
LINE
  5
38715B
330
18
100
AcDbEntity
  8
姿図
100
AcDbLine
 10
-715.5606674835421
 20
-1808.89548227543
 30
0.0
 11
-717.615774817258
 21
-1812.040801765451
 31
0.0
  0
SPLINE
  5
38715C
330
18
100
AcDbEntity
  8
姿図
100
AcDbSpline
210
0.0
220
0.0
230
1.0
 70
    11
 71
     3
 72
    26
 73
    22
 74
     0
 42
0.000000001
 43
0.0000000001
 40
0.0
 40
0.0
 40
0.0
 40
0.0
 40
0.0474278728380123
 40
0.1004741188747127
 40
0.1527169489802308
 40
0.2047465321445338
 40
0.2573143968572853
 40
0.3108870936629447
 40
0.3654700269155327
 40
0.4206626118561707
 40
0.4758445284865779
 40
0.5303785694345775
 40
0.5838490906741343
 40
0.6363104392161048
 40
0.6883187398727956
 40
0.7406463031040765
 40
0.7938815319219227
 40
0.8481777155397047
 40
0.9032414523008981
 40
0.9584983408015574
 40
1.0
 40
1.0
 40
1.0
 40
1.0
 10
-716.4386218994277
 20
-1808.702644477951
 30
0.0
 10
-716.4481166455066
 20
-1808.675832909463
 30
0.0
 10
-716.4682308987749
 20
-1808.619033635993
 30
0.0
 10
-716.4687944603724
 20
-1808.45069901902
 30
0.0
 10
-716.4450091177432
 20
-1808.232552742861
 30
0.0
 10
-716.3977579859383
 20
-1807.989368109534
 30
0.0
 10
-716.331305418681
 20
-1807.747600521549
 30
0.0
 10
-716.2503359588344
 20
-1807.53193219771
 30
0.0
 10
-716.1618882261549
 20
-1807.367544294274
 30
0.0
 10
-716.075590702851
 20
-1807.275811402588
 30
0.0
 10
-716.0027700260516
 20
-1807.269523985204
 30
0.0
 10
-715.9540918168304
 20
-1807.349197793216
 30
0.0
 10
-715.9367112838853
 20
-1807.502877096215
 30
0.0
 10
-715.9525817055528
 20
-1807.709922628313
 30
0.0
 10
-715.9988744957054
 20
-1807.94649411241
 30
0.0
 10
-716.0695265723004
 20
-1808.188814136128
 30
0.0
 10
-716.1561089384804
 20
-1808.412878545965
 30
0.0
 10
-716.2484172241782
 20
-1808.594882159421
 30
0.0
 10
-716.3345483961148
 20
-1808.710643532146
 30
0.0
 10
-716.4004527210159
 20
-1808.74735208561
 30
0.0
 10
-716.4271646314987
 20
-1808.71606439058
 30
0.0
 10
-716.4386218994277
 20
-1808.702644477951
 30
0.0
1001
ACAD_SPLINE_DATA
1070
   100
1070
     1
1070
   101
1070
     0
1070
   102
1070
    15
1001
ACAD_SPLINE_DATA2
1070
   103
1070
     1
1070
   104
1070
    15
  0
LINE
  5
38715D
330
18
100
AcDbEntity
  8
姿図
100
AcDbLine
 10
-721.8017550303337
 20
-1792.494111397518
 30
0.0
 11
-721.7759954033595
 21
-1792.474299275059
 31
0.0
  0
LINE
  5
38715E
330
18
100
AcDbEntity
  8
姿図
100
AcDbLine
 10
-727.6543381959077
 20
-1788.602124582758
 30
0.0
 11
-727.6750141885527
 21
-1788.649036837385
 31
0.0
  0
SPLINE
  5
38715F
330
18
100
AcDbEntity
  8
姿図
100
AcDbSpline
210
0.0
220
0.0
230
1.0
 70
     8
 71
     3
 72
    12
 73
     8
 74
     0
 42
0.000000001
 43
0.0000000001
 40
0.0
 40
0.0
 40
0.0
 40
0.0
 40
0.2171132155342331
 40
0.4342243721801548
 40
0.6513458270757378
 40
0.8684841808987847
 40
1.0
 40
1.0
 40
1.0
 40
1.0
 10
-740.1754042939543
 20
-1787.011302808744
 30
0.0
 10
-740.1603687303335
 20
-1786.985571632954
 30
0.0
 10
-740.1302977456752
 20
-1786.934109525381
 30
0.0
 10
-740.1483401609074
 20
-1786.884937295832
 30
0.0
 10
-740.2118327646693
 20
-1786.865262704772
 30
0.0
 10
-740.3026172030466
 20
-1786.875868643514
 30
0.0
 10
-740.372222404942
 20
-1786.898549169705
 30
0.0
 10
-740.3984781788631
 20
-1786.907104489593
 30
0.0
  0
LINE
  5
387160
330
18
100
AcDbEntity
  8
姿図
100
AcDbLine
 10
-740.1754042939543
 20
-1787.011302808744
 30
0.0
 11
-742.2639386883511
 21
-1789.920392866015
 31
0.0
  0
LINE
  5
387161
330
18
100
AcDbEntity
  8
姿図
100
AcDbLine
 10
-744.8583210403003
 20
-1789.715040578192
 30
0.0
 11
-747.1208305459967
 21
-1792.724577255192
 31
0.0
  0
SPLINE
  5
387162
330
18
100
AcDbEntity
  8
姿図
100
AcDbSpline
210
0.0
220
0.0
230
1.0
 70
     8
 71
     3
 72
    12
 73
     8
 74
     0
 42
0.000000001
 43
0.0000000001
 40
0.0
 40
0.0
 40
0.0
 40
0.0
 40
0.2172135158156013
 40
0.4344280068878244
 40
0.6515911033658425
 40
0.8687223108728451
 40
1.0
 40
1.0
 40
1.0
 40
1.0
 10
-744.3824391627666
 20
-1789.207291792934
 30
0.0
 10
-744.418204170181
 20
-1789.23954682166
 30
0.0
 10
-744.4897343455895
 20
-1789.304057023934
 30
0.0
 10
-744.6099556632124
 20
-1789.426377506985
 30
0.0
 10
-744.7227910787477
 20
-1789.549600766429
 30
0.0
 10
-744.8073916578787
 20
-1789.649045518942
 30
0.0
 10
-744.8443829986054
 20
-1789.696979454264
 30
0.0
 10
-744.8583210403003
 20
-1789.715040578192
 30
0.0
  0
ARC
  5
387163
330
18
100
AcDbEntity
  8
姿図
100
AcDbCircle
 10
-736.3093790230078
 20
-1798.589724784503
 30
0.0
 40
12.37757443368648
100
AcDbArc
 50
109.2908416288905
 51
130.7101583952329
  0
SPLINE
  5
387164
330
18
100
AcDbEntity
  8
姿図
100
AcDbSpline
210
0.0
220
0.0
230
1.0
 70
    11
 71
     3
 72
    26
 73
    22
 74
     0
 42
0.000000001
 43
0.0000000001
 40
0.0
 40
0.0
 40
0.0
 40
0.0
 40
0.0471593762859079
 40
0.1018244930661253
 40
0.1570268073372413
 40
0.212199563677662
 40
0.2667075633808035
 40
0.3201460215108949
 40
0.3725849909522735
 40
0.4245926159826232
 40
0.4769408123005576
 40
0.5302081368218131
 40
0.5845333979268533
 40
0.6396128773819229
 40
0.694865965191439
 40
0.7496392313544904
 40
0.8034297358160982
 40
0.8561419347460621
 40
0.908206080985412
 40
0.9603711187671583
 40
1.0
 40
1.0
 40
1.0
 40
1.0
 10
-744.4964576655628
 20
-1790.24561279944
 30
0.0
 10
-744.4980071524404
 20
-1790.229710028269
 30
0.0
 10
-744.5013527377355
 20
-1790.195373450045
 30
0.0
 10
-744.4314395965703
 20
-1790.08620369053
 30
0.0
 10
-744.3032080462817
 20
-1789.937562623296
 30
0.0
 10
-744.1279223082756
 20
-1789.7674296506
 30
0.0
 10
-743.9278537252313
 20
-1789.599471194695
 30
0.0
 10
-743.7263804867079
 20
-1789.455187397503
 30
0.0
 10
-743.5460682427765
 20
-1789.351193456112
 30
0.0
 10
-743.4051199868418
 20
-1789.297024824463
 30
0.0
 10
-743.3175096153689
 20
-1789.296430182843
 30
0.0
 10
-743.2936338663376
 20
-1789.348787423719
 30
0.0
 10
-743.3391093317633
 20
-1789.448898310802
 30
0.0
 10
-743.4518084833078
 20
-1789.586255659953
 30
0.0
 10
-743.6196193138603
 20
-1789.745371161349
 30
0.0
 10
-743.8212261931558
 20
-1789.907747265928
 30
0.0
 10
-744.0300743240996
 20
-1790.054730941428
 30
0.0
 10
-744.2209435257056
 20
-1790.17097508878
 30
0.0
 10
-744.3723097203574
 20
-1790.244345955369
 30
0.0
 10
-744.4665148668232
 20
-1790.269463847255
 30
0.0
 10
-744.4874287937632
 20
-1790.252804780887
 30
0.0
 10
-744.4964576655628
 20
-1790.24561279944
 30
0.0
1001
ACAD_SPLINE_DATA
1070
   100
1070
     1
1070
   101
1070
     0
1070
   102
1070
    15
1001
ACAD_SPLINE_DATA2
1070
   103
1070
     1
1070
   104
1070
    15
  0
LINE
  5
387165
330
18
100
AcDbEntity
  8
姿図
100
AcDbLine
 10
-739.8028842696707
 20
-1787.670987876129
 30
0.0
 11
-740.1754042939543
 21
-1787.011302808744
 31
0.0
  0
LINE
  5
387166
330
18
100
AcDbEntity
  8
姿図
100
AcDbLine
 10
-739.8028842696707
 20
-1787.670987876129
 30
0.0
 11
-741.0584831739282
 21
-1789.615011194376
 31
0.0
  0
SPLINE
  5
387167
330
18
100
AcDbEntity
  8
姿図
100
AcDbSpline
210
0.0
220
0.0
230
1.0
 70
     8
 71
     3
 72
     9
 73
     5
 74
     0
 42
0.000000001
 43
0.0000000001
 40
0.0
 40
0.0
 40
0.0
 40
0.0
 40
0.6632124455979912
 40
1.0
 40
1.0
 40
1.0
 40
1.0
 10
-746.5584131212998
 20
-1818.610893988623
 30
0.0
 10
-746.5551936490976
 20
-1818.633386563043
 30
0.0
 10
-746.5503392887443
 20
-1818.66730114738
 30
0.0
 10
-746.5563790162454
 20
-1818.702930389573
 30
0.0
 10
-746.5584131212998
 20
-1818.714929874917
 30
0.0
  0
LINE
  5
387168
330
18
100
AcDbEntity
  8
姿図
100
AcDbLine
 10
-746.9282270215635
 20
-1819.353156352409
 30
0.0
 11
-746.7152273859019
 21
-1819.062769410951
 31
0.0
  0
ELLIPSE
  5
387169
330
18
100
AcDbEntity
  8
姿図
100
AcDbEllipse
 10
-746.6607039388118
 20
-1818.75693338333
 30
0.0
 11
0.07008198575260852
 21
0.1884940013535755
 31
0.0
210
0.0
220
0.0
230
1.0
 40
0.4354083075172337
 41
4.591185837760106
 42
5.09466857241569
  0
LINE
  5
38716A
330
18
100
AcDbEntity
  8
姿図
100
AcDbLine
 10
-746.6144694176357
 20
-1818.871764599226
 30
0.0
 11
-746.5877074859206
 21
-1818.810014356393
 31
0.0
  0
ELLIPSE
  5
38716B
330
18
100
AcDbEntity
  8
姿図
100
AcDbEllipse
 10
-746.6470325745047
 20
-1818.868695917337
 30
0.0
 11
0.0958712603405161
 21
0.2178313981202961
 31
0.0
210
0.0
220
0.0
230
1.0
 40
0.1305490240391393
 41
3.673605366484308
 42
4.755715523805092
  0
SPLINE
  5
38716C
330
18
100
AcDbEntity
  8
姿図
100
AcDbSpline
210
0.0
220
0.0
230
1.0
 70
     8
 71
     3
 72
     9
 73
     5
 74
     0
 42
0.000000001
 43
0.0000000001
 40
0.0
 40
0.0
 40
0.0
 40
0.0
 40
0.6178085719610193
 40
1.0
 40
1.0
 40
1.0
 40
1.0
 10
-715.8593608818501
 20
-1803.346212266356
 30
0.0
 10
-715.8377331900892
 20
-1803.32184411041
 30
0.0
 10
-715.8027260815091
 20
-1803.28240121976
 30
0.0
 10
-715.7692631028067
 20
-1803.287643141775
 30
0.0
 10
-715.7564738391897
 20
-1803.289646559436
 30
0.0
  0
SPLINE
  5
38716D
330
18
100
AcDbEntity
  8
姿図
100
AcDbSpline
210
0.0
220
0.0
230
1.0
 70
     8
 71
     3
 72
    10
 73
     6
 74
     0
 42
0.000000001
 43
0.0000000001
 40
0.0
 40
0.0
 40
0.0
 40
0.0
 40
0.0503905233770268
 40
0.6401926897526252
 40
1.0
 40
1.0
 40
1.0
 40
1.0
 10
-739.7796793014792
 20
-1787.555139306317
 30
0.0
 10
-739.7783056964621
 20
-1787.556106515116
 30
0.0
 10
-739.7608545601887
 20
-1787.568394539944
 30
0.0
 10
-739.769534956893
 20
-1787.610363648663
 30
0.0
 10
-739.7937203986639
 20
-1787.654329283968
 30
0.0
 10
-739.8028842696707
 20
-1787.670987876129
 30
0.0
  0
LINE
  5
38716E
330
18
100
AcDbEntity
  8
姿図
100
AcDbLine
 10
-746.68673051868
 20
-1818.255444923673
 30
0.0
 11
-746.6192441945914
 21
-1818.099723316059
 31
0.0
  0
ELLIPSE
  5
38716F
330
18
100
AcDbEntity
  8
姿図
100
AcDbEllipse
 10
-746.6607039388118
 20
-1818.75693338333
 30
0.0
 11
0.07008198575260852
 21
0.1884940013535755
 31
0.0
210
0.0
220
0.0
230
1.0
 40
0.4354083075172337
 41
5.743628802522165
 42
6.161677578283057
  0
LINE
  5
387170
330
18
100
AcDbEntity
  8
姿図
100
AcDbLine
 10
-746.5811905294692
 20
-1818.573527338004
 30
0.0
 11
-746.6932474751311
 21
-1818.491931942063
 31
0.0
  0
ELLIPSE
  5
387171
330
18
100
AcDbEntity
  8
姿図
100
AcDbEllipse
 10
-746.6137341195023
 20
-1818.308525521439
 30
0.0
 11
0.0700819857525517
 21
0.1884940013535754
 31
0.0
210
0.0
220
0.0
230
1.0
 40
0.435408307517554
 41
1.449593184119954
 42
3.020084924451893
  0
LWPOLYLINE
  5
387172
330
18
100
AcDbEntity
  8
姿図
100
AcDbPolyline
 90
       88
 70
   128
 43
0.0
 10
-753.0763353586062
 20
-1835.115229362843
 10
-752.0770994863933
 20
-1835.651782532236
 10
-751.0134008633522
 20
-1836.14531216943
 10
-749.8907872845834
 20
-1836.593246682107
 10
-748.7151114820845
 20
-1836.993250545528
 10
-747.4925008832287
 20
-1837.343237198556
 10
-746.229331515943
 20
-1837.6413825872
 10
-744.9321878374913
 20
-1837.886133148176
 10
-743.607833758514
 20
-1838.076211891621
 10
-742.2631734596325
 20
-1838.210628095422
 10
-740.9052164885906
 20
-1838.28868148708
 10
-739.5410428573938
 20
-1838.309964144556
 10
-738.177765505272
 20
-1838.274365438482
 10
-736.8224921031001
 20
-1838.182071271819
 10
-735.4822875163597
 20
-1838.033562939346
 10
-734.1641382437366
 20
-1837.829614846644
 10
-732.8749185020768
 20
-1837.571289377808
 10
-731.6213480795395
 20
-1837.259933854085
 10
-730.4099636889117
 20
-1836.897171599891
 10
-729.2470806073887
 20
-1836.484893484032
 10
-728.1387615603462
 20
-1836.025249080767
 10
-727.0907840410719
 20
-1835.520635407275
 10
-726.1086113553829
 20
-1834.97368324943
 10
-725.197365847678
 20
-1834.387243226208
 10
-724.3617984020951
 20
-1833.764372745114
 10
-723.6062637882487
 20
-1833.108320248904
 10
-722.934700513888
 20
-1832.422505981378
 10
-722.3506113772501
 20
-1831.710504677777
 10
-721.8570418174122
 20
-1830.976028504669
 10
-721.4565637799506
 20
-1830.222907101049
 10
-721.151265180228
 20
-1829.455066288829
 10
-720.942739037409
 20
-1828.67650963462
 10
-720.8320719499314
 20
-1827.891296589968
 10
-720.81984014424
 20
-1827.103520441521
 10
-720.9061074991522
 20
-1826.317288162032
 10
-721.0904248873138
 20
-1825.536698740691
 10
-721.3718314922866
 20
-1824.765822653968
 10
-721.7488600769078
 20
-1824.008677534747
 10
-722.2195438980043
 20
-1823.269212015122
 10
-722.7814305358279
 20
-1822.551281015369
 10
-723.4315888087735
 20
-1821.858626545374
 10
-724.1666318224368
 20
-1821.194861357343
 10
-724.9827247075121
 20
-1820.563444709986
 10
-725.8756133076363
 20
-1819.967668848731
 10
-726.8406434829767
 20
-1819.41064025861
 10
-727.872784323923
 20
-1818.895263221921
 10
-728.9666530934627
 20
-1818.424223898625
 10
-730.1165472077464
 20
-1817.99997794707
 10
-731.3164729239357
 20
-1817.624738524886
 10
-732.5601730813867
 20
-1817.300460274342
 10
-733.8411649679636
 20
-1817.028835710727
 10
-735.1527683081777
 20
-1816.811279065152
 10
-736.4881470807635
 20
-1816.648925714281
 10
-737.8403365190043
 20
-1816.54262191576
 10
-739.2022895381205
 20
-1816.492921576772
 10
-740.5669043941383
 20
-1816.500083973022
 10
-741.9270668307373
 20
-1816.564072228053
 10
-743.2756849821116
 20
-1816.684552172739
 10
-744.6057295441824
 20
-1816.860895006476
 10
-745.9102640676477
 20
-1817.092182619555
 10
-747.1824877633736
 20
-1817.377209494006
 10
-748.4157697467081
 20
-1817.714488025982
 10
-749.6036783427157
 20
-1818.102260881263
 10
-750.7400197756615
 20
-1818.538506602767
 10
-751.8188717547855
 20
-1819.020949875123
 10
-752.8346085813105
 20
-1819.547076018647
 10
-753.7819353927557
 20
-1820.114141634083
 10
-754.6559117882225
 20
-1820.719191282554
 10
-755.4519827799849
 20
-1821.359069270821
 10
-756.1659966565117
 20
-1822.030440608128
 10
-756.7942316535145
 20
-1822.729804882402
 10
-757.3334129937916
 20
-1823.453515221209
 10
-757.7807283630221
 20
-1824.197799391178
 10
-758.1338465136477
 20
-1824.958776620494
 10
-758.390926484496
 20
-1825.732479648752
 10
-758.5506274789486
 20
-1826.5148741156
 10
-758.612117096748
 20
-1827.301882321351
 10
-758.5750746267184
 20
-1828.089399574266
 10
-758.4396936809453
 20
-1828.873321562778
 10
-758.2066795605969
 20
-1829.649560322617
 10
-757.8772485973794
 20
-1830.414069708173
 10
-757.4531162997353
 20
-1831.162862880302
 10
-756.9364940601234
 20
-1831.892037017354
 10
-756.3300756548532
 20
-1832.59778947238
 10
-755.6370227561082
 20
-1833.276441343656
 10
-754.8609499500551
 20
-1833.924455247609
 10
-754.0059016877912
 20
-1834.538451666115
 10
-753.0763353586062
 20
-1835.115229362843
  0
LWPOLYLINE
  5
387173
330
18
100
AcDbEntity
  8
姿図
100
AcDbPolyline
 90
       46
 70
   128
 43
0.0
 10
-720.8128766946129
 20
-1826.66479049217
 10
-720.81984014424
 20
-1826.368633770976
 10
-720.9061074991522
 20
-1825.582401491487
 10
-721.0904248873138
 20
-1824.801812070147
 10
-721.3718314922866
 20
-1824.030935983424
 10
-721.7488600769078
 20
-1823.273790864202
 10
-722.2195438980043
 20
-1822.534325344578
 10
-722.7814305358279
 20
-1821.816394344824
 10
-723.4315888087735
 20
-1821.123739874829
 10
-724.1666318224368
 20
-1820.459974686798
 10
-724.9827247075121
 20
-1819.828558039441
 10
-725.8756133076363
 20
-1819.232782178186
 10
-726.8406434829767
 20
-1818.675753588065
 10
-727.872784323923
 20
-1818.160376551377
 10
-728.9666530934627
 20
-1817.689337228081
 10
-730.1165472077464
 20
-1817.265091276525
 10
-731.3164729239357
 20
-1816.889851854342
 10
-732.5601730813867
 20
-1816.565573603797
 10
-733.8411649679636
 20
-1816.293949040183
 10
-735.1527683081777
 20
-1816.076392394607
 10
-736.4881470807635
 20
-1815.914039043736
 10
-737.8403365190043
 20
-1815.807735245215
 10
-739.2022895381205
 20
-1815.758034906228
 10
-740.5669043941383
 20
-1815.765197302478
 10
-741.9270668307373
 20
-1815.829185557508
 10
-743.2756849821116
 20
-1815.949665502194
 10
-744.6057295441824
 20
-1816.126008335932
 10
-745.9102640676477
 20
-1816.35729594901
 10
-747.1824877633736
 20
-1816.642322823462
 10
-748.4157697467081
 20
-1816.979601355437
 10
-749.6036783427157
 20
-1817.367374210719
 10
-750.7400197756615
 20
-1817.803619932222
 10
-751.8188717547855
 20
-1818.286063204579
 10
-752.8346085813105
 20
-1818.812189348102
 10
-753.7819353927557
 20
-1819.379254963538
 10
-754.6559117882225
 20
-1819.98430461201
 10
-755.4519827799849
 20
-1820.624182600276
 10
-756.1659966565117
 20
-1821.295553937583
 10
-756.7942316535145
 20
-1821.994918211857
 10
-757.3334129937916
 20
-1822.718628550665
 10
-757.7807283630221
 20
-1823.462912720633
 10
-758.1338465136477
 20
-1824.223889949949
 10
-758.390926484496
 20
-1824.997592978208
 10
-758.5506274789486
 20
-1825.779987445056
 10
-758.612117096748
 20
-1826.566995650807
 10
-758.612875740021
 20
-1826.66479049217
  0
ARC
  5
387174
330
18
100
AcDbEntity
  8
姿図
100
AcDbCircle
 10
-746.6796161859697
 20
-1824.484387069843
 30
0.0
 40
11.43807842659413
100
AcDbArc
 50
213.1267072263232
 51
241.6871904403016
  0
LWPOLYLINE
  5
387175
330
18
100
AcDbEntity
  8
姿図
100
AcDbPolyline
 90
       40
 70
   128
 43
0.0
 10
-756.9996853569318
 20
-1825.735362855395
 10
-756.8937775706135
 20
-1825.403059983829
 10
-756.5830011976731
 20
-1824.658668035765
 10
-756.1755946134431
 20
-1823.929975953832
 10
-755.6738907118427
 20
-1823.221158190899
 10
-755.080763381105
 20
-1822.536274958853
 10
-754.3996110401629
 20
-1821.879248277909
 10
-753.6343334249577
 20
-1821.253842492925
 10
-752.7893165242294
 20
-1820.663638849546
 10
-751.8693970798558
 20
-1820.112019562724
 10
-750.8798477078606
 20
-1819.602142499797
 10
-749.8263335579536
 20
-1819.136929846677
 10
-748.714890869674
 20
-1818.719045083829
 10
-747.5518864513251
 20
-1818.350881759385
 10
-746.3439801635159
 20
-1818.034549434743
 10
-745.0980910041201
 20
-1817.771860188553
 10
-743.8213569370596
 20
-1817.564317591788
 10
-742.5210884649167
 20
-1817.413111195293
 10
-741.2047363602559
 20
-1817.319107025533
 10
-739.87983766497
 20
-1817.282843022568
 10
-738.5539834216032
 20
-1817.304527899536
 10
-737.2347666483328
 20
-1817.384036960792
 10
-735.9297448019313
 20
-1817.520914002753
 10
-734.6463923625661
 20
-1817.714376636274
 10
-733.3920596747612
 20
-1817.963314956055
 10
-732.1739331054605
 20
-1818.266304656494
 10
-730.9989882873651
 20
-1818.621608932534
 10
-729.87395538071
 20
-1819.027193211239
 10
-728.8052793959596
 20
-1819.480734370905
 10
-727.7990807222932
 20
-1819.97963440341
 10
-726.8611245876062
 20
-1820.521036523903
 10
-725.9967805168626
 20
-1821.101837930244
 10
-725.211002246487
 20
-1821.718713563612
 10
-724.5082880059007
 20
-1822.368128392734
 10
-723.8926657825878
 20
-1823.046364168325
 10
-723.3676586250274
 20
-1823.749534891243
 10
-722.9362764108955
 20
-1824.473613614445
 10
-722.6009890113683
 20
-1825.214452496938
 10
-722.3637167422311
 20
-1825.967808085065
 10
-722.2923476397227
 20
-1826.293666700854
  0
LWPOLYLINE
  5
387176
330
18
100
AcDbEntity
  8
姿図
100
AcDbPolyline
 90
       27
 70
   128
 43
0.0
 10
-723.6699019075058
 20
-1831.472251976499
 10
-724.0371978628436
 20
-1831.923877936499
 10
-724.6747937407547
 20
-1832.595314377859
 10
-725.3985277342191
 20
-1833.236989903284
 10
-726.2042524945606
 20
-1833.845229887957
 10
-727.0873532094009
 20
-1834.416550611628
 10
-728.0427717835905
 20
-1834.947679300683
 10
-729.0650355270517
 20
-1835.435573730642
 10
-730.1482892176672
 20
-1835.877439214988
 10
-731.2863283783549
 20
-1836.270744774262
 10
-732.4726330892131
 20
-1836.613238093358
 10
-733.7004102990057
 20
-1836.90295626132
 10
-734.9626260938438
 20
-1837.138240597953
 10
-736.2520509721178
 20
-1837.31774378201
 10
-737.5612993571714
 20
-1837.440436694243
 10
-738.8828717441469
 20
-1837.505617541472
 10
-740.2091975053813
 20
-1837.512912236761
 10
-741.5326809885191
 20
-1837.462278961447
 10
-742.8457403706406
 20
-1837.354008545315
 10
-744.140855732008
 20
-1837.188720284727
 10
-745.4106079101947
 20
-1836.967361562459
 10
-746.6477239396553
 20
-1836.69119986413
 10
-747.8451172229386
 20
-1836.361817075663
 10
-748.9959296775396
 20
-1835.981099598874
 10
-750.0935696022042
 20
-1835.551228657143
 10
-751.1317506956958
 20
-1835.074666894435
 10
-752.1045257230321
 20
-1834.55414350223
  0
LWPOLYLINE
  5
387177
330
18
100
AcDbEntity
  8
姿図
100
AcDbPolyline
 90
       84
 70
   128
 43
0.0
 10
-752.0358031170039
 20
-1834.452019612006
 10
-751.0684233271286
 20
-1834.969656501712
 10
-750.0360001352246
 20
-1835.443575562603
 10
-748.9444473020833
 20
-1835.871062365402
 10
-747.8000164730374
 20
-1836.249668189857
 10
-746.6092642818448
 20
-1836.577224453229
 10
-745.3790086397963
 20
-1836.851854257944
 10
-744.116298607305
 20
-1837.07198598266
 10
-742.8283666494307
 20
-1837.236357274046
 10
-741.5225887939343
 20
-1837.344027402297
 10
-740.2064447893381
 20
-1837.394379732238
 10
-738.8874743117129
 20
-1837.387125715102
 10
-737.5732308665665
 20
-1837.322306409212
 10
-736.2712442518033
 20
-1837.200293620487
 10
-734.988970508341
 20
-1837.02178610075
 10
-733.7337543830783
 20
-1836.787806886533
 10
-732.5127868527705
 20
-1836.499694745268
 10
-731.3330606722748
 20
-1836.159101324009
 10
-730.2013333314244
 20
-1835.767976607945
 10
-729.1240870484471
 20
-1835.32856179222
 10
-728.1074913152473
 20
-1834.843373742495
 10
-727.1573720692932
 20
-1834.315190239616
 10
-726.2791680238803
 20
-1833.747038455723
 10
-725.4779128051144
 20
-1833.142170956036
 10
-724.7581931343346
 20
-1832.504053723514
 10
-724.1241326526143
 20
-1831.836341614154
 10
-723.5793619158258
 20
-1831.142859514825
 10
-723.1270040712975
 20
-1830.427578107463
 10
-722.7696475282186
 20
-1829.694595811005
 10
-722.5093413478262
 20
-1828.948111029004
 10
-722.3475744992516
 20
-1828.192398769203
 10
-722.2852755302519
 20
-1827.431788403601
 10
-722.3227993963163
 20
-1826.670636296245
 10
-722.4599327290252
 20
-1825.913302993046
 10
-722.6958885676912
 20
-1825.164125089229
 10
-723.0293168960725
 20
-1824.427394700168
 10
-723.4583066180066
 20
-1823.707331709004
 10
-723.9804016917521
 20
-1823.00806076638
 10
-724.5926106788811
 20
-1822.333586769498
 10
-725.2914265006161
 20
-1821.68777281228
 10
-726.0728478405262
 20
-1821.074318705783
 10
-726.9323978718883
 20
-1820.496738001694
 10
-727.8651525750968
 20
-1819.958338603679
 10
-728.865770824921
 20
-1819.462205398382
 10
-729.9285200737359
 20
-1819.011179346093
 10
-731.0473142589944
 20
-1818.607844721306
 10
-732.2157427791831
 20
-1818.254510864574
 10
-733.427114657465
 20
-1817.953201894168
 10
-734.6744898225431
 20
-1817.705643210055
 10
-735.9507253714117
 20
-1817.513254555802
 10
-737.2485098136702
 20
-1817.377135572128
 10
-738.5604101574572
 20
-1817.298068268009
 10
-739.8789117513923
 20
-1817.27650390482
 10
-741.1964617485132
 20
-1817.3125660377
 10
-742.5055152043924
 20
-1817.406048994866
 10
-743.7985712970831
 20
-1817.556416737108
 10
-745.0682260106832
 20
-1817.762808180165
 10
-746.3072050625569
 20
-1818.024040996418
 10
-747.508412964903
 20
-1818.338618648029
 10
-748.6649672690683
 20
-1818.704740271357
 10
-749.7702459807531
 20
-1819.120307520003
 10
-750.817916782923
 20
-1819.582940674511
 10
-751.8019794090317
 20
-1820.089989417789
 10
-752.7167957920128
 20
-1820.638550239757
 10
-753.5571273132028
 20
-1821.225480337302
 10
-754.3181611029631
 20
-1821.847417359337
 10
-754.9955358679707
 20
-1822.500800399289
 10
-755.5853737688911
 20
-1823.18188535634
 10
-756.0842956492177
 20
-1823.886771974984
 10
-756.4894424379684
 20
-1824.611423043597
 10
-756.7984953999312
 20
-1825.351686729407
 10
-757.0096833796513
 20
-1826.103323570535
 10
-757.1217966308686
 20
-1826.86202814567
 10
-757.134193072687
 20
-1827.623454735515
 10
-757.0468015822998
 20
-1828.38324203382
 10
-756.8601233120772
 20
-1829.137037478233
 10
-756.5752270797566
 20
-1829.880523482016
 10
-756.1937450879
 20
-1830.609442715316
 10
-755.7178617286409
 20
-1831.319618254162
 10
-755.150304034787
 20
-1832.006983423785
 10
-754.4943212649403
 20
-1832.667600426925
 10
-753.7536723911523
 20
-1833.297685815201
 10
-752.9325980284648
 20
-1833.893629735204
 10
-752.0358031170039
 20
-1834.452019612006
  0
LWPOLYLINE
  5
387178
330
18
100
AcDbEntity
  8
姿図
100
AcDbPolyline
 90
       27
 70
   128
 43
0.0
 10
-726.9857725241015
 20
-1818.173488541086
 10
-727.9725799940265
 20
-1817.644978443101
 10
-729.0250429422632
 20
-1817.160517135187
 10
-730.137277859586
 20
-1816.722815268872
 10
-731.3030639699364
 20
-1816.334320471422
 10
-732.5158797070521
 20
-1815.997203891718
 10
-733.7689450259512
 20
-1815.713352501831
 10
-735.0552503788913
 20
-1815.484352369551
 10
-736.3676038012998
 20
-1815.311485046775
 10
-737.6986644975467
 20
-1815.195717304929
 10
-739.0409909146915
 20
-1815.137696192762
 10
-740.3870736697099
 20
-1815.137745994986
 10
-741.7293862574202
 20
-1815.195867091772
 10
-743.0604219289756
 20
-1815.311733677727
 10
-744.3727358387137
 20
-1815.484698323934
 10
-745.6589911422708
 20
-1815.713793498628
 10
-746.9119932408975
 20
-1815.99773764991
 10
-748.1247335746675
 20
-1816.334944519906
 10
-749.2904327571428
 20
-1816.723525996038
 10
-750.4025705391502
 20
-1817.161310169082
 10
-751.4549259799959
 20
-1817.645849316732
 10
-752.4416155509997
 20
-1818.17443277623
 10
-753.3571210899557
 20
-1818.744104602811
 10
-754.1963236189046
 20
-1819.351678530253
 10
-754.9545276429142
 20
-1819.993758080977
 10
-755.627493287805
 20
-1820.666752077402
 10
-756.1235208650185
 20
-1821.252407228497
  0
ARC
  5
387179
330
18
100
AcDbEntity
  8
姿図
100
AcDbCircle
 10
-733.1454774158818
 20
-1829.285711965451
 30
0.0
 40
12.70525378679336
100
AcDbArc
 50
39.21869425803511
 51
60.99961005350405
  0
SPLINE
  5
38717A
330
18
100
AcDbEntity
  8
姿図
100
AcDbSpline
210
0.0
220
0.0
230
1.0
 70
     8
 71
     3
 72
    12
 73
     8
 74
     0
 42
0.000000001
 43
0.0000000001
 40
0.0
 40
0.0
 40
0.0
 40
0.0
 40
0.2203840637675432
 40
0.4410749332380794
 40
0.6578783348294404
 40
0.8888289102927492
 40
1.0
 40
1.0
 40
1.0
 40
1.0
 10
-745.9100073999261
 20
-1821.464703051712
 30
0.0
 10
-746.0530748563705
 20
-1821.400851346588
 30
0.0
 10
-746.3394089393403
 20
-1821.273059045758
 30
0.0
 10
-746.6646650901457
 20
-1820.896124286222
 30
0.0
 10
-746.8702248775797
 20
-1820.427689852143
 30
0.0
 10
-746.9345127064979
 20
-1819.995721657731
 30
0.0
 10
-746.9187694652182
 20
-1819.735619021862
 30
0.0
 10
-746.9136537608748
 20
-1819.651099693187
 30
0.0
  0
LWPOLYLINE
  5
38717B
330
18
100
AcDbEntity
  8
姿図
100
AcDbPolyline
 90
       18
 70
   128
 43
0.0
 10
-729.3767071912506
 20
-1819.236427594338
 10
-729.8053974400704
 20
-1819.58267936566
 10
-730.5236081795869
 20
-1820.079727306662
 10
-731.3163863664917
 20
-1820.537447718837
 10
-732.1772997496208
 20
-1820.952125821949
 10
-733.0993619949257
 20
-1821.320396829448
 10
-734.07509100782
 20
-1821.639272013852
 10
-735.0965684491391
 20
-1821.906164700845
 10
-736.1555060423414
 20
-1822.118908018454
 10
-737.2433106047793
 20
-1822.275776471666
 10
-738.3511543473232
 20
-1822.375496872318
 10
-739.4700484667104
 20
-1822.417259649134
 10
-740.5909129512655
 20
-1822.400726451124
 10
-741.7046523135167
 20
-1822.326031668261
 10
-742.8022290179086
 20
-1822.193780340545
 10
-743.8747369085152
 20
-1822.005046827413
 10
-744.913472661119
 20
-1821.761361691889
 10
-745.9100073999261
 20
-1821.464703051712
  0
LINE
  5
38717C
330
18
100
AcDbEntity
  8
姿図
100
AcDbLine
 10
-746.9136537608748
 20
-1819.651099693187
 30
0.0
 11
-746.7439585303321
 21
-1818.142005942364
 31
0.0
  0
LWPOLYLINE
  5
38717D
330
18
100
AcDbEntity
  8
姿図
100
AcDbPolyline
 90
       23
 70
   128
 43
0.0
 10
-752.3933133558656
 20
-1818.14655938327
 10
-752.3709004495086
 20
-1818.13359635698
 10
-751.3896927013047
 20
-1817.607949384633
 10
-750.3431833246931
 20
-1817.126102313334
 10
-749.237224007259
 20
-1816.690750465726
 10
-748.078000951475
 20
-1816.304327592879
 10
-746.8719971987492
 20
-1815.968994769184
 10
-745.6259569033891
 20
-1815.686627371536
 10
-744.3468477955603
 20
-1815.458804814753
 10
-743.0418239735254
 20
-1815.286801237427
 10
-741.7181830982504
 20
-1815.171578278693
 10
-740.3833278685486
 20
-1815.113780326112
 10
-739.0447235449627
 20
-1815.113730523887
 10
-737.7098551443707
 20
-1815.171429632359
 10
-736.3861885858597
 20
-1815.286554127153
 10
-735.0811265682432
 20
-1815.458461141388
 10
-733.8019670817597
 20
-1815.686188845842
 10
-732.5558635661264
 20
-1815.968463482095
 10
-731.3497850685997
 20
-1816.303707156007
 10
-730.1904764020296
 20
-1816.690044110512
 10
-729.0844197846445
 20
-1817.125313746433
 10
-728.0378029006413
 20
-1817.607082977996
 10
-727.0564785386111
 20
-1818.132657367639
  0
ARC
  5
38717E
330
18
100
AcDbEntity
  8
姿図
100
AcDbCircle
 10
-732.983061160911
 20
-1820.40361874772
 30
0.0
 40
8.865027179831928
100
AcDbArc
 50
27.59370247622968
 51
58.37913040648494
  0
ARC
  5
38717F
330
18
100
AcDbEntity
  8
姿図
100
AcDbCircle
 10
-746.8221526799608
 20
-1820.095541279792
 30
0.0
 40
8.386598409154235
100
AcDbArc
 50
123.6326659783721
 51
153.0687494930457
  0
ARC
  5
387180
330
18
100
AcDbEntity
  8
姿図
100
AcDbCircle
 10
-728.0547213319037
 20
-1818.094580823682
 30
0.0
 40
6.332687585306905
100
AcDbArc
 50
330.7794320528217
 51
29.25656536589312
  0
ARC
  5
387181
330
18
100
AcDbEntity
  8
姿図
100
AcDbCircle
 10
-751.3735204301593
 20
-1818.093722657642
 30
0.0
 40
6.330261492326155
100
AcDbArc
 50
150.6416727119824
 51
208.8249867099455
  0
ARC
  5
387182
330
18
100
AcDbEntity
  8
姿図
100
AcDbCircle
 10
-751.2158913366374
 20
-1817.941414659557
 30
0.0
 40
6.497243165627247
100
AcDbArc
 50
150.3836716370039
 51
179.488788527351
  0
LINE
  5
387183
330
18
100
AcDbEntity
  8
姿図
100
AcDbLine
 10
-753.2329824867511
 20
-1810.635253803794
 30
0.0
 11
-753.2329824867511
 21
-1811.023510414286
 31
0.0
  0
ELLIPSE
  5
387184
330
18
100
AcDbEntity
  8
姿図
100
AcDbEllipse
 10
-739.7128762173171
 20
-1817.478706339063
 30
0.0
 11
17.9992653871667
 21
0.27690714379127
 31
0.0
210
0.0
220
0.0
230
1.0
 40
0.5872755424518631
 41
2.347224132804608
 42
2.411514221173449
  0
ELLIPSE
  5
387185
330
18
100
AcDbEntity
  8
姿図
100
AcDbEllipse
 10
-739.7128762173171
 20
-1817.478706339063
 30
0.0
 11
17.99936112476996
 21
-0.2674098832603065
 31
0.0
210
0.0
220
0.0
230
1.0
 40
0.5671239229712266
 41
2.300394007862897
 42
2.364684096231738
  0
LINE
  5
387186
330
18
100
AcDbEntity
  8
姿図
100
AcDbLine
 10
-751.5976565294322
 20
-1810.079335179583
 30
0.0
 11
-751.5976565294322
 21
-1809.69107856909
 31
0.0
  0
ARC
  5
387187
330
18
100
AcDbEntity
  8
姿図
100
AcDbCircle
 10
-728.2229937637885
 20
-1817.946449051833
 30
0.0
 40
6.510422083369521
100
AcDbArc
 50
0.5544843190517892
 51
29.05558278573331
  0
SPLINE
  5
387188
330
18
100
AcDbEntity
  8
姿図
100
AcDbSpline
210
0.0
220
0.0
230
1.0
 70
     8
 71
     3
 72
    11
 73
     7
 74
     0
 42
0.000000001
 43
0.0000000001
 40
0.0
 40
0.0
 40
0.0
 40
0.0
 40
0.2058414023743365
 40
0.5145699155205259
 40
0.9909145905254124
 40
1.0
 40
1.0
 40
1.0
 40
1.0
 10
-751.4609237564209
 20
-1809.922811447621
 30
0.0
 10
-751.4709165245301
 20
-1809.927575277931
 30
0.0
 10
-751.4958968141264
 20
-1809.939484076317
 30
0.0
 10
-751.5474763367309
 20
-1809.989667153098
 30
0.0
 10
-751.5812839508534
 20
-1810.043108994758
 30
0.0
 10
-751.5973557267633
 20
-1810.078669619602
 30
0.0
 10
-751.5976565294322
 20
-1810.079335179583
 30
0.0
  0
SPLINE
  5
387189
330
18
100
AcDbEntity
  8
姿図
100
AcDbSpline
210
0.0
220
0.0
230
1.0
 70
     8
 71
     3
 72
    12
 73
     8
 74
     0
 42
0.000000001
 43
0.0000000001
 40
0.0
 40
0.0
 40
0.0
 40
0.0
 40
0.0507934852805705
 40
0.294868035990737
 40
0.5345228963393275
 40
0.7741839609693427
 40
1.0
 40
1.0
 40
1.0
 40
1.0
 10
-732.5232233220763
 20
-1806.183062676519
 30
0.0
 10
-732.5737705824852
 20
-1806.137713147058
 30
0.0
 10
-732.8672092256347
 20
-1805.874448545086
 30
0.0
 10
-733.4766569178668
 20
-1805.440100724776
 30
0.0
 10
-734.3390659120422
 20
-1804.928581561408
 30
0.0
 10
-735.2282379679364
 20
-1804.528038230104
 30
0.0
 10
-735.8285487371148
 20
-1804.366507412697
 30
0.0
 10
-736.1197763807886
 20
-1804.288144268556
 30
0.0
  0
LWPOLYLINE
  5
38718A
330
18
100
AcDbEntity
  8
姿図
100
AcDbPolyline
 90
       16
 70
   128
 43
0.0
 10
-736.1197763807886
 20
-1804.288144268556
 10
-737.0527222265408
 20
-1804.105438345263
 10
-738.0128550944881
 20
-1803.978043494771
 10
-738.9903623421901
 20
-1803.907262368393
 10
-739.9752538494595
 20
-1803.893818428978
 10
-740.9574637634927
 20
-1803.9378485376
 10
-741.9269542196266
 20
-1804.038903143647
 10
-742.873816098649
 20
-1804.195948946002
 10
-743.7883729121968
 20
-1804.407381343606
 10
-744.6612771148866
 20
-1804.671039357114
 10
-745.4836074042686
 20
-1804.984228724197
 10
-746.2469607524221
 20
-1805.343747656046
 10
-746.9435341889483
 20
-1805.74592264459
 10
-747.566208724239
 20
-1806.186643224268
 10
-748.1086211308266
 20
-1806.661404931193
 10
-748.4689617037075
 20
-1807.048186969318
  0
LINE
  5
38718B
330
18
100
AcDbEntity
  8
姿図
100
AcDbLine
 10
-751.4609237564209
 20
-1809.694945586438
 30
0.0
 11
-751.4609237564209
 21
-1809.922811447621
 31
0.0
  0
ELLIPSE
  5
38718C
330
18
100
AcDbEntity
  8
姿図
100
AcDbEllipse
 10
-751.5316301414332
 20
-1809.73434333817
 30
0.0
 11
0.0999964506931408
 21
-0.0014856104625451
 31
0.0
210
0.0
220
0.0
230
1.0
 40
0.5671239229713004
 41
0.7938877694366627
 42
2.300394007862728
  0
LINE
  5
38718D
330
18
100
AcDbEntity
  8
姿図
100
AcDbLine
 10
-751.2440221622307
 20
-1809.820144149327
 30
0.0
 11
-751.4609237564209
 21
-1809.694945586438
 31
0.0
  0
LINE
  5
38718E
330
18
100
AcDbEntity
  8
姿図
100
AcDbLine
 10
-728.9655892559689
 20
-1808.63579600861
 30
0.0
 11
-728.9655892559689
 21
-1809.461725629192
 31
0.0
  0
LINE
  5
38718F
330
18
100
AcDbEntity
  8
姿図
100
AcDbLine
 10
-730.3798029266728
 20
-1808.909451684616
 30
0.0
 11
-730.3798029266728
 21
-1806.876693311431
 31
0.0
  0
SPLINE
  5
387190
330
18
100
AcDbEntity
  8
姿図
100
AcDbSpline
210
0.0
220
0.0
230
1.0
 70
     8
 71
     3
 72
    10
 73
     6
 74
     0
 42
0.000000001
 43
0.0000000001
 40
0.0
 40
0.0
 40
0.0
 40
0.0
 40
0.0173517210556218
 40
0.9270956779012243
 40
1.0
 40
1.0
 40
1.0
 40
1.0
 10
-753.2329824867511
 20
-1811.023510414286
 30
0.0
 10
-753.2332443289488
 20
-1811.023170179851
 30
0.0
 10
-753.2472344552842
 20
-1811.004991586853
 30
0.0
 10
-753.2621780618492
 20
-1810.98649955095
 30
0.0
 10
-753.2570403920912
 20
-1810.974502313841
 30
0.0
 10
-753.2566592197645
 20
-1810.973612218721
 30
0.0
  0
ELLIPSE
  5
387191
330
18
100
AcDbEntity
  8
姿図
100
AcDbEllipse
 10
-753.1578712355572
 20
-1810.67327299096
 30
0.0
 11
0.0999959188175979
 21
0.0015383730210559
 31
0.0
210
0.0
220
0.0
230
1.0
 40
0.5872755424519192
 41
2.411514221173655
 42
3.132558042178937
  0
SPLINE
  5
387192
330
18
100
AcDbEntity
  8
姿図
100
AcDbSpline
210
0.0
220
0.0
230
1.0
 70
     8
 71
     3
 72
    12
 73
     8
 74
     0
 42
0.000000001
 43
0.0000000001
 40
0.0
 40
0.0
 40
0.0
 40
0.0
 40
0.2028537020586399
 40
0.405154154908101
 40
0.6216630679392549
 40
0.8656538337348937
 40
1.0
 40
1.0
 40
1.0
 40
1.0
 10
-733.0286857635582
 20
-1806.368056432972
 30
0.0
 10
-733.0150092460121
 20
-1806.372725917294
 30
0.0
 10
-732.9876935113105
 20
-1806.382052150708
 30
0.0
 10
-732.9384480747293
 20
-1806.385124430357
 30
0.0
 10
-732.8874300543652
 20
-1806.37979547934
 30
0.0
 10
-732.845368370169
 20
-1806.367501442003
 30
0.0
 10
-732.8236207632743
 20
-1806.356093722136
 30
0.0
 10
-732.8158982615458
 20
-1806.352042879356
 30
0.0
  0
LINE
  5
387193
330
18
100
AcDbEntity
  8
姿図
100
AcDbLine
 10
-732.8158982615458
 20
-1806.352042879356
 30
0.0
 11
-731.6388841319701
 21
-1805.672479836466
 31
0.0
  0
LINE
  5
387194
330
18
100
AcDbEntity
  8
姿図
100
AcDbLine
 10
-746.9226307103349
 20
-1819.890385716725
 30
0.0
 11
-746.0309739588718
 21
-1821.399329849237
 31
0.0
  0
LWPOLYLINE
  5
387195
330
18
100
AcDbEntity
  8
姿図
100
AcDbPolyline
 90
       17
 70
   128
 43
0.0
 10
-744.1328172522026
 20
-1790.075853650365
 10
-743.948919930547
 20
-1789.957284772724
 10
-743.7590433977624
 20
-1789.810999129976
 10
-743.592094874045
 20
-1789.659272645933
 10
-743.4734903907719
 20
-1789.525196570644
 10
-743.4212870325567
 20
-1789.429189210192
 10
-743.443432155681
 20
-1789.385863440981
 10
-743.5365540122639
 20
-1789.401815619118
 10
-743.6864756156282
 20
-1789.474616959853
 10
-743.8703732691283
 20
-1789.593185648894
 10
-744.0602497813333
 20
-1789.739471279762
 10
-744.2271983256302
 20
-1789.891200817537
 10
-744.3458024796308
 20
-1790.02527404106
 10
-744.3980058378465
 20
-1790.121281401511
 10
-744.3758610439943
 20
-1790.164606980637
 10
-744.282739177122
 20
-1790.148654796559
 10
-744.1328172522026
 20
-1790.075853650365
  0
LWPOLYLINE
  5
387196
330
18
100
AcDbEntity
  8
姿図
100
AcDbPolyline
 90
        3
 70
   128
 43
0.0
 10
-743.3504259971367
 20
-1789.40469491203
 10
-743.3698623209042
 20
-1789.393329772362
 10
-743.378137056124
 20
-1789.391968644586
  0
LINE
  5
387197
330
18
100
AcDbEntity
  8
姿図
100
AcDbLine
 10
-744.4093342027905
 20
-1790.199155566349
 30
0.0
 11
-744.4036326890763
 21
-1790.229112419328
 31
0.0
  0
LINE
  5
387198
330
18
100
AcDbEntity
  8
姿図
100
AcDbLine
 10
-744.216862531316
 20
-1789.951356767502
 30
0.0
 11
-744.1993895962605
 21
-1790.046673872881
 31
0.0
  0
LINE
  5
387199
330
18
100
AcDbEntity
  8
姿図
100
AcDbLine
 10
-744.1993895962605
 20
-1790.046673872881
 30
0.0
 11
-743.8921735207254
 21
-1789.87055242311
 31
0.0
  0
LINE
  5
38719A
330
18
100
AcDbEntity
  8
姿図
100
AcDbLine
 10
-743.8921735207254
 20
-1789.87055242311
 30
0.0
 11
-743.6024303390872
 21
-1789.599116886053
 31
0.0
  0
LINE
  5
38719B
330
18
100
AcDbEntity
  8
姿図
100
AcDbLine
 10
-743.6024303390872
 20
-1789.599116886053
 30
0.0
 11
-743.6199032741426
 21
-1789.503796738823
 31
0.0
  0
LINE
  5
38719C
330
18
100
AcDbEntity
  8
姿図
100
AcDbLine
 10
-743.6199032741426
 20
-1789.503796738823
 30
0.0
 11
-743.9271193599673
 21
-1789.679918194533
 31
0.0
  0
LINE
  5
38719D
330
18
100
AcDbEntity
  8
姿図
100
AcDbLine
 10
-743.9271193599673
 20
-1789.679918194533
 30
0.0
 11
-744.216862531316
 21
-1789.951356767502
 31
0.0
  0
LINE
  5
38719E
330
18
100
AcDbEntity
  8
姿図
100
AcDbLine
 10
-744.1599496126314
 20
-1790.024061802038
 30
0.0
 11
-744.216862531316
 21
-1789.951356767502
 31
0.0
  0
LINE
  5
38719F
330
18
100
AcDbEntity
  8
姿図
100
AcDbLine
 10
-743.8262435945524
 20
-1789.808787779499
 30
0.0
 11
-743.9271193599673
 21
-1789.679918194533
 31
0.0
  0
LWPOLYLINE
  5
3871A0
330
18
100
AcDbEntity
  8
姿図
100
AcDbPolyline
 90
       17
 70
   128
 43
0.0
 10
-716.4114714264522
 20
-1808.320064764427
 10
-716.4119607250218
 20
-1808.490516707984
 10
-716.3808023501715
 20
-1808.587407448354
 10
-716.3227404565359
 20
-1808.595987338081
 10
-716.2466133699576
 20
-1808.514948502727
 10
-716.1640108152322
 20
-1808.356630122861
 10
-716.0875103339179
 20
-1808.1451314499
 10
-716.0287563100044
 20
-1807.912655034101
 10
-715.9966937535446
 20
-1807.694591970916
 10
-715.9962031378864
 20
-1807.524139266773
 10
-716.0273615127371
 20
-1807.427248526403
 10
-716.0854247234611
 20
-1807.418669397263
 10
-716.1615518100397
 20
-1807.499708232617
 10
-716.2441530476757
 20
-1807.658027372822
 10
-716.3206548460792
 20
-1807.869523764517
 10
-716.3794088699924
 20
-1808.102000180316
 10
-716.4114714264522
 20
-1808.320064764427
  0
LWPOLYLINE
  5
3871A1
330
18
100
AcDbEntity
  8
姿図
100
AcDbPolyline
 90
        3
 70
   128
 43
0.0
 10
-716.42277073312
 20
-1808.641477235484
 10
-716.3838606308663
 20
-1808.634538445524
 10
-716.3778691929327
 20
-1808.631027598152
  0
LWPOLYLINE
  5
3871A2
330
18
100
AcDbEntity
  8
姿図
100
AcDbPolyline
 90
        3
 70
   128
 43
0.0
 10
-716.0526331582304
 20
-1807.377831724778
 10
-716.0625356919973
 20
-1807.363137207292
 10
-716.0867865935037
 20
-1807.346865374378
  0
LINE
  5
3871A3
330
18
100
AcDbEntity
  8
姿図
100
AcDbLine
 10
-716.1741240832416
 20
-1807.649775363848
 30
0.0
 11
-716.3156117122371
 21
-1808.019320702889
 31
0.0
  0
LINE
  5
3871A4
330
18
100
AcDbEntity
  8
姿図
100
AcDbLine
 10
-716.3156117122371
 20
-1808.019320702889
 30
0.0
 11
-716.345568901905
 21
-1808.376875987978
 31
0.0
  0
LINE
  5
3871A5
330
18
100
AcDbEntity
  8
姿図
100
AcDbLine
 10
-716.345568901905
 20
-1808.376875987978
 30
0.0
 11
-716.2340391211217
 21
-1808.364881751666
 31
0.0
  0
LINE
  5
3871A6
330
18
100
AcDbEntity
  8
姿図
100
AcDbLine
 10
-716.2340391211217
 20
-1808.364881751666
 30
0.0
 11
-716.0925534677597
 21
-1807.995334511528
 31
0.0
  0
LINE
  5
3871A7
330
18
100
AcDbEntity
  8
姿図
100
AcDbLine
 10
-716.0925534677597
 20
-1807.995334511528
 30
0.0
 11
-716.062594961003
 21
-1807.637781507704
 31
0.0
  0
LINE
  5
3871A8
330
18
100
AcDbEntity
  8
姿図
100
AcDbLine
 10
-716.062594961003
 20
-1807.637781507704
 30
0.0
 11
-716.1741240832416
 21
-1807.649775363848
 31
0.0
  0
LINE
  5
3871A9
330
18
100
AcDbEntity
  8
姿図
100
AcDbLine
 10
-716.3422116420031
 20
-1808.336807875754
 30
0.0
 11
-716.2340391211217
 21
-1808.364881751666
 31
0.0
  0
LINE
  5
3871AA
330
18
100
AcDbEntity
  8
姿図
100
AcDbLine
 10
-716.2870973935858
 20
-1807.944845870925
 30
0.0
 11
-716.0925534677597
 21
-1807.995334511528
 31
0.0
  0
ELLIPSE
  5
3871AB
330
18
100
AcDbEntity
  8
姿図
100
AcDbEllipse
 10
-774.0306508467027
 20
-1861.919374043504
 30
0.0
 11
342.6698488020466
 21
477.9607985122058
 31
0.0
210
0.0
220
0.0
230
1.0
 40
0.0261773033998656
 41
1.43603185239019
 42
1.437636385332492
  0
ARC
  5
3871AC
330
18
100
AcDbEntity
  8
姿図
100
AcDbCircle
 10
-731.6381800651014
 20
-1805.437414102335
 30
0.0
 40
15.0207864330117
100
AcDbArc
 50
4.151593902112991
 51
26.90833575959806
  0
ARC
  5
3871AD
330
18
100
AcDbEntity
  8
姿図
100
AcDbCircle
 10
-736.3418735153427
 20
-1808.298768601891
 30
0.0
 40
20.57404405477536
100
AcDbArc
 50
47.1184646658524
 51
66.63461237914358
  0
ARC
  5
3871AE
330
18
100
AcDbEntity
  8
姿図
100
AcDbCircle
 10
-735.3442656901173
 20
-1802.01459650693
 30
0.0
 40
14.13241227741562
100
AcDbArc
 50
87.85232270639496
 51
110.9131532175744
  0
ELLIPSE
  5
3871AF
330
18
100
AcDbEntity
  8
姿図
100
AcDbEllipse
 10
-774.0306508467027
 20
-1861.919374043504
 30
0.0
 11
332.4089374138715
 21
484.6786887740072
 31
0.0
210
0.0
220
0.0
230
1.0
 40
0.0253398430580468
 41
4.848043308498644
 42
4.848807649842798
  0
SPLINE
  5
3871B0
330
18
100
AcDbEntity
  8
姿図
100
AcDbSpline
210
0.0
220
0.0
230
1.0
 70
     8
 71
     3
 72
    11
 73
     7
 74
     0
 42
0.000000001
 43
0.0000000001
 40
0.0
 40
0.0
 40
0.0
 40
0.0
 40
0.1457359544438157
 40
0.4574196932165094
 40
0.769213878939972
 40
0.9999999999999998
 40
0.9999999999999998
 40
0.9999999999999998
 40
0.9999999999999998
 10
-733.0292744200304
 20
-1783.765413148387
 30
0.0
 10
-732.9968316757245
 20
-1783.744839612865
 30
0.0
 10
-732.8950040230757
 20
-1783.680265703546
 30
0.0
 10
-732.6768817560194
 20
-1783.594243152797
 30
0.0
 10
-732.4295397995056
 20
-1783.524660007148
 30
0.0
 10
-732.2891169169966
 20
-1783.516571427509
 30
0.0
 10
-732.2293881506607
 20
-1783.513130956308
 30
0.0
  0
ARC
  5
3871B1
330
18
100
AcDbEntity
  8
姿図
100
AcDbCircle
 10
-732.0032560987382
 20
-1805.696871213541
 30
0.0
 40
16.01215175756247
100
AcDbArc
 50
7.032356724526537
 51
28.32633900496702
  0
ARC
  5
3871B2
330
18
100
AcDbEntity
  8
姿図
100
AcDbCircle
 10
-736.5304850962538
 20
-1808.567705111364
 30
0.0
 40
21.41489585214403
100
AcDbArc
 50
47.38843208915596
 51
66.22429127712866
  0
ARC
  5
3871B3
330
18
100
AcDbEntity
  8
姿図
100
AcDbCircle
 10
-735.4340715083899
 20
-1802.402786932017
 30
0.0
 40
15.08317198067255
100
AcDbArc
 50
86.20737918696922
 51
107.9316576376659
  0
ARC
  5
3871B4
330
18
100
AcDbEntity
  8
姿図
100
AcDbCircle
 10
-731.6466475372976
 20
-1805.190921047067
 30
0.0
 40
16.00830052061455
100
AcDbArc
 50
6.843870595684324
 51
28.42031588774053
  0
ARC
  5
3871B5
330
18
100
AcDbEntity
  8
姿図
100
AcDbCircle
 10
-736.1750772628187
 20
-1808.062244225457
 30
0.0
 40
21.41189387350124
100
AcDbArc
 50
47.25215996060495
 51
66.3962519859421
  0
ARC
  5
3871B6
330
18
100
AcDbEntity
  8
姿図
100
AcDbCircle
 10
-735.0789968251664
 20
-1801.892237526158
 30
0.0
 40
15.07581343060297
100
AcDbArc
 50
86.09460090139258
 51
108.2034603154023
  0
LINE
  5
3871B7
330
18
100
AcDbEntity
  8
姿図
100
AcDbLine
 10
-716.6568082316342
 20
-1804.349975343811
 30
0.0
 11
-716.6314081699614
 21
-1804.356780897392
 31
0.0
  0
LINE
  5
3871B8
330
18
100
AcDbEntity
  8
姿図
100
AcDbLine
 10
-740.4730071425563
 20
-1788.708528471353
 30
0.0
 11
-740.3888649107716
 21
-1788.813191449823
 31
0.0
  0
ARC
  5
3871B9
330
18
100
AcDbEntity
  8
姿図
100
AcDbCircle
 10
-729.8793953229342
 20
-1799.102202733592
 30
0.0
 40
10.57178559249698
100
AcDbArc
 50
54.14896082070806
 51
59.42736506924457
  0
SPLINE
  5
3871BA
330
18
100
AcDbEntity
  8
姿図
100
AcDbSpline
210
0.0
220
0.0
230
1.0
 70
     8
 71
     3
 72
    17
 73
    13
 74
     0
 42
0.000000001
 43
0.0000000001
 40
0.0
 40
0.0
 40
0.0
 40
0.0
 40
0.0527999669040858
 40
0.1669635268675991
 40
0.2811327591463533
 40
0.3952229123256731
 40
0.5092121510862109
 40
0.6231221326272998
 40
0.7370107398286212
 40
0.8509380423639665
 40
0.9649391695118724
 40
1.0
 40
1.0
 40
1.0
 40
1.0
 10
-714.0511425427212
 20
-1781.534074550782
 30
0.0
 10
-714.0395791205046
 20
-1781.518944671512
 30
0.0
 10
-714.0030133825113
 20
-1781.471101118718
 30
0.0
 10
-713.9900445108569
 20
-1781.362547804888
 30
0.0
 10
-714.0149273546231
 20
-1781.227164509556
 30
0.0
 10
-714.0888933384143
 20
-1781.096363662149
 30
0.0
 10
-714.2004637494387
 20
-1780.986963917413
 30
0.0
 10
-714.3377770420301
 20
-1780.910708114026
 30
0.0
 10
-714.4853194926418
 20
-1780.876173353958
 30
0.0
 10
-714.6260675946705
 20
-1780.88751223096
 30
0.0
 10
-714.7184063423559
 20
-1780.929672507079
 30
0.0
 10
-714.7588606336857
 20
-1780.965462277322
 30
0.0
 10
-714.7683758787106
 20
-1780.973880381361
 30
0.0
  0
SPLINE
  5
3871BB
330
18
100
AcDbEntity
  8
姿図
100
AcDbSpline
210
0.0
220
0.0
230
1.0
 70
     8
 71
     3
 72
    16
 73
    12
 74
     0
 42
0.000000001
 43
0.0000000001
 40
0.0
 40
0.0
 40
0.0
 40
0.0
 40
0.1174297454219368
 40
0.2349266879079547
 40
0.3524296706529034
 40
0.4698503810885171
 40
0.5871686579323736
 40
0.7044052027234459
 40
0.8216195098714836
 40
0.9388730717984826
 40
1.0
 40
1.0
 40
1.0
 40
1.0
 10
-719.0873399355504
 20
-1778.146363787102
 30
0.0
 10
-719.078987879514
 20
-1778.104570348313
 30
0.0
 10
-719.0622789881273
 20
-1778.020959555189
 30
0.0
 10
-719.0996096811804
 20
-1777.882863393308
 30
0.0
 10
-719.1791646563714
 20
-1777.75492916182
 30
0.0
 10
-719.296198208266
 20
-1777.649712112545
 30
0.0
 10
-719.436055550469
 20
-1777.579712077419
 30
0.0
 10
-719.5839710047575
 20
-1777.552079150401
 30
0.0
 10
-719.7206127968537
 20
-1777.571846739952
 30
0.0
 10
-719.821373697763
 20
-1777.620281574874
 30
0.0
 10
-719.8563087593533
 20
-1777.672132104037
 30
0.0
 10
-719.8682802086977
 20
-1777.68990009857
 30
0.0
  0
ARC
  5
3871BC
330
18
100
AcDbEntity
  8
姿図
100
AcDbCircle
 10
-723.3959290879684
 20
-1790.124967968871
 30
0.0
 40
0.5018871360661932
100
AcDbArc
 50
234.4528501373527
 51
316.8293573371542
  0
ARC
  5
3871BD
330
18
100
AcDbEntity
  8
姿図
100
AcDbCircle
 10
-724.24328206676
 20
-1789.569432413069
 30
0.0
 40
0.5025004573778605
100
AcDbArc
 50
156.8119267337705
 51
238.9765385560621
  0
SPLINE
  5
3871BE
330
18
100
AcDbEntity
  8
姿図
100
AcDbSpline
210
0.0
220
0.0
230
1.0
 70
     8
 71
     3
 72
     9
 73
     5
 74
     0
 42
0.000000001
 43
0.0000000001
 40
0.0
 40
0.0
 40
0.0
 40
0.0
 40
0.6609508714152104
 40
1.0
 40
1.0
 40
1.0
 40
1.0
 10
-722.4303831784077
 20
-1789.095656177747
 30
0.0
 10
-722.390665579909
 20
-1789.064657406199
 30
0.0
 10
-722.3305739751975
 20
-1789.017757140403
 30
0.0
 10
-722.3126273531565
 20
-1789.018080225859
 30
0.0
 10
-722.3065425665927
 20
-1789.018189767701
 30
0.0
  0
LINE
  5
3871BF
330
18
100
AcDbEntity
  8
姿図
100
AcDbLine
 10
-722.4303831784077
 20
-1789.095656177747
 30
0.0
 11
-720.4584049057512
 21
-1786.482325277286
 31
0.0
  0
LINE
  5
3871C0
330
18
100
AcDbEntity
  8
姿図
100
AcDbLine
 10
-714.7683758787106
 20
-1780.973880381361
 30
0.0
 11
-720.4584049057512
 21
-1786.482325277286
 31
0.0
  0
LINE
  5
3871C1
330
18
100
AcDbEntity
  8
姿図
100
AcDbLine
 10
-722.3065425665927
 20
-1789.018189767701
 30
0.0
 11
-722.7436564228502
 21
-1789.6020149891
 31
0.0
  0
SPLINE
  5
3871C2
330
18
100
AcDbEntity
  8
姿図
100
AcDbSpline
210
0.0
220
0.0
230
1.0
 70
     8
 71
     3
 72
    16
 73
    12
 74
     0
 42
0.000000001
 43
0.0000000001
 40
0.0
 40
0.0
 40
0.0
 40
0.0
 40
0.0394852052514543
 40
0.1711254294326242
 40
0.3026740388401716
 40
0.4341069110668211
 40
0.5654495489249826
 40
0.6967657489060504
 40
0.8281267758854145
 40
0.9595747301663212
 40
0.9999999999999998
 40
0.9999999999999998
 40
0.9999999999999998
 40
0.9999999999999998
 10
-710.3341151665026
 20
-1786.155729997776
 30
0.0
 10
-710.3261037083433
 20
-1786.146344650224
 30
0.0
 10
-710.2913827487037
 20
-1786.105669374004
 30
0.0
 10
-710.2748688259907
 20
-1786.005273722179
 30
0.0
 10
-710.2912844286866
 20
-1785.871077239795
 30
0.0
 10
-710.3583155458958
 20
-1785.738393732008
 30
0.0
 10
-710.4643845367546
 20
-1785.624980561614
 30
0.0
 10
-710.5986867683586
 20
-1785.542658725252
 30
0.0
 10
-710.7454836716486
 20
-1785.501338771179
 30
0.0
 10
-710.8564988254537
 20
-1785.503334452906
 30
0.0
 10
-710.9124633491718
 20
-1785.51874866778
 30
0.0
 10
-710.9256264290179
 20
-1785.522374152778
 30
0.0
  0
LWPOLYLINE
  5
3871C3
330
18
100
AcDbEntity
  8
姿図
100
AcDbPolyline
 90
        3
 70
   128
 43
0.0
 10
-721.6278028034557
 20
-1785.716749346744
 10
-720.0541458349971
 20
-1781.027369172152
 10
-719.0873399355504
 20
-1778.146363787102
  0
LINE
  5
3871C4
330
18
100
AcDbEntity
  8
姿図
100
AcDbLine
 10
-723.416147915695
 20
-1788.450302209831
 30
0.0
 11
-721.6278028034557
 21
-1785.716749346744
 31
0.0
  0
SPLINE
  5
3871C5
330
18
100
AcDbEntity
  8
姿図
100
AcDbSpline
210
0.0
220
0.0
230
1.0
 70
     8
 71
     3
 72
     9
 73
     5
 74
     0
 42
0.000000001
 43
0.0000000001
 40
0.0
 40
0.0
 40
0.0
 40
0.0
 40
0.3390486219218294
 40
1.0
 40
1.0
 40
1.0
 40
1.0
 10
-723.4155400791141
 20
-1788.292156668211
 30
0.0
 10
-723.4105216187562
 20
-1788.299316137577
 30
0.0
 10
-723.3957200238427
 20
-1788.320432487574
 30
0.0
 10
-723.4080189340466
 20
-1788.398622447841
 30
0.0
 10
-723.416147915695
 20
-1788.450302209831
 30
0.0
  0
LINE
  5
3871C6
330
18
100
AcDbEntity
  8
姿図
100
AcDbLine
 10
-723.8178116625431
 20
-1788.898793101863
 30
0.0
 11
-723.4155400791141
 21
-1788.292156668211
 31
0.0
  0
SPLINE
  5
3871C7
330
18
100
AcDbEntity
  8
姿図
100
AcDbSpline
210
0.0
220
0.0
230
1.0
 70
     8
 71
     3
 72
    15
 73
    11
 74
     0
 42
0.000000001
 43
0.0000000001
 40
0.0
 40
0.0
 40
0.0
 40
0.0
 40
0.1360096913435316
 40
0.2720990341160352
 40
0.4081915302347001
 40
0.5441924195251904
 40
0.6800713526896613
 40
0.8158570138912317
 40
0.951616255337884
 40
1.0
 40
1.0
 40
1.0
 40
1.0
 10
-724.736163503454
 20
-1776.480961076862
 30
0.0
 10
-724.7468201714394
 20
-1776.435759787346
 30
0.0
 10
-724.7681397482816
 20
-1776.345330737058
 30
0.0
 10
-724.8577778604957
 20
-1776.21948816914
 30
0.0
 10
-724.9785976849079
 20
-1776.119146847307
 30
0.0
 10
-725.1209865237224
 20
-1776.055451801418
 30
0.0
 10
-725.2685779784724
 20
-1776.034967031654
 30
0.0
 10
-725.4015073216527
 20
-1776.062397425229
 30
0.0
 10
-725.4930565516565
 20
-1776.111730518311
 30
0.0
 10
-725.5215311640158
 20
-1776.159548411172
 30
0.0
 10
-725.5290128954839
 20
-1776.172112607981
 30
0.0
  0
ARC
  5
3871C8
330
18
100
AcDbEntity
  8
姿図
100
AcDbCircle
 10
-730.8836026665477
 20
-1796.505195803058
 30
0.0
 40
13.9033467641382
100
AcDbArc
 50
88.47507936346052
 51
102.5473991742728
  0
SPLINE
  5
3871C9
330
18
100
AcDbEntity
  8
姿図
100
AcDbSpline
210
0.0
220
0.0
230
1.0
 70
    11
 71
     3
 72
    26
 73
    22
 74
     0
 42
0.000000001
 43
0.0000000001
 40
0.0
 40
0.0
 40
0.0
 40
0.0
 40
0.053641812631852
 40
0.107285434177012
 40
0.160893882724486
 40
0.2145326382521879
 40
0.2682367622991125
 40
0.3219387539829401
 40
0.3755745801946092
 40
0.4291830184883497
 40
0.4828457002683538
 40
0.5365598366894359
 40
0.590242013897773
 40
0.643858905031586
 40
0.6974791561404629
 40
0.7511658009505072
 40
0.8048786115165489
 40
0.8585362646053843
 40
0.9121437075781567
 40
0.96578455914139
 40
1.0
 40
1.0
 40
1.0
 40
1.0
 10
-732.6251541375312
 20
-1783.684957292569
 30
0.0
 10
-732.7149489875146
 20
-1783.709294409816
 30
0.0
 10
-732.8945417155481
 20
-1783.757969465008
 30
0.0
 10
-733.1501155963431
 20
-1783.784404958662
 30
0.0
 10
-733.3584401158604
 20
-1783.772152727989
 30
0.0
 10
-733.4977897774273
 20
-1783.718521176005
 30
0.0
 10
-733.5527885138762
 20
-1783.628103336661
 30
0.0
 10
-733.51781993684
 20
-1783.508778184376
 30
0.0
 10
-733.3972410909467
 20
-1783.373024919639
 30
0.0
 10
-733.2046892963472
 20
-1783.236455033962
 30
0.0
 10
-732.9611726246294
 20
-1783.115963195436
 30
0.0
 10
-732.6932470766704
 20
-1783.027343906043
 30
0.0
 10
-732.4306859333319
 20
-1782.982547495263
 30
0.0
 10
-732.2030100217715
 20
-1782.987232892971
 30
0.0
 10
-732.0359419119836
 20
-1783.039965009276
 30
0.0
 10
-731.9488051893346
 20
-1783.132942406237
 30
0.0
 10
-731.9523060291857
 20
-1783.253504789788
 30
0.0
 10
-732.0465212999125
 20
-1783.386630378433
 30
0.0
 10
-732.220809540929
 20
-1783.516489994316
 30
0.0
 10
-732.4264122394541
 20
-1783.618229525727
 30
0.0
 10
-732.5694488446101
 20
-1783.666254191542
 30
0.0
 10
-732.6251541375312
 20
-1783.684957292569
 30
0.0
1001
ACAD_SPLINE_DATA
1070
   100
1070
     1
1070
   101
1070
     0
1070
   102
1070
    15
1001
ACAD_SPLINE_DATA2
1070
   103
1070
     1
1070
   104
1070
    15
  0
SPLINE
  5
3871CA
330
18
100
AcDbEntity
  8
姿図
100
AcDbSpline
210
0.0
220
0.0
230
1.0
 70
     8
 71
     3
 72
    15
 73
    11
 74
     0
 42
0.000000001
 43
0.0000000001
 40
0.0
 40
0.0
 40
0.0
 40
0.0
 40
0.0214663011356446
 40
0.1767675289800762
 40
0.3319299685337622
 40
0.4869873914084351
 40
0.642015964847619
 40
0.797095969135948
 40
0.9522749968249188
 40
1.0
 40
1.0
 40
1.0
 40
1.0
 10
-708.5406818101226
 20
-1791.3745018412
 30
0.0
 10
-708.5367889796908
 20
-1791.370368679602
 30
0.0
 10
-708.5047328740865
 20
-1791.336333530373
 30
0.0
 10
-708.4857769920089
 20
-1791.243799216996
 30
0.0
 10
-708.4935008081823
 20
-1791.111424277804
 30
0.0
 10
-708.5534102604261
 20
-1790.977228628739
 30
0.0
 10
-708.653734961993
 20
-1790.859947320004
 30
0.0
 10
-708.7843652393162
 20
-1790.772249652035
 30
0.0
 10
-708.8971776642292
 20
-1790.733866411454
 30
0.0
 10
-708.9601579273148
 20
-1790.726582898785
 30
0.0
 10
-708.9749714982573
 20
-1790.724869745706
 30
0.0
  0
ARC
  5
3871CB
330
18
100
AcDbEntity
  8
姿図
100
AcDbCircle
 10
-734.00196721166
 20
-1782.384543260135
 30
0.0
 40
0.5580199483673525
100
AcDbArc
 50
221.7655111506945
 51
280.1045089975161
  0
SPLINE
  5
3871CC
330
18
100
AcDbEntity
  8
姿図
100
AcDbSpline
210
0.0
220
0.0
230
1.0
 70
     8
 71
     3
 72
    14
 73
    10
 74
     0
 42
0.000000001
 43
0.0000000001
 40
0.0
 40
0.0
 40
0.0
 40
0.0
 40
0.1615605581326572
 40
0.3232130607637706
 40
0.4848737853817472
 40
0.646425539553724
 40
0.8078312743654965
 40
0.9691270811209619
 40
1.0
 40
1.0
 40
1.0
 40
1.0
 10
-730.1745521372821
 20
-1776.84603278421
 30
0.0
 10
-730.2025714680105
 20
-1776.804282505243
 30
0.0
 10
-730.258626075336
 20
-1776.720758187128
 30
0.0
 10
-730.3869578961776
 20
-1776.626208642117
 30
0.0
 10
-730.5303001392576
 20
-1776.568889728786
 30
0.0
 10
-730.6774972622787
 20
-1776.555600069353
 30
0.0
 10
-730.8060653990367
 20
-1776.590654707044
 30
0.0
 10
-730.889126758489
 20
-1776.639964220008
 30
0.0
 10
-730.9119155682774
 20
-1776.683159758918
 30
0.0
 10
-730.9155767107112
 20
-1776.690099349969
 30
0.0
  0
LINE
  5
3871CD
330
18
100
AcDbEntity
  8
姿図
100
AcDbLine
 10
-734.0379476158446
 20
-1782.560326838032
 30
0.0
 11
-730.1745521372821
 21
-1776.84603278421
 31
0.0
  0
SPLINE
  5
3871CE
330
18
100
AcDbEntity
  8
姿図
100
AcDbSpline
210
0.0
220
0.0
230
1.0
 70
     8
 71
     3
 72
    10
 73
     6
 74
     0
 42
0.000000001
 43
0.0000000001
 40
0.0
 40
0.0
 40
0.0
 40
0.0
 40
0.2362684397081496
 40
0.6407261537646406
 40
1.0
 40
1.0
 40
1.0
 40
1.0
 10
-734.4181815012225
 20
-1782.756231204438
 30
0.0
 10
-734.3949464086318
 20
-1782.728307669714
 30
0.0
 10
-734.3319361668655
 20
-1782.652583044685
 30
0.0
 10
-734.2010804293536
 20
-1782.566926557119
 30
0.0
 10
-734.0901373497636
 20
-1782.562438231661
 30
0.0
 10
-734.0379476158446
 20
-1782.560326838032
 30
0.0
  0
ARC
  5
3871CF
330
18
100
AcDbEntity
  8
姿図
100
AcDbCircle
 10
-738.6857436653343
 20
-1784.679208764896
 30
0.0
 40
0.4581452816697934
100
AcDbArc
 50
237.4986503477797
 51
304.271011446042
  0
LINE
  5
3871D0
330
18
100
AcDbEntity
  8
姿図
100
AcDbLine
 10
-738.4954149426057
 20
-1784.828829001898
 30
0.0
 11
-734.5745607971768
 21
-1779.1860069853
 31
0.0
  0
SPLINE
  5
3871D1
330
18
100
AcDbEntity
  8
姿図
100
AcDbSpline
210
0.0
220
0.0
230
1.0
 70
     8
 71
     3
 72
    10
 73
     6
 74
     0
 42
0.000000001
 43
0.0000000001
 40
0.0
 40
0.0
 40
0.0
 40
0.0
 40
0.2362689626014274
 40
0.6407261172282404
 40
1.0
 40
1.0
 40
1.0
 40
1.0
 10
-738.9319140475645
 20
-1785.065598777745
 30
0.0
 10
-738.9076052594068
 20
-1785.037183156158
 30
0.0
 10
-738.8416834587633
 20
-1784.960124237005
 30
0.0
 10
-738.6982637596182
 20
-1784.860683818033
 30
0.0
 10
-738.5603107242669
 20
-1784.839020055625
 30
0.0
 10
-738.4954149426057
 20
-1784.828829001898
 30
0.0
  0
SPLINE
  5
3871D2
330
18
100
AcDbEntity
  8
姿図
100
AcDbSpline
210
0.0
220
0.0
230
1.0
 70
     8
 71
     3
 72
    13
 73
     9
 74
     0
 42
0.000000001
 43
0.0000000001
 40
0.0
 40
0.0
 40
0.0
 40
0.0
 40
0.0055369412023248
 40
0.0603748962709687
 40
0.3139725650307231
 40
0.5530209653907887
 40
0.7761864081481651
 40
1.0
 40
1.0
 40
1.0
 40
1.0
 10
-722.3065425665927
 20
-1789.018189767701
 30
0.0
 10
-722.3074394947325
 20
-1789.019105314366
 30
0.0
 10
-722.3172196136547
 20
-1789.029088449987
 30
0.0
 10
-722.3703370849944
 20
-1789.078951028571
 30
0.0
 10
-722.4822799785737
 20
-1789.147927973153
 30
0.0
 10
-722.6509830835888
 20
-1789.18816422243
 30
0.0
 10
-722.8212606055635
 20
-1789.180965362875
 30
0.0
 10
-722.9196380316966
 20
-1789.132886379659
 30
0.0
 10
-722.9688980716428
 20
-1789.108812029202
 30
0.0
  0
SPLINE
  5
3871D3
330
18
100
AcDbEntity
  8
姿図
100
AcDbSpline
210
0.0
220
0.0
230
1.0
 70
     8
 71
     3
 72
    12
 73
     8
 74
     0
 42
0.000000001
 43
0.0000000001
 40
0.0
 40
0.0
 40
0.0
 40
0.0
 40
0.0055410638132308
 40
0.265283517985279
 40
0.5250359856227425
 40
0.7827945867853985
 40
1.0
 40
1.0
 40
1.0
 40
1.0
 10
-723.4155400791141
 20
-1788.292156668211
 30
0.0
 10
-723.4160041531712
 20
-1788.293355758409
 30
0.0
 10
-723.4382221247706
 20
-1788.350763302711
 30
0.0
 10
-723.4625085024423
 20
-1788.474752396112
 30
0.0
 10
-723.4371310587776
 20
-1788.662080842418
 30
0.0
 10
-723.3588819469257
 20
-1788.828697340679
 30
0.0
 10
-723.2704762546472
 20
-1788.903593424389
 30
0.0
 10
-723.2300475182782
 20
-1788.937844092478
 30
0.0
  0
LINE
  5
3871D4
330
18
100
AcDbEntity
  8
姿図
100
AcDbLine
 10
-722.9688980716428
 20
-1789.108812029202
 30
0.0
 11
-722.9916919434254
 21
-1789.093944488732
 31
0.0
  0
LINE
  5
3871D5
330
18
100
AcDbEntity
  8
姿図
100
AcDbLine
 10
-723.2073520988997
 20
-1788.952759525664
 30
0.0
 11
-723.2300475182782
 21
-1788.937844092478
 31
0.0
  0
ARC
  5
3871D6
330
18
100
AcDbEntity
  8
姿図
100
AcDbCircle
 10
-727.2349918936555
 20
-1795.340285880886
 30
0.0
 40
7.551316127335844
100
AcDbArc
 50
55.81072655062719
 51
57.76661480535712
  0
SPLINE
  5
3871D7
330
18
100
AcDbEntity
  8
姿図
100
AcDbSpline
210
0.0
220
0.0
230
1.0
 70
     8
 71
     3
 72
     9
 73
     5
 74
     0
 42
0.000000001
 43
0.0000000001
 40
0.0
 40
0.0
 40
0.0
 40
0.0
 40
0.4891716103101315
 40
1.0
 40
1.0
 40
1.0
 40
1.0
 10
-721.6664992080173
 20
-1785.784763156052
 30
0.0
 10
-721.6578892197113
 20
-1785.775100610424
 30
0.0
 10
-721.6402880586359
 20
-1785.755347735515
 30
0.0
 10
-721.6320242112888
 20
-1785.729799904249
 30
0.0
 10
-721.6278028034557
 20
-1785.716749346744
 30
0.0
  0
LINE
  5
3871D8
330
18
100
AcDbEntity
  8
姿図
100
AcDbLine
 10
-720.4584049057512
 20
-1786.482325277286
 30
0.0
 11
-720.4849541275908
 21
-1786.521567474859
 31
0.0
  0
SPLINE
  5
3871D9
330
18
100
AcDbEntity
  8
姿図
100
AcDbSpline
210
0.0
220
0.0
230
1.0
 70
     8
 71
     3
 72
    10
 73
     6
 74
     0
 42
0.000000001
 43
0.0000000001
 40
0.0
 40
0.0
 40
0.0
 40
0.0
 40
0.3342445797411049
 40
0.7994817502644703
 40
1.0
 40
1.0
 40
1.0
 40
1.0
 10
-722.4529403034392
 20
-1789.120578756607
 30
0.0
 10
-722.4501764914958
 20
-1789.115947788987
 30
0.0
 10
-722.4435657120116
 20
-1789.104870947888
 30
0.0
 10
-722.4363833695186
 20
-1789.099768524138
 30
0.0
 10
-722.431772055689
 20
-1789.096608071506
 30
0.0
 10
-722.4303831784077
 20
-1789.095656177747
 30
0.0
  0
ARC
  5
3871DA
330
18
100
AcDbEntity
  8
姿図
100
AcDbCircle
 10
-739.4693116423011
 20
-1806.256396560381
 30
0.0
 40
6.600434030352821
100
AcDbArc
 50
136.7188946931166
 51
170.9021344557241
  0
LWPOLYLINE
  5
3871DB
330
18
100
AcDbEntity
  8
姿図
100
AcDbPolyline
 90
       20
 70
   128
 43
0.0
 10
-749.4114447556602
 20
-1800.454002304525
 10
-749.0780429336955
 20
-1800.344073272614
 10
-747.9676470019112
 20
-1800.043780620826
 10
-746.8158322425697
 20
-1799.830061262384
 10
-745.6293589443173
 20
-1799.704169409609
 10
-744.4151902275097
 20
-1799.666842966612
 10
-743.1804508851781
 20
-1799.718301820021
 10
-741.9323865532727
 20
-1799.858241757005
 10
-740.6783228808993
 20
-1800.085845112991
 10
-739.4256171273012
 20
-1800.399773358107
 10
-738.1816212833659
 20
-1800.798184588449
 10
-736.9536359735083
 20
-1801.278743412714
 10
-735.7488669917357
 20
-1801.838626275321
 10
-734.5743844718851
 20
-1802.474548832572
 10
-733.4370817285933
 20
-1803.182780591419
 10
-732.343631793361
 20
-1803.959163159577
 10
-731.3004508653285
 20
-1804.799142754112
 10
-730.3136614327867
 20
-1805.697788451063
 10
-729.3890558885922
 20
-1806.649827640097
 10
-728.5320576760396
 20
-1807.649672259057
  0
ARC
  5
3871DC
330
18
100
AcDbEntity
  8
姿図
100
AcDbCircle
 10
-734.7751245133045
 20
-1809.092371718418
 30
0.0
 40
17.47114862279017
100
AcDbArc
 50
2.60855655154647
 51
40.17109152724677
  0
LWPOLYLINE
  5
3871DD
330
18
100
AcDbEntity
  8
姿図
100
AcDbPolyline
 90
       36
 70
   128
 43
0.0
 10
-728.9493057140332
 20
-1807.684699885523
 10
-729.7988411355849
 20
-1806.716398649712
 10
-730.7128806624214
 20
-1805.795350245977
 10
-731.6861584080206
 20
-1804.926859392672
 10
-732.71306801835
 20
-1804.115930088025
 10
-733.7876941173662
 20
-1803.367233767468
 10
-734.9038444110608
 20
-1802.6850816437
 10
-736.0550901879477
 20
-1802.073405125723
 10
-737.2347989170139
 20
-1801.535726352363
 10
-738.4361763945707
 20
-1801.075145264763
 10
-739.6522993422057
 20
-1800.694312420801
 10
-740.8761641390765
 20
-1800.395425192398
 10
-742.100719090592
 20
-1800.180200769769
 10
-743.3189111850711
 20
-1800.049881863718
 10
-744.5237209966035
 20
-1800.005219595043
 10
-745.7082097709807
 20
-1800.046470261603
 10
-746.8655539992832
 20
-1800.173394766586
 10
-747.9890842720068
 20
-1800.385265080898
 10
-749.072330883269
 20
-1800.680858633432
 10
-750.1090518189502
 20
-1801.058472947362
 10
-751.0932768380188
 20
-1801.515932839098
 10
-752.0193330734468
 20
-1802.050603675727
 10
-752.8818893604875
 20
-1802.659403279313
 10
-753.6759738527415
 20
-1803.338827303225
 10
-754.3970134113513
 20
-1804.08495980536
 10
-755.0408555839213
 20
-1804.893502664756
 10
-755.6037879904233
 20
-1805.759800459437
 10
-756.0825705918788
 20
-1806.678859094976
 10
-756.4744447453439
 20
-1807.64538600966
 10
-756.777152630972
 20
-1808.653814315755
 10
-756.9889497643624
 20
-1809.698333594731
 10
-757.1086178381747
 20
-1810.772925444611
 10
-757.1354653806765
 20
-1811.87140264041
 10
-757.0693389509961
 20
-1812.987433845405
 10
-756.9106191878604
 20
-1814.114593036902
 10
-756.8216129463397
 20
-1814.566084298806
  0
LINE
  5
3871DE
330
18
100
AcDbEntity
  8
姿図
100
AcDbLine
 10
-727.7329009093493
 20
-1810.040331986673
 30
0.0
 11
-729.4119470603259
 21
-1807.951811265109
 31
0.0
  0
LINE
  5
3871DF
330
18
100
AcDbEntity
  8
姿図
100
AcDbLine
 10
-728.988281423784
 20
-1807.921150572734
 30
0.0
 11
-727.0033458763427
 21
-1810.390158881935
 31
0.0
  0
LINE
  5
3871E0
330
18
100
AcDbEntity
  8
姿図
100
AcDbLine
 10
-727.0033458763427
 20
-1810.390158881935
 30
0.0
 11
-726.8900763856053
 21
-1810.527349353588
 31
0.0
  0
LINE
  5
3871E1
330
18
100
AcDbEntity
  8
姿図
100
AcDbLine
 10
-745.7465515493245
 20
-1800.552069016607
 30
0.0
 11
-745.7498851016238
 21
-1800.556527935201
 31
0.0
  0
LINE
  5
3871E2
330
18
100
AcDbEntity
  8
姿図
100
AcDbLine
 10
-745.8253065577617
 20
-1800.667429520639
 30
0.0
 11
-745.7271877066117
 21
-1800.536181008958
 31
0.0
  0
LINE
  5
3871E3
330
18
100
AcDbEntity
  8
姿図
100
AcDbLine
 10
-746.2080322109218
 20
-1800.59479147501
 30
0.0
 11
-746.2143986899526
 21
-1800.603293117889
 31
0.0
  0
LINE
  5
3871E4
330
18
100
AcDbEntity
  8
姿図
100
AcDbLine
 10
-746.2853838610125
 20
-1800.717168529498
 30
0.0
 11
-746.179821810561
 21
-1800.576202697703
 31
0.0
  0
LINE
  5
3871E5
330
18
100
AcDbEntity
  8
姿図
100
AcDbLine
 10
-746.6643650301002
 20
-1800.651659167388
 30
0.0
 11
-746.6737624602292
 21
-1800.664186422224
 31
0.0
  0
LINE
  5
3871E6
330
18
100
AcDbEntity
  8
姿図
100
AcDbLine
 10
-746.7402415404931
 20
-1800.780923885923
 30
0.0
 11
-746.6288079072082
 21
-1800.632358969339
 31
0.0
  0
LINE
  5
3871E7
330
18
100
AcDbEntity
  8
姿図
100
AcDbLine
 10
-747.1151018673218
 20
-1800.722614891062
 30
0.0
 11
-747.1275236631035
 21
-1800.739146462667
 31
0.0
  0
LINE
  5
3871E8
330
18
100
AcDbEntity
  8
姿図
100
AcDbLine
 10
-747.1894298103042
 20
-1800.858632113197
 30
0.0
 11
-747.0730482028584
 21
-1800.703710990717
 31
0.0
  0
LINE
  5
3871E9
330
18
100
AcDbEntity
  8
姿図
100
AcDbLine
 10
-747.5597972172274
 20
-1800.807588516595
 30
0.0
 11
-747.575233171222
 21
-1800.828101018111
 31
0.0
  0
LINE
  5
3871EA
330
18
100
AcDbEntity
  8
姿図
100
AcDbLine
 10
-747.6325067870813
 20
-1800.950214526585
 30
0.0
 11
-747.5118410183394
 21
-1800.789829287794
 31
0.0
  0
LINE
  5
3871EB
330
18
100
AcDbEntity
  8
姿図
100
AcDbLine
 10
-747.9980118306293
 20
-1800.906496037369
 30
0.0
 11
-748.0164497597642
 21
-1800.930961138741
 31
0.0
  0
LINE
  5
3871EC
330
18
100
AcDbEntity
  8
姿図
100
AcDbLine
 10
-748.0690328923656
 20
-1801.055584647625
 30
0.0
 11
-747.9446144077448
 21
-1800.89044295657
 31
0.0
  0
LINE
  5
3871ED
330
18
100
AcDbEntity
  8
姿図
100
AcDbLine
 10
-748.4293168304184
 20
-1801.019239664877
 30
0.0
 11
-748.4507386247187
 21
-1801.047625613287
 31
0.0
  0
LINE
  5
3871EE
330
18
100
AcDbEntity
  8
姿図
100
AcDbLine
 10
-748.4985808954063
 20
-1801.174634231165
 30
0.0
 11
-748.370859645442
 21
-1801.005338134561
 31
0.0
  0
LINE
  5
3871EF
330
18
100
AcDbEntity
  8
姿図
100
AcDbLine
 10
-748.8532841626628
 20
-1801.145709158569
 30
0.0
 11
-748.8776707243378
 21
-1801.177977547244
 31
0.0
  0
LINE
  5
3871F0
330
18
100
AcDbEntity
  8
姿図
100
AcDbLine
 10
-748.9207225776388
 20
-1801.307248378589
 30
0.0
 11
-748.7901022501136
 21
-1801.134326818729
 31
0.0
  0
LINE
  5
3871F1
330
18
100
AcDbEntity
  8
姿図
100
AcDbLine
 10
-749.2694971333257
 20
-1801.285778024656
 30
0.0
 11
-749.2968247547732
 21
-1801.321892347422
 31
0.0
  0
LINE
  5
3871F2
330
18
100
AcDbEntity
  8
姿図
100
AcDbLine
 10
-749.3350450316555
 20
-1801.453295177703
 30
0.0
 11
-749.2018926004974
 21
-1801.277232320779
 31
0.0
  0
LINE
  5
3871F3
330
18
100
AcDbEntity
  8
姿図
100
AcDbLine
 10
-749.6775456338147
 20
-1801.439306842345
 30
0.0
 11
-749.7077861622574
 21
-1801.479224984289
 31
0.0
  0
LINE
  5
3871F4
330
18
100
AcDbEntity
  8
姿図
100
AcDbLine
 10
-749.7411383135004
 20
-1801.612630739731
 30
0.0
 11
-749.6057961395352
 21
-1801.433873724264
 31
0.0
  0
LINE
  5
3871F5
330
18
100
AcDbEntity
  8
姿図
100
AcDbLine
 10
-750.0770276227081
 20
-1801.60614564064
 30
0.0
 11
-750.110150518144
 21
-1801.64982106639
 31
0.0
  0
LINE
  5
3871F6
330
18
100
AcDbEntity
  8
姿図
100
AcDbLine
 10
-750.1386003817515
 20
-1801.785099009478
 30
0.0
 11
-750.0013757583101
 21
-1801.604044304521
 31
0.0
  0
LINE
  5
3871F7
330
18
100
AcDbEntity
  8
姿図
100
AcDbLine
 10
-750.4675482202546
 20
-1801.786130333263
 30
0.0
 11
-750.5035197322777
 21
-1801.833513132701
 31
0.0
  0
LINE
  5
3871F8
330
18
100
AcDbEntity
  8
姿図
100
AcDbLine
 10
-750.5270395259034
 20
-1801.970528604929
 30
0.0
 11
-750.3878810865144
 21
-1801.78709787897
 31
0.0
  0
LINE
  5
3871F9
330
18
100
AcDbEntity
  8
姿図
100
AcDbLine
 10
-750.8487244005054
 20
-1801.979079344652
 30
0.0
 11
-750.8875069097612
 21
-1802.030117373417
 31
0.0
  0
LINE
  5
3871FA
330
18
100
AcDbEntity
  8
姿図
100
AcDbLine
 10
-750.906073625506
 20
-1802.168735431152
 30
0.0
 11
-750.7647904745799
 21
-1801.982672438789
 31
0.0
  0
LINE
  5
3871FB
330
18
100
AcDbEntity
  8
姿図
100
AcDbLine
 10
-751.2201792136123
 20
-1802.184803961656
 30
0.0
 11
-751.2617320909912
 21
-1802.239441816477
 31
0.0
  0
LINE
  5
3871FC
330
18
100
AcDbEntity
  8
姿図
100
AcDbLine
 10
-751.2753279172842
 20
-1802.379525953576
 30
0.0
 11
-751.1317206804715
 21
-1802.190555864904
 31
0.0
  0
LINE
  5
3871FD
330
18
100
AcDbEntity
  8
姿図
100
AcDbLine
 10
-751.581545896589
 20
-1802.403101581816
 30
0.0
 11
-751.6258270055321
 21
-1802.46127994709
 31
0.0
  0
LINE
  5
3871FE
330
18
100
AcDbEntity
  8
姿図
100
AcDbLine
 10
-751.6344366517931
 20
-1802.6026920709
 30
0.0
 11
-751.4882907259025
 21
-1802.410520615392
 31
0.0
  0
LINE
  5
3871FF
330
18
100
AcDbEntity
  8
姿図
100
AcDbLine
 10
-751.9324696122777
 20
-1802.633755196574
 30
0.0
 11
-751.9794312443227
 21
-1802.695411539118
 31
0.0
  0
LINE
  5
387200
330
18
100
AcDbEntity
  8
姿図
100
AcDbLine
 10
-751.9830473945339
 20
-1802.838010556958
 30
0.0
 11
-751.8341315481246
 21
-1802.64232625721
 31
0.0
  0
LINE
  5
387201
330
18
100
AcDbEntity
  8
姿図
100
AcDbLine
 10
-752.2726039817016
 20
-1802.876537472399
 30
0.0
 11
-752.322196663692
 21
-1802.941605198194
 31
0.0
  0
LINE
  5
387202
330
18
100
AcDbEntity
  8
姿図
100
AcDbLine
 10
-752.3208147080423
 20
-1803.085253100572
 30
0.0
 11
-752.1688798466539
 21
-1802.885715912754
 31
0.0
  0
LINE
  5
387203
330
18
100
AcDbEntity
  8
姿図
100
AcDbLine
 10
-752.6016138057066
 20
-1803.131206238751
 30
0.0
 11
-752.6537840309015
 21
-1803.199620987274
 31
0.0
  0
LINE
  5
387204
330
18
100
AcDbEntity
  8
姿図
100
AcDbLine
 10
-752.6474071797948
 20
-1803.344173633719
 30
0.0
 11
-752.4921821477265
 21
-1803.140418606959
 31
0.0
  0
LINE
  5
387205
330
18
100
AcDbEntity
  8
姿図
100
AcDbLine
 10
-752.9191743395323
 20
-1803.397511673679
 30
0.0
 11
-752.9738666255561
 21
-1803.469200339026
 31
0.0
  0
LINE
  5
387206
330
18
100
AcDbEntity
  8
姿図
100
AcDbLine
 10
-752.9625001473488
 20
-1803.614517818703
 30
0.0
 11
-752.803692962429
 21
-1803.406145161664
 31
0.0
  0
LINE
  5
387207
330
18
100
AcDbEntity
  8
姿図
100
AcDbLine
 10
-753.2249729391724
 20
-1803.675191170796
 30
0.0
 11
-753.2821275231117
 21
-1803.750081217068
 31
0.0
  0
LINE
  5
387208
330
18
100
AcDbEntity
  8
姿図
100
AcDbLine
 10
-753.2657832716043
 20
-1803.896016775097
 30
0.0
 11
-753.1030728933865
 21
-1803.682594707012
 31
0.0
  0
LINE
  5
387209
330
18
100
AcDbEntity
  8
姿図
100
AcDbLine
 10
-753.5187065095183
 20
-1803.963969386546
 30
0.0
 11
-753.5782646162759
 21
-1804.041982764641
 31
0.0
  0
LINE
  5
38720A
330
18
100
AcDbEntity
  8
姿図
100
AcDbLine
 10
-753.5569587258087
 20
-1804.18839363842
 30
0.0
 11
-753.3899915158912
 21
-1803.969445698455
 31
0.0
  0
LINE
  5
38720B
330
18
100
AcDbEntity
  8
姿図
100
AcDbLine
 10
-753.8000875958917
 20
-1804.263558715913
 30
0.0
 11
-753.8619848527414
 21
-1804.344618707077
 31
0.0
  0
LINE
  5
38720C
330
18
100
AcDbEntity
  8
姿図
100
AcDbLine
 10
-753.8357379028313
 20
-1804.491361658545
 30
0.0
 11
-753.6641254845902
 21
-1804.266360907217
 31
0.0
  0
LINE
  5
38720D
330
18
100
AcDbEntity
  8
姿図
100
AcDbLine
 10
-754.0688386217826
 20
-1804.573665850842
 30
0.0
 11
-754.1330078571855
 21
-1804.657690317915
 31
0.0
  0
LINE
  5
38720E
330
18
100
AcDbEntity
  8
姿図
100
AcDbLine
 10
-754.1018448725226
 20
-1804.804620112624
 30
0.0
 11
-753.9251577103032
 21
-1804.572986944846
 31
0.0
  0
LINE
  5
38720F
330
18
100
AcDbEntity
  8
姿図
100
AcDbLine
 10
-754.3246923827572
 20
-1804.893983700398
 30
0.0
 11
-754.3910660958998
 21
-1804.980888795209
 31
0.0
  0
LINE
  5
387210
330
18
100
AcDbEntity
  8
姿図
100
AcDbLine
 10
-754.3550190158938
 20
-1805.127858867872
 30
0.0
 11
-754.1727763722056
 21
-1804.888947609
 31
0.0
  0
LINE
  5
387211
330
18
100
AcDbEntity
  8
姿図
100
AcDbLine
 10
-754.567304130765
 20
-1805.224069898631
 30
0.0
 11
-754.6359050414338
 21
-1805.313894595986
 31
0.0
  0
LINE
  5
387212
330
18
100
AcDbEntity
  8
姿図
100
AcDbLine
 10
-754.5950094274879
 20
-1805.460761232833
 30
0.0
 11
-754.405801029266
 21
-1805.212701208429
 31
0.0
  0
LINE
  5
387213
330
18
100
AcDbEntity
  8
姿図
100
AcDbLine
 10
-754.7962379093424
 20
-1805.563343476365
 30
0.0
 11
-754.8672836664969
 21
-1805.656379242543
 31
0.0
  0
LINE
  5
387214
330
18
100
AcDbEntity
  8
姿図
100
AcDbLine
 10
-754.8215787020088
 20
-1805.80299701855
 30
0.0
 11
-754.6182603291589
 21
-1805.536399479879
 31
0.0
  0
LINE
  5
387215
330
18
100
AcDbEntity
  8
姿図
100
AcDbLine
 10
-755.0112326055907
 20
-1805.911423291522
 30
0.0
 11
-755.0849724683274
 21
-1806.008004941785
 31
0.0
  0
LINE
  5
387216
330
18
100
AcDbEntity
  8
姿図
100
AcDbLine
 10
-755.0345045806862
 20
-1806.15423033302
 30
0.0
 11
-753.5875384046732
 21
-1804.256498911648
 31
0.0
  0
LINE
  5
387217
330
18
100
AcDbEntity
  8
姿図
100
AcDbLine
 10
-755.2120392896878
 20
-1806.267915464369
 30
0.0
 11
-755.2887570906896
 21
-1806.368425155974
 31
0.0
  0
LINE
  5
387218
330
18
100
AcDbEntity
  8
姿図
100
AcDbLine
 10
-755.233576000004
 20
-1806.514111976578
 30
0.0
 11
-753.0769606158282
 21
-1803.684806018542
 31
0.0
  0
LINE
  5
387219
330
18
100
AcDbEntity
  8
姿図
100
AcDbLine
 10
-755.3984149587086
 20
-1806.632407483889
 30
0.0
 11
-755.4784370067791
 21
-1806.737283841895
 31
0.0
  0
LINE
  5
38721A
330
18
100
AcDbEntity
  8
姿図
100
AcDbLine
 10
-755.4185960551558
 20
-1806.882288757526
 30
0.0
 11
-752.7726261252645
 21
-1803.409667203369
 31
0.0
  0
LINE
  5
38721B
330
18
100
AcDbEntity
  8
姿図
100
AcDbLine
 10
-755.5701208902695
 20
-1807.004469537889
 30
0.0
 11
-755.653824531412
 21
-1807.1142148806
 31
0.0
  0
LINE
  5
38721C
330
18
100
AcDbEntity
  8
姿図
100
AcDbLine
 10
-755.5893839756727
 20
-1807.25839702827
 30
0.0
 11
-752.4569281199448
 21
-1803.145420834721
 31
0.0
  0
LINE
  5
38721D
330
18
100
AcDbEntity
  8
姿図
100
AcDbLine
 10
-755.7269229717984
 20
-1807.38364253592
 30
0.0
 11
-755.814746467383
 21
-1807.498849872125
 31
0.0
  0
LINE
  5
38721E
330
18
100
AcDbEntity
  8
姿図
100
AcDbLine
 10
-755.745768539983
 20
-1807.642064205987
 30
0.0
 11
-752.130260409482
 21
-1802.892292855971
 31
0.0
  0
LINE
  5
38721F
330
18
100
AcDbEntity
  8
姿図
100
AcDbLine
 10
-755.8685851150885
 20
-1807.769450275946
 30
0.0
 11
-755.9610441054648
 21
-1807.890806728419
 31
0.0
  0
LINE
  5
387220
330
18
100
AcDbEntity
  8
姿図
100
AcDbLine
 10
-755.8875986121228
 20
-1808.032912575075
 30
0.0
 11
-751.793021084033
 21
-1802.65049190832
 31
0.0
  0
LINE
  5
387221
330
18
100
AcDbEntity
  8
姿図
100
AcDbLine
 10
-755.9948682684839
 20
-1808.161373018347
 30
0.0
 11
-756.0925732244104
 21
-1808.289700319828
 31
0.0
  0
LINE
  5
387222
330
18
100
AcDbEntity
  8
姿図
100
AcDbLine
 10
-756.0147312879335
 20
-1808.43055700563
 30
0.0
 11
-751.4456059288467
 21
-1802.420207809879
 31
0.0
  0
LINE
  5
387223
330
18
100
AcDbEntity
  8
姿図
100
AcDbLine
 10
-756.1055208679821
 20
-1808.55885489923
 30
0.0
 11
-756.2092034324075
 21
-1808.695135250635
 31
0.0
  0
LINE
  5
387224
330
18
100
AcDbEntity
  8
姿図
100
AcDbLine
 10
-756.1270434195922
 20
-1808.83460552371
 30
0.0
 11
-751.0884136926228
 21
-1802.201611935831
 31
0.0
  0
LINE
  5
387225
330
18
100
AcDbEntity
  8
姿図
100
AcDbLine
 10
-756.2002715932463
 20
-1808.961289861434
 30
0.0
 11
-756.3108208012566
 21
-1809.106712703347
 31
0.0
  0
LINE
  5
387226
330
18
100
AcDbEntity
  8
姿図
100
AcDbLine
 10
-756.2244217374428
 20
-1809.244658170819
 30
0.0
 11
-750.7218441118774
 21
-1801.994860640458
 31
0.0
  0
LINE
  5
387227
330
18
100
AcDbEntity
  8
姿図
100
AcDbLine
 10
-756.2788161967135
 20
-1809.36799655789
 30
0.0
 11
-756.3973239151026
 21
-1809.524026636014
 31
0.0
  0
LINE
  5
387228
330
18
100
AcDbEntity
  8
姿図
100
AcDbLine
 10
-756.3067727281659
 20
-1809.660308904759
 30
0.0
 11
-750.3462975816708
 21
-1801.800088603427
 31
0.0
  0
LINE
  5
387229
330
18
100
AcDbEntity
  8
姿図
100
AcDbLine
 10
-756.3407984058049
 20
-1809.778197437353
 30
0.0
 11
-756.468627821705
 21
-1809.946662261545
 31
0.0
  0
LINE
  5
38722A
330
18
100
AcDbEntity
  8
姿図
100
AcDbLine
 10
-756.3740134151539
 20
-1810.081151683332
 30
0.0
 11
-749.9621758141548
 21
-1801.617421376874
 31
0.0
  0
LINE
  5
38722B
330
18
100
AcDbEntity
  8
姿図
100
AcDbLine
 10
-756.3855847007034
 20
-1810.190729748726
 30
0.0
 11
-756.5246620567998
 21
-1810.374207074118
 31
0.0
  0
LINE
  5
38722C
330
18
100
AcDbEntity
  8
姿図
100
AcDbLine
 10
-756.4260772854103
 20
-1810.506767156423
 30
0.0
 11
-749.5698795336602
 21
-1801.446963788994
 31
0.0
  0
LINE
  5
38722D
330
18
100
AcDbEntity
  8
姿図
100
AcDbLine
 10
-749.4987239642086
 20
-1801.473318648834
 30
0.0
 11
-756.5653726197388
 21
-1810.806236780918
 31
0.0
  0
LWPOLYLINE
  5
38722E
330
18
100
AcDbEntity
  8
姿図
100
AcDbPolyline
 90
       21
 70
   128
 43
0.0
 10
-721.7175890909466
 20
-1817.645684001108
 10
-721.6189373126535
 20
-1817.562704058602
 10
-720.8486965767632
 20
-1816.843043753003
 10
-720.1532613932599
 20
-1816.058748287162
 10
-719.5365216199161
 20
-1815.214204471196
 10
-719.0019253957757
 20
-1814.314134174333
 10
-718.552464159266
 20
-1813.363570469511
 10
-718.1906499284127
 20
-1812.367830829445
 10
-717.9185077275778
 20
-1811.332482340108
 10
-717.73755813603
 20
-1810.263316417974
 10
-717.648812678135
 20
-1809.166312692413
 10
-717.6527692135388
 20
-1808.047602887102
 10
-717.7494040346402
 20
-1806.913448009355
 10
-717.9381777934868
 20
-1805.770185502334
 10
-718.2180348432328
 20
-1804.62421365835
 10
-718.5874098235823
 20
-1803.481937630062
 10
-719.0442375389584
 20
-1802.349748520666
 10
-719.5859608610363
 20
-1801.233975478555
 10
-720.2095544363469
 20
-1800.140859083468
 10
-720.9115266619082
 20
-1799.07651370772
 10
-721.6351827824845
 20
-1798.112801819306
  0
LINE
  5
38722F
330
18
100
AcDbEntity
  8
姿図
100
AcDbLine
 10
-725.0407452774797
 20
-1816.485688203306
 30
0.0
 11
-725.0407452774797
 21
-1816.504100530828
 31
0.0
  0
LINE
  5
387230
330
18
100
AcDbEntity
  8
姿図
100
AcDbLine
 10
-755.090686988296
 20
-1812.426036013977
 30
0.0
 11
-749.0983977418359
 21
-1804.421782316704
 31
0.0
  0
LINE
  5
387231
330
18
100
AcDbEntity
  8
姿図
100
AcDbLine
 10
-749.1376212083783
 20
-1804.755474642818
 30
0.0
 11
-754.4591523540358
 21
-1811.862990934471
 31
0.0
  0
LINE
  5
387232
330
18
100
AcDbEntity
  8
姿図
100
AcDbLine
 10
-753.9472011706192
 20
-1811.456515480782
 30
0.0
 11
-749.0157836831613
 21
-1804.858576444575
 31
0.0
  0
LINE
  5
387233
330
18
100
AcDbEntity
  8
姿図
100
AcDbLine
 10
-749.0430808880845
 20
-1805.195639216885
 30
0.0
 11
-752.9865111740178
 21
-1810.471422400981
 31
0.0
  0
LINE
  5
387234
330
18
100
AcDbEntity
  8
姿図
100
AcDbLine
 10
-753.2578713532492
 20
-1810.83446627555
 30
0.0
 11
-753.4503181440896
 21
-1811.091935121849
 31
0.0
  0
LINE
  5
387235
330
18
100
AcDbEntity
  8
姿図
100
AcDbLine
 10
-752.5968018209868
 20
-1810.225357928753
 30
0.0
 11
-748.9185740761811
 21
-1805.295795879604
 31
0.0
  0
LINE
  5
387236
330
18
100
AcDbEntity
  8
姿図
100
AcDbLine
 10
-748.9339170107646
 20
-1805.635890168972
 30
0.0
 11
-752.1830208551918
 21
-1809.990336894357
 31
0.0
  0
LINE
  5
387237
330
18
100
AcDbEntity
  8
姿図
100
AcDbLine
 10
-751.8478939758888
 20
-1809.815707478836
 30
0.0
 11
-748.8068629487046
 21
-1805.733003860362
 31
0.0
  0
LINE
  5
387238
330
18
100
AcDbEntity
  8
姿図
100
AcDbLine
 10
-748.7740990423434
 20
-1805.851451606068
 30
0.0
 11
-751.6550512351632
 21
-1809.719243642325
 31
0.0
  0
LINE
  5
387239
330
18
100
AcDbEntity
  8
姿図
100
AcDbLine
 10
-751.645245013531
 20
-1809.714414112768
 30
0.0
 11
-748.8455190997328
 21
-1805.955470755674
 31
0.0
  0
LINE
  5
38723A
330
18
100
AcDbEntity
  8
姿図
100
AcDbLine
 10
-748.8102368368553
 20
-1806.075795264538
 30
0.0
 11
-751.495983678209
 21
-1809.681707426603
 31
0.0
  0
LINE
  5
38723B
330
18
100
AcDbEntity
  8
姿図
100
AcDbLine
 10
-751.349581496186
 20
-1809.759213999679
 30
0.0
 11
-748.6807616359118
 21
-1806.169768080533
 31
0.0
  0
LINE
  5
38723C
330
18
100
AcDbEntity
  8
姿図
100
AcDbLine
 10
-748.6441185731263
 20
-1806.288024532923
 30
0.0
 11
-751.2624201671042
 21
-1809.809524067092
 31
0.0
  0
LINE
  5
38723D
330
18
100
AcDbEntity
  8
姿図
100
AcDbLine
 10
-751.253710504396
 20
-1809.814552354513
 30
0.0
 11
-748.7113709492787
 21
-1806.394854444654
 31
0.0
  0
LINE
  5
38723E
330
18
100
AcDbEntity
  8
姿図
100
AcDbLine
 10
-748.6721633495434
 20
-1806.51492307641
 30
0.0
 11
-751.0624181420785
 21
-1809.730051291236
 31
0.0
  0
LINE
  5
38723F
330
18
100
AcDbEntity
  8
姿図
100
AcDbLine
 10
-750.7573182581608
 20
-1809.592850374208
 30
0.0
 11
-748.5694019242482
 21
-1806.644748967728
 31
0.0
  0
LINE
  5
387240
330
18
100
AcDbEntity
  8
姿図
100
AcDbLine
 10
-748.5685207916962
 20
-1806.816058690503
 30
0.0
 11
-750.5683671450465
 21
-1809.510746403798
 31
0.0
  0
LINE
  5
387241
330
18
100
AcDbEntity
  8
姿図
100
AcDbLine
 10
-750.540932890837
 20
-1809.498824714885
 30
0.0
 11
-748.5681495372299
 21
-1806.840179826667
 31
0.0
  0
LINE
  5
387242
330
18
100
AcDbEntity
  8
姿図
100
AcDbLine
 10
-748.5637563868173
 20
-1807.012028923173
 30
0.0
 11
-750.3462519671742
 21
-1809.414230928285
 31
0.0
  0
LINE
  5
387243
330
18
100
AcDbEntity
  8
姿図
100
AcDbLine
 10
-754.4098691879643
 20
-1816.543795910764
 30
0.0
 11
-754.4001609248274
 21
-1816.530636789497
 31
0.0
  0
LINE
  5
387244
330
18
100
AcDbEntity
  8
姿図
100
AcDbLine
 10
-729.4083582397114
 20
-1819.263529229529
 30
0.0
 11
-729.4083582397114
 21
-1819.223001120205
 31
0.0
  0
LINE
  5
387245
330
18
100
AcDbEntity
  8
姿図
100
AcDbLine
 10
-729.4320099480337
 20
-1819.213009236043
 30
0.0
 11
-729.4320099480337
 21
-1819.283609089937
 31
0.0
  0
LINE
  5
387246
330
18
100
AcDbEntity
  8
姿図
100
AcDbLine
 10
-729.5421783526826
 20
-1819.375265270926
 30
0.0
 11
-729.5421783526826
 21
-1819.166927336326
 31
0.0
  0
LINE
  5
387247
330
18
100
AcDbEntity
  8
姿図
100
AcDbLine
 10
-729.7111493489018
 20
-1819.097703606507
 30
0.0
 11
-729.7111493489018
 21
-1819.510190846102
 31
0.0
  0
LINE
  5
387248
330
18
100
AcDbEntity
  8
姿図
100
AcDbLine
 10
-729.8208333940655
 20
-1819.594372158372
 30
0.0
 11
-729.8208333940655
 21
-1819.053693689207
 31
0.0
  0
LINE
  5
387249
330
18
100
AcDbEntity
  8
姿図
100
AcDbLine
 10
-729.8497612786678
 20
-1819.042206764845
 30
0.0
 11
-729.8497612786678
 21
-1819.616153964575
 31
0.0
  0
LINE
  5
38724A
330
18
100
AcDbEntity
  8
姿図
100
AcDbLine
 10
-729.9625608978978
 20
-1819.69947256908
 30
0.0
 11
-729.9625608978978
 21
-1818.997881673061
 31
0.0
  0
LINE
  5
38724B
330
18
100
AcDbEntity
  8
姿図
100
AcDbLine
 10
-730.1308537579102
 20
-1819.037198643472
 30
0.0
 11
-730.1308537579102
 21
-1819.819249555231
 31
0.0
  0
LINE
  5
38724C
330
18
100
AcDbEntity
  8
姿図
100
AcDbLine
 10
-730.2430695774347
 20
-1819.896283033419
 30
0.0
 11
-730.2430695774347
 21
-1819.084945174793
 31
0.0
  0
LINE
  5
38724D
330
18
100
AcDbEntity
  8
姿図
100
AcDbLine
 10
-730.2772462264011
 20
-1819.09914155176
 30
0.0
 11
-730.2772462264011
 21
-1819.919315989181
 31
0.0
  0
LINE
  5
38724E
330
18
100
AcDbEntity
  8
姿図
100
AcDbLine
 10
-730.3925652722833
 20
-1819.995602834566
 30
0.0
 11
-730.3925652722833
 21
-1819.145861599936
 31
0.0
  0
LINE
  5
38724F
330
18
100
AcDbEntity
  8
姿図
100
AcDbLine
 10
-730.5600127257835
 20
-1819.210546681355
 30
0.0
 11
-730.5600127257835
 21
-1820.102632010694
 31
0.0
  0
LINE
  5
387250
330
18
100
AcDbEntity
  8
姿図
100
AcDbLine
 10
-730.674651659825
 20
-1820.173478507139
 30
0.0
 11
-730.674651659825
 21
-1819.252732852356
 31
0.0
  0
LINE
  5
387251
330
18
100
AcDbEntity
  8
姿図
100
AcDbLine
 10
-730.7140438166587
 20
-1819.266842550019
 30
0.0
 11
-730.7140438166587
 21
-1820.197386008692
 31
0.0
  0
LINE
  5
387252
330
18
100
AcDbEntity
  8
姿図
100
AcDbLine
 10
-745.9803523010878
 20
-1817.949126655607
 30
0.0
 11
-745.9803523010878
 21
-1821.484994686585
 31
0.0
  0
LINE
  5
387253
330
18
100
AcDbEntity
  8
姿図
100
AcDbLine
 10
-746.0840645000168
 20
-1821.309483661061
 30
0.0
 11
-746.0840645000168
 21
-1817.97242040188
 31
0.0
  0
LINE
  5
387254
330
18
100
AcDbEntity
  8
姿図
100
AcDbLine
 10
-730.8317668792668
 20
-1820.267543296245
 30
0.0
 11
-730.8317668792668
 21
-1819.307855857729
 31
0.0
  0
LINE
  5
387255
330
18
100
AcDbEntity
  8
姿図
100
AcDbLine
 10
-745.7827859852428
 20
-1821.506295647958
 30
0.0
 11
-745.7827859852428
 21
-1817.905963177693
 31
0.0
  0
LINE
  5
387256
330
18
100
AcDbEntity
  8
姿図
100
AcDbLine
 10
-730.9982049486725
 20
-1819.362941062603
 30
0.0
 11
-730.9982049486725
 21
-1820.363561176702
 31
0.0
  0
LINE
  5
387257
330
18
100
AcDbEntity
  8
姿図
100
AcDbLine
 10
-731.1151519165782
 20
-1820.428904069213
 30
0.0
 11
-731.1151519165782
 21
-1819.399663173742
 31
0.0
  0
LINE
  5
387258
330
18
100
AcDbEntity
  8
姿図
100
AcDbLine
 10
-745.4967886665045
 20
-1817.846254295912
 30
0.0
 11
-745.4967886665045
 21
-1821.595710497289
 31
0.0
  0
LINE
  5
387259
330
18
100
AcDbEntity
  8
姿図
100
AcDbLine
 10
-745.6034195346926
 20
-1821.563024940212
 30
0.0
 11
-745.6034195346926
 21
-1817.868134993129
 31
0.0
  0
LINE
  5
38725A
330
18
100
AcDbEntity
  8
姿図
100
AcDbLine
 10
-745.6761551170548
 20
-1817.883320496659
 30
0.0
 11
-745.6761551170548
 21
-1821.540286159358
 31
0.0
  0
LINE
  5
38725B
330
18
100
AcDbEntity
  8
姿図
100
AcDbLine
 10
-746.1488448647222
 20
-1817.987195027026
 30
0.0
 11
-746.1488448647222
 21
-1821.199857203687
 31
0.0
  0
LINE
  5
38725C
330
18
100
AcDbEntity
  8
姿図
100
AcDbLine
 10
-731.1597205625177
 20
-1819.413234777596
 30
0.0
 11
-731.1597205625177
 21
-1820.453360938893
 31
0.0
  0
LINE
  5
38725D
330
18
100
AcDbEntity
  8
姿図
100
AcDbLine
 10
-745.3064126688696
 20
-1821.652186348204
 30
0.0
 11
-745.3064126688696
 21
-1817.808303469625
 31
0.0
  0
LINE
  5
38725E
330
18
100
AcDbEntity
  8
姿図
100
AcDbLine
 10
-731.2797330551076
 20
-1820.518032787724
 30
0.0
 11
-731.2797330551076
 21
-1819.448637930672
 31
0.0
  0
LINE
  5
38725F
330
18
100
AcDbEntity
  8
姿図
100
AcDbLine
 10
-731.444996445747
 20
-1819.494713755162
 30
0.0
 11
-731.444996445747
 21
-1820.604353829343
 31
0.0
  0
LINE
  5
387260
330
18
100
AcDbEntity
  8
姿図
100
AcDbLine
 10
-731.5641376839529
 20
-1820.66469322405
 30
0.0
 11
-731.5641376839529
 21
-1819.526043011496
 31
0.0
  0
LINE
  5
387261
330
18
100
AcDbEntity
  8
姿図
100
AcDbLine
 10
-745.0074370842401
 20
-1817.751548072422
 30
0.0
 11
-745.0074370842401
 21
-1821.736140920686
 31
0.0
  0
LINE
  5
387262
330
18
100
AcDbEntity
  8
姿図
100
AcDbLine
 10
-745.1169487553786
 20
-1821.706048994914
 30
0.0
 11
-745.1169487553786
 21
-1817.771935673368
 31
0.0
  0
LINE
  5
387263
330
18
100
AcDbEntity
  8
姿図
100
AcDbLine
 10
-745.1969006684593
 20
-1817.787112249611
 30
0.0
 11
-745.1969006684593
 21
-1821.683600909153
 31
0.0
  0
LINE
  5
387264
330
18
100
AcDbEntity
  8
姿図
100
AcDbLine
 10
-744.8239389254472
 20
-1821.784885747128
 30
0.0
 11
-744.8239389254472
 21
-1817.718413859368
 31
0.0
  0
LINE
  5
387265
330
18
100
AcDbEntity
  8
姿図
100
AcDbLine
 10
-731.6138377086982
 20
-1819.538655050093
 30
0.0
 11
-731.6138377086982
 21
-1820.689411831876
 31
0.0
  0
LINE
  5
387266
330
18
100
AcDbEntity
  8
姿図
100
AcDbLine
 10
-731.7360201054425
 20
-1820.749070686076
 30
0.0
 11
-731.7360201054425
 21
-1819.568523530994
 31
0.0
  0
LINE
  5
387267
330
18
100
AcDbEntity
  8
姿図
100
AcDbLine
 10
-744.5127766454252
 20
-1817.665137470227
 30
0.0
 11
-744.5127766454252
 21
-1821.862856127455
 31
0.0
  0
LINE
  5
387268
330
18
100
AcDbEntity
  8
姿図
100
AcDbLine
 10
-744.6251289482987
 20
-1821.835372653426
 30
0.0
 11
-744.6251289482987
 21
-1817.683954018866
 31
0.0
  0
LINE
  5
387269
330
18
100
AcDbEntity
  8
姿図
100
AcDbLine
 10
-731.8999482970921
 20
-1819.606105660523
 30
0.0
 11
-731.8999482970921
 21
-1820.826717042566
 31
0.0
  0
LINE
  5
38726A
330
18
100
AcDbEntity
  8
姿図
100
AcDbLine
 10
-732.0211649383155
 20
-1820.882428424232
 30
0.0
 11
-732.0211649383155
 21
-1819.632096631475
 31
0.0
  0
LINE
  5
38726B
330
18
100
AcDbEntity
  8
姿図
100
AcDbLine
 10
-744.711586622574
 20
-1817.698756238771
 30
0.0
 11
-744.711586622574
 21
-1821.813710677697
 31
0.0
  0
LINE
  5
38726C
330
18
100
AcDbEntity
  8
姿図
100
AcDbLine
 10
-744.3358685415232
 20
-1821.90462162172
 30
0.0
 11
-744.3358685415232
 21
-1817.636459765954
 31
0.0
  0
LINE
  5
38726D
330
18
100
AcDbEntity
  8
姿図
100
AcDbLine
 10
-732.0759482681177
 20
-1819.643347215315
 30
0.0
 11
-732.0759482681177
 21
-1820.907143764024
 31
0.0
  0
LINE
  5
38726E
330
18
100
AcDbEntity
  8
姿図
100
AcDbLine
 10
-744.0132936851783
 20
-1817.587141706377
 30
0.0
 11
-744.0132936851783
 21
-1821.976133510926
 31
0.0
  0
LINE
  5
38726F
330
18
100
AcDbEntity
  8
姿図
100
AcDbLine
 10
-744.1284415094877
 20
-1821.951286047233
 30
0.0
 11
-744.1284415094877
 21
-1817.604309817423
 31
0.0
  0
LINE
  5
387270
330
18
100
AcDbEntity
  8
姿図
100
AcDbLine
 10
-744.2207194001248
 20
-1817.618417122584
 30
0.0
 11
-744.2207194001248
 21
-1821.930831834914
 31
0.0
  0
LINE
  5
387271
330
18
100
AcDbEntity
  8
姿図
100
AcDbLine
 10
-732.2001810431875
 20
-1820.96214951893
 30
0.0
 11
-732.2001810431875
 21
-1819.66773369237
 31
0.0
  0
LINE
  5
387272
330
18
100
AcDbEntity
  8
姿図
100
AcDbLine
 10
-732.3626087411752
 20
-1819.697289426873
 30
0.0
 11
-732.3626087411752
 21
-1821.031942865932
 31
0.0
  0
LINE
  5
387273
330
18
100
AcDbEntity
  8
姿図
100
AcDbLine
 10
-732.4857825766762
 20
-1821.083310843942
 30
0.0
 11
-732.4857825766762
 21
-1819.717972727223
 31
0.0
  0
LINE
  5
387274
330
18
100
AcDbEntity
  8
姿図
100
AcDbLine
 10
-743.8427076085527
 20
-1822.011578590813
 30
0.0
 11
-743.8427076085527
 21
-1817.562596910628
 31
0.0
  0
LINE
  5
387275
330
18
100
AcDbEntity
  8
姿図
100
AcDbLine
 10
-732.5455945523418
 20
-1819.727485061713
 30
0.0
 11
-732.5455945523418
 21
-1821.107783004429
 31
0.0
  0
LINE
  5
387276
330
18
100
AcDbEntity
  8
姿図
100
AcDbLine
 10
-743.5094748678903
 20
-1817.517670681045
 30
0.0
 11
-743.5094748678903
 21
-1822.076201603485
 31
0.0
  0
LINE
  5
387277
330
18
100
AcDbEntity
  8
姿図
100
AcDbLine
 10
-743.62737343261
 20
-1822.054028925454
 30
0.0
 11
-743.62737343261
 21
-1817.533110497613
 31
0.0
  0
LINE
  5
387278
330
18
100
AcDbEntity
  8
姿図
100
AcDbLine
 10
-743.7248090438331
 20
-1817.546246059516
 30
0.0
 11
-743.7248090438331
 21
-1822.035135311305
 31
0.0
  0
LINE
  5
387279
330
18
100
AcDbEntity
  8
姿図
100
AcDbLine
 10
-746.4576548237618
 20
-1818.060017033904
 30
0.0
 11
-746.4576548237618
 21
-1820.677261101565
 31
0.0
  0
LINE
  5
38727A
330
18
100
AcDbEntity
  8
姿図
100
AcDbLine
 10
-746.5584131212998
 20
-1820.50674774843
 30
0.0
 11
-746.5584131212998
 21
-1818.714929874917
 31
0.0
  0
LINE
  5
38727B
330
18
100
AcDbEntity
  8
姿図
100
AcDbLine
 10
-746.5584131212998
 20
-1818.610893988623
 30
0.0
 11
-746.5584131212998
 21
-1818.084644542355
 31
0.0
  0
LINE
  5
38727C
330
18
100
AcDbEntity
  8
姿図
100
AcDbLine
 10
-743.3449671570738
 20
-1822.105895834318
 30
0.0
 11
-743.3449671570738
 21
-1817.496955347746
 31
0.0
  0
LINE
  5
38727D
330
18
100
AcDbEntity
  8
姿図
100
AcDbLine
 10
-732.6717545579139
 20
-1821.158409812782
 30
0.0
 11
-732.6717545579139
 21
-1819.746424902317
 31
0.0
  0
LINE
  5
38727E
330
18
100
AcDbEntity
  8
姿図
100
AcDbLine
 10
-746.2525570636508
 20
-1821.024346178164
 30
0.0
 11
-746.2525570636508
 21
-1818.011208171193
 31
0.0
  0
LINE
  5
38727F
330
18
100
AcDbEntity
  8
姿図
100
AcDbLine
 10
-732.8325237115587
 20
-1819.768372491934
 30
0.0
 11
-732.8325237115587
 21
-1821.221020874118
 31
0.0
  0
LINE
  5
387280
330
18
100
AcDbEntity
  8
姿図
100
AcDbLine
 10
-732.9575325813311
 20
-1821.268269220084
 30
0.0
 11
-732.9575325813311
 21
-1819.783769610165
 31
0.0
  0
LINE
  5
387281
330
18
100
AcDbEntity
  8
姿図
100
AcDbLine
 10
-746.9282270215635
 20
-1819.353156352409
 30
0.0
 11
-746.9282270215635
 21
-1819.88091607798
 31
0.0
  0
LINE
  5
387282
330
18
100
AcDbEntity
  8
姿図
100
AcDbLine
 10
-746.7152273859019
 20
-1820.241372822884
 30
0.0
 11
-746.7152273859019
 21
-1819.062769410951
 31
0.0
  0
LINE
  5
387283
330
18
100
AcDbEntity
  8
姿図
100
AcDbLine
 10
-743.001815419032
 20
-1817.456821745096
 30
0.0
 11
-743.001815419032
 21
-1822.163238365063
 31
0.0
  0
LINE
  5
387284
330
18
100
AcDbEntity
  8
姿図
100
AcDbLine
 10
-743.1224153333238
 20
-1822.143787233316
 30
0.0
 11
-743.1224153333238
 21
-1817.470453790968
 31
0.0
  0
LINE
  5
387285
330
18
100
AcDbEntity
  8
姿図
100
AcDbLine
 10
-733.0223142631257
 20
-1819.791181159546
 30
0.0
 11
-733.0223142631257
 21
-1821.292272548825
 31
0.0
  0
LINE
  5
387286
330
18
100
AcDbEntity
  8
姿図
100
AcDbLine
 10
-743.2243672427826
 20
-1817.482378806964
 30
0.0
 11
-743.2243672427826
 21
-1822.126752301488
 31
0.0
  0
LINE
  5
387287
330
18
100
AcDbEntity
  8
姿図
100
AcDbLine
 10
-746.6144694176357
 20
-1818.871764599226
 30
0.0
 11
-746.6144694176357
 21
-1820.411885985934
 31
0.0
  0
LINE
  5
387288
330
18
100
AcDbEntity
  8
姿図
100
AcDbLine
 10
-742.8431582176243
 20
-1822.187684392917
 30
0.0
 11
-742.8431582176243
 21
-1817.439659806321
 31
0.0
  0
LINE
  5
387289
330
18
100
AcDbEntity
  8
姿図
100
AcDbLine
 10
-733.150276705016
 20
-1821.338733535758
 30
0.0
 11
-733.150276705016
 21
-1819.804692810328
 31
0.0
  0
LINE
  5
38728A
330
18
100
AcDbEntity
  8
姿図
100
AcDbLine
 10
-733.3092286050914
 20
-1819.819415142998
 30
0.0
 11
-733.3092286050914
 21
-1821.394724668607
 31
0.0
  0
LINE
  5
38728B
330
18
100
AcDbEntity
  8
姿図
100
AcDbLine
 10
-733.4359483734951
 20
-1821.438029625027
 30
0.0
 11
-733.4359483734951
 21
-1819.829535019771
 31
0.0
  0
LINE
  5
38728C
330
18
100
AcDbEntity
  8
姿図
100
AcDbLine
 10
-742.4908112226179
 20
-1817.404675137812
 30
0.0
 11
-742.4908112226179
 21
-1822.237384871972
 31
0.0
  0
LINE
  5
38728D
330
18
100
AcDbEntity
  8
姿図
100
AcDbLine
 10
-742.6140598029205
 20
-1822.220713834117
 30
0.0
 11
-742.6140598029205
 21
-1817.416424119127
 31
0.0
  0
LINE
  5
38728E
330
18
100
AcDbEntity
  8
姿図
100
AcDbLine
 10
-742.7199089787773
 20
-1817.426933249898
 30
0.0
 11
-742.7199089787773
 21
-1822.205785481177
 31
0.0
  0
LINE
  5
38728F
330
18
100
AcDbEntity
  8
姿図
100
AcDbLine
 10
-742.3377944549209
 20
-1822.257026408467
 30
0.0
 11
-742.3377944549209
 21
-1817.390815242098
 31
0.0
  0
LINE
  5
387290
330
18
100
AcDbEntity
  8
姿図
100
AcDbLine
 10
-733.5056365411467
 20
-1819.834495225108
 30
0.0
 11
-733.5056365411467
 21
-1821.461348925483
 31
0.0
  0
LINE
  5
387291
330
18
100
AcDbEntity
  8
姿図
100
AcDbLine
 10
-741.9769627724734
 20
-1817.504642001716
 30
0.0
 11
-741.9769627724734
 21
-1822.298753681369
 31
0.0
  0
LINE
  5
387292
330
18
100
AcDbEntity
  8
姿図
100
AcDbLine
 10
-742.1028066766821
 20
-1822.284926988797
 30
0.0
 11
-742.1028066766821
 21
-1817.42324057663
 31
0.0
  0
LINE
  5
387293
330
18
100
AcDbEntity
  8
姿図
100
AcDbLine
 10
-733.7922522331781
 20
-1819.850437361464
 30
0.0
 11
-733.7922522331781
 21
-1821.553664350003
 31
0.0
  0
LINE
  5
387294
330
18
100
AcDbEntity
  8
姿図
100
AcDbLine
 10
-733.9205590938462
 20
-1821.593161284214
 30
0.0
 11
-733.9205590938462
 21
-1819.855278480796
 31
0.0
  0
LINE
  5
387295
330
18
100
AcDbEntity
  8
姿図
100
AcDbLine
 10
-742.2119498921681
 20
-1817.380018526423
 30
0.0
 11
-742.2119498921681
 21
-1822.272307486258
 31
0.0
  0
LINE
  5
387296
330
18
100
AcDbEntity
  8
姿図
100
AcDbLine
 10
-733.6352756373549
 20
-1821.503814059704
 30
0.0
 11
-733.6352756373549
 21
-1819.842588957572
 31
0.0
  0
LINE
  5
387297
330
18
100
AcDbEntity
  8
姿図
100
AcDbLine
 10
-741.8293901922242
 20
-1822.313983108303
 30
0.0
 11
-741.8293901922242
 21
-1817.597967925724
 31
0.0
  0
LINE
  5
387298
330
18
100
AcDbEntity
  8
姿図
100
AcDbLine
 10
-741.4607718795146
 20
-1817.821309217913
 30
0.0
 11
-741.4607718795146
 21
-1822.347426170077
 31
0.0
  0
LINE
  5
387299
330
18
100
AcDbEntity
  8
姿図
100
AcDbLine
 10
-741.5891538142567
 20
-1822.33652024183
 30
0.0
 11
-741.5891538142567
 21
-1817.745082569162
 31
0.0
  0
LINE
  5
38729A
330
18
100
AcDbEntity
  8
姿図
100
AcDbLine
 10
-733.9950846001811
 20
-1819.857446288881
 30
0.0
 11
-733.9950846001811
 21
-1821.615596949274
 31
0.0
  0
LINE
  5
38729B
330
18
100
AcDbEntity
  8
姿図
100
AcDbLine
 10
-741.7010082574825
 20
-1817.677318556031
 30
0.0
 11
-741.7010082574825
 21
-1822.326373460114
 31
0.0
  0
LINE
  5
38729C
330
18
100
AcDbEntity
  8
姿図
100
AcDbLine
 10
-741.3184630455174
 20
-1822.358594805486
 30
0.0
 11
-741.3184630455174
 21
-1817.903900528062
 31
0.0
  0
LINE
  5
38729D
330
18
100
AcDbEntity
  8
姿図
100
AcDbLine
 10
-740.9427429888337
 20
-1818.112555293669
 30
0.0
 11
-740.9427429888337
 21
-1822.383463941398
 31
0.0
  0
LINE
  5
38729E
330
18
100
AcDbEntity
  8
姿図
100
AcDbLine
 10
-741.0736043436481
 20
-1822.375559759298
 30
0.0
 11
-741.0736043436481
 21
-1818.041406454759
 31
0.0
  0
LINE
  5
38729F
330
18
100
AcDbEntity
  8
姿図
100
AcDbLine
 10
-734.281118797412
 20
-1819.861419963596
 30
0.0
 11
-734.281118797412
 21
-1821.698322640077
 31
0.0
  0
LINE
  5
3872A0
330
18
100
AcDbEntity
  8
姿図
100
AcDbLine
 10
-734.4108856512547
 20
-1821.734123724866
 30
0.0
 11
-734.4108856512547
 21
-1819.860971303288
 31
0.0
  0
LINE
  5
3872A1
330
18
100
AcDbEntity
  8
姿図
100
AcDbLine
 10
-734.1262719345277
 20
-1821.654197415267
 30
0.0
 11
-734.1262719345277
 21
-1819.860120966968
 31
0.0
  0
LINE
  5
3872A2
330
18
100
AcDbEntity
  8
姿図
100
AcDbLine
 10
-741.1876016907026
 20
-1817.978104906869
 30
0.0
 11
-741.1876016907026
 21
-1822.368015350591
 31
0.0
  0
LINE
  5
3872A3
330
18
100
AcDbEntity
  8
姿図
100
AcDbLine
 10
-740.4233838382468
 20
-1818.379332712898
 30
0.0
 11
-740.4233838382468
 21
-1822.40691148655
 31
0.0
  0
LINE
  5
3872A4
330
18
100
AcDbEntity
  8
姿図
100
AcDbLine
 10
-740.5566613928612
 20
-1822.402097257125
 30
0.0
 11
-740.5566613928612
 21
-1818.313209965183
 31
0.0
  0
LINE
  5
3872A5
330
18
100
AcDbEntity
  8
姿図
100
AcDbLine
 10
-740.8055299722391
 20
-1822.390887742843
 30
0.0
 11
-740.8055299722391
 21
-1818.185438219864
 31
0.0
  0
LINE
  5
3872A6
330
18
100
AcDbEntity
  8
姿図
100
AcDbLine
 10
-734.4901744100155
 20
-1819.860011934451
 30
0.0
 11
-734.4901744100155
 21
-1821.755477858184
 31
0.0
  0
LINE
  5
3872A7
330
18
100
AcDbEntity
  8
姿図
100
AcDbLine
 10
-740.6722524176248
 20
-1818.254566316925
 30
0.0
 11
-740.6722524176248
 21
-1822.397251795642
 31
0.0
  0
LINE
  5
3872A8
330
18
100
AcDbEntity
  8
姿図
100
AcDbLine
 10
-734.7753455846685
 20
-1819.852310874308
 30
0.0
 11
-734.7753455846685
 21
-1821.829085490367
 31
0.0
  0
LINE
  5
3872A9
330
18
100
AcDbEntity
  8
姿図
100
AcDbLine
 10
-734.906444015506
 20
-1821.861278563216
 30
0.0
 11
-734.906444015506
 21
-1819.846555327959
 31
0.0
  0
LINE
  5
3872AA
330
18
100
AcDbEntity
  8
姿図
100
AcDbLine
 10
-740.2911099054622
 20
-1822.410869530196
 30
0.0
 11
-740.2911099054622
 21
-1818.443393180687
 31
0.0
  0
LINE
  5
3872AB
330
18
100
AcDbEntity
  8
姿図
100
AcDbLine
 10
-739.9031995313906
 20
-1818.622427416776
 30
0.0
 11
-739.9031995313906
 21
-1822.417788200119
 31
0.0
  0
LINE
  5
3872AC
330
18
100
AcDbEntity
  8
姿図
100
AcDbLine
 10
-740.0388307240773
 20
-1822.416163917132
 30
0.0
 11
-740.0388307240773
 21
-1818.56131212181
 31
0.0
  0
LINE
  5
3872AD
330
18
100
AcDbEntity
  8
姿図
100
AcDbLine
 10
-734.6227809077761
 20
-1821.790323167053
 30
0.0
 11
-734.6227809077761
 21
-1819.857255395202
 31
0.0
  0
LINE
  5
3872AE
330
18
100
AcDbEntity
  8
姿図
100
AcDbLine
 10
-740.1554793713208
 20
-1818.507478463537
 30
0.0
 11
-740.1554793713208
 21
-1822.414082800457
 31
0.0
  0
LINE
  5
3872AF
330
18
100
AcDbEntity
  8
姿図
100
AcDbLine
 10
-734.9904186477143
 20
-1819.842141226747
 30
0.0
 11
-734.9904186477143
 21
-1821.881365055432
 31
0.0
  0
LINE
  5
3872B0
330
18
100
AcDbEntity
  8
姿図
100
AcDbLine
 10
-735.27444494274
 20
-1819.823031590791
 30
0.0
 11
-735.27444494274
 21
-1821.946263755068
 31
0.0
  0
LINE
  5
3872B1
330
18
100
AcDbEntity
  8
姿図
100
AcDbLine
 10
-735.4067452173047
 20
-1821.974918402099
 30
0.0
 11
-735.4067452173047
 21
-1819.811941405276
 31
0.0
  0
LINE
  5
3872B2
330
18
100
AcDbEntity
  8
姿図
100
AcDbLine
 10
-739.6378028019515
 20
-1818.737479378409
 30
0.0
 11
-739.6378028019515
 21
-1822.41849696143
 31
0.0
  0
LINE
  5
3872B3
330
18
100
AcDbEntity
  8
姿図
100
AcDbLine
 10
-739.7757198026248
 20
-1822.418535988892
 30
0.0
 11
-739.7757198026248
 21
-1818.678436522926
 31
0.0
  0
LINE
  5
3872B4
330
18
100
AcDbEntity
  8
姿図
100
AcDbLine
 10
-739.3827577336328
 20
-1818.842464638533
 30
0.0
 11
-739.3827577336328
 21
-1822.416100298539
 31
0.0
  0
LINE
  5
3872B5
330
18
100
AcDbEntity
  8
姿図
100
AcDbLine
 10
-739.5199042372317
 20
-1822.417764368586
 30
0.0
 11
-739.5199042372317
 21
-1818.786683341778
 31
0.0
  0
LINE
  5
3872B6
330
18
100
AcDbEntity
  8
姿図
100
AcDbLine
 10
-735.124312599988
 20
-1821.912538862051
 30
0.0
 11
-735.124312599988
 21
-1819.833933702082
 31
0.0
  0
LINE
  5
3872B7
330
18
100
AcDbEntity
  8
姿図
100
AcDbLine
 10
-735.4953220878066
 20
-1819.803743685143
 30
0.0
 11
-735.4953220878066
 21
-1821.993554375545
 31
0.0
  0
LINE
  5
3872B8
330
18
100
AcDbEntity
  8
姿図
100
AcDbLine
 10
-735.7779239510614
 20
-1819.773469388047
 30
0.0
 11
-735.7779239510614
 21
-1822.050105168588
 31
0.0
  0
LINE
  5
3872B9
330
18
100
AcDbEntity
  8
姿図
100
AcDbLine
 10
-735.9112963360849
 20
-1822.075281089538
 30
0.0
 11
-735.9112963360849
 21
-1819.757011486629
 31
0.0
  0
LINE
  5
3872BA
330
18
100
AcDbEntity
  8
姿図
100
AcDbLine
 10
-735.6303737613252
 20
-1822.021127026377
 30
0.0
 11
-735.6303737613252
 21
-1819.790058182276
 31
0.0
  0
LINE
  5
3872BB
330
18
100
AcDbEntity
  8
姿図
100
AcDbLine
 10
-738.8627110625791
 20
-1819.039941479888
 30
0.0
 11
-738.8627110625791
 21
-1822.401846019874
 31
0.0
  0
LINE
  5
3872BC
330
18
100
AcDbEntity
  8
姿図
100
AcDbLine
 10
-738.999723223099
 20
-1822.406823783072
 30
0.0
 11
-738.999723223099
 21
-1818.990050324561
 31
0.0
  0
LINE
  5
3872BD
330
18
100
AcDbEntity
  8
姿図
100
AcDbLine
 10
-739.1178265951602
 20
-1818.945823253316
 30
0.0
 11
-739.1178265951602
 21
-1822.410411576576
 31
0.0
  0
LINE
  5
3872BE
330
18
100
AcDbEntity
  8
姿図
100
AcDbLine
 10
-739.2571910766625
 20
-1822.413810814079
 30
0.0
 11
-739.2571910766625
 21
-1818.892171043796
 31
0.0
  0
LINE
  5
3872BF
330
18
100
AcDbEntity
  8
姿図
100
AcDbLine
 10
-736.0043881877336
 20
-1819.744703732381
 30
0.0
 11
-736.0043881877336
 21
-1822.092286137895
 31
0.0
  0
LINE
  5
3872C0
330
18
100
AcDbEntity
  8
姿図
100
AcDbLine
 10
-736.2852863963467
 20
-1819.703485303686
 30
0.0
 11
-736.2852863963467
 21
-1822.140809934991
 31
0.0
  0
LINE
  5
3872C1
330
18
100
AcDbEntity
  8
姿図
100
AcDbLine
 10
-736.4195985243831
 20
-1822.162551619843
 30
0.0
 11
-736.4195985243831
 21
-1819.681617483579
 31
0.0
  0
LINE
  5
3872C2
330
18
100
AcDbEntity
  8
姿図
100
AcDbLine
 10
-738.3435040357734
 20
-1819.215356163067
 30
0.0
 11
-738.3435040357734
 21
-1822.375009513434
 31
0.0
  0
LINE
  5
3872C3
330
18
100
AcDbEntity
  8
姿図
100
AcDbLine
 10
-738.4802448759557
 20
-1822.383306293642
 30
0.0
 11
-738.4802448759557
 21
-1819.171238798961
 31
0.0
  0
LINE
  5
3872C4
330
18
100
AcDbEntity
  8
姿図
100
AcDbLine
 10
-736.7960304676802
 20
-1819.61290520246
 30
0.0
 11
-736.7960304676802
 21
-1822.218540043624
 31
0.0
  0
LINE
  5
3872C5
330
18
100
AcDbEntity
  8
姿図
100
AcDbLine
 10
-736.9311506298282
 20
-1822.236884757654
 30
0.0
 11
-736.9311506298282
 21
-1819.585576515245
 31
0.0
  0
LINE
  5
3872C6
330
18
100
AcDbEntity
  8
姿図
100
AcDbLine
 10
-736.1404625808735
 20
-1822.116312769651
 30
0.0
 11
-736.1404625808735
 21
-1819.725499569698
 31
0.0
  0
LINE
  5
3872C7
330
18
100
AcDbEntity
  8
姿図
100
AcDbLine
 10
-736.5171138194917
 20
-1819.6648662454
 30
0.0
 11
-736.5171138194917
 21
-1822.177751990501
 31
0.0
  0
LINE
  5
3872C8
330
18
100
AcDbEntity
  8
姿図
100
AcDbLine
 10
-738.5944476888965
 20
-1819.133255926229
 30
0.0
 11
-738.5944476888965
 21
-1822.389561068217
 31
0.0
  0
LINE
  5
3872C9
330
18
100
AcDbEntity
  8
姿図
100
AcDbLine
 10
-737.8256470252095
 20
-1819.369106026655
 30
0.0
 11
-737.8256470252095
 21
-1822.335553133031
 31
0.0
  0
LINE
  5
3872CA
330
18
100
AcDbEntity
  8
姿図
100
AcDbLine
 10
-737.9619822019749
 20
-1822.347179577718
 30
0.0
 11
-737.9619822019749
 21
-1819.330663594585
 31
0.0
  0
LINE
  5
3872CB
330
18
100
AcDbEntity
  8
姿図
100
AcDbLine
 10
-737.3096530370585
 20
-1819.501526810383
 30
0.0
 11
-737.3096530370585
 21
-1822.28342174047
 31
0.0
  0
LINE
  5
3872CC
330
18
100
AcDbEntity
  8
姿図
100
AcDbLine
 10
-737.445448207327
 20
-1822.298395341643
 30
0.0
 11
-737.445448207327
 21
-1819.46867794218
 31
0.0
  0
LINE
  5
3872CD
330
18
100
AcDbEntity
  8
姿図
100
AcDbLine
 10
-738.7336060459673
 20
-1822.396354221341
 30
0.0
 11
-738.7336060459673
 21
-1819.085569517828
 31
0.0
  0
LINE
  5
3872CE
330
18
100
AcDbEntity
  8
姿図
100
AcDbLine
 10
-737.0329925623541
 20
-1819.564048343072
 30
0.0
 11
-737.0329925623541
 21
-1822.250105176832
 31
0.0
  0
LINE
  5
3872CF
330
18
100
AcDbEntity
  8
姿図
100
AcDbLine
 10
-738.0721731617728
 20
-1819.298532913545
 30
0.0
 11
-738.0721731617728
 21
-1822.355928339857
 31
0.0
  0
LINE
  5
3872D0
330
18
100
AcDbEntity
  8
姿図
100
AcDbLine
 10
-736.6540765891731
 20
-1822.198275952409
 30
0.0
 11
-736.6540765891731
 21
-1819.640101600285
 31
0.0
  0
LINE
  5
3872D1
330
18
100
AcDbEntity
  8
姿図
100
AcDbLine
 10
-737.5515166785052
 20
-1819.442026077541
 30
0.0
 11
-737.5515166785052
 21
-1822.309465478259
 31
0.0
  0
LINE
  5
3872D2
330
18
100
AcDbEntity
  8
姿図
100
AcDbLine
 10
-738.2109871000657
 20
-1822.366126055827
 30
0.0
 11
-738.2109871000657
 21
-1819.25670280035
 31
0.0
  0
LINE
  5
3872D3
330
18
100
AcDbEntity
  8
姿図
100
AcDbLine
 10
-737.1707087069527
 20
-1822.267161832826
 30
0.0
 11
-737.1707087069527
 21
-1819.533665802987
 31
0.0
  0
LINE
  5
3872D4
330
18
100
AcDbEntity
  8
姿図
100
AcDbLine
 10
-737.6898498793075
 20
-1822.323083347736
 30
0.0
 11
-737.6898498793075
 21
-1819.405958343558
 31
0.0
  0
LINE
  5
3872D5
330
18
100
AcDbEntity
  8
姿図
100
AcDbLine
 10
-746.7089086513477
 20
-1818.134502447663
 30
0.0
 11
-746.7496840809206
 21
-1818.192919282488
 31
0.0
  0
LINE
  5
3872D6
330
18
100
AcDbEntity
  8
姿図
100
AcDbLine
 10
-746.7696027473813
 20
-1818.370056196419
 30
0.0
 11
-746.68673051868
 21
-1818.255444923673
 31
0.0
  0
LINE
  5
3872D7
330
18
100
AcDbEntity
  8
姿図
100
AcDbLine
 10
-746.5877074859206
 20
-1818.810014356393
 30
0.0
 11
-746.8616827453934
 21
-1819.188920216845
 31
0.0
  0
LINE
  5
3872D8
330
18
100
AcDbEntity
  8
姿図
100
AcDbLine
 10
-746.8313926614763
 20
-1818.91955693753
 30
0.0
 11
-746.5811905294692
 21
-1818.573527338004
 31
0.0
  0
LINE
  5
3872D9
330
18
100
AcDbEntity
  8
姿図
100
AcDbLine
 10
-746.6932474751311
 20
-1818.491931942063
 30
0.0
 11
-746.7998921727541
 21
-1818.639420616491
 31
0.0
  0
ARC
  5
3872DA
330
18
100
AcDbEntity
  8
姿図
100
AcDbCircle
 10
-751.0256348747121
 20
-1827.40472114585
 30
0.0
 40
6.202905469698794
100
AcDbArc
 50
164.387781099246
 51
212.4744854255941
  0
ARC
  5
3872DB
330
18
100
AcDbEntity
  8
姿図
100
AcDbCircle
 10
-728.6830061594417
 20
-1827.366203194024
 30
0.0
 40
6.480034787317098
100
AcDbArc
 50
320.6803594539165
 51
9.527095204616023
  0
LWPOLYLINE
  5
3872DC
330
18
100
AcDbEntity
  8
姿図
100
AcDbPolyline
 90
       24
 70
   128
 43
0.0
 10
-728.3351619231398
 20
-1812.854728791263
 10
-728.5905121445202
 20
-1812.690681261858
 10
-729.4630906557913
 20
-1812.187017798651
 10
-730.4038789022943
 20
-1811.726088255637
 10
-731.4066176242748
 20
-1811.310960863277
 10
-732.4646324319854
 20
-1810.944397577857
 10
-733.570884143181
 20
-1810.628838708373
 10
-734.7180090778093
 20
-1810.366383456603
 10
-735.8983740464772
 20
-1810.158778702101
 10
-737.1041239302948
 20
-1810.007405981382
 10
-738.3272340351594
 20
-1809.913272553941
 10
-739.559566397314
 20
-1809.877004749279
 10
-740.7929188449116
 20
-1809.898844735466
 10
-742.0190832792041
 20
-1809.978646527354
 10
-743.2299003337384
 20
-1810.11587864777
 10
-744.4173130457312
 20
-1810.309628499463
 10
-745.5734175639979
 20
-1810.558606546973
 10
-746.690521100868
 20
-1810.861156201039
 10
-747.7611900059359
 20
-1811.215263322844
 10
-748.7782988276247
 20
-1811.618571620883
 10
-749.7350785104153
 20
-1812.068397548861
 10
-750.6251618549917
 20
-1812.561747425211
 10
-751.4426263442206
 20
-1813.095337593962
 10
-751.4672071765252
 20
-1813.1128124722
  0
LWPOLYLINE
  5
3872DD
330
18
100
AcDbEntity
  8
姿図
100
AcDbPolyline
 90
       52
 70
   128
 43
0.0
 10
-722.9316300501197
 20
-1821.645382177466
 10
-722.5631832882541
 20
-1820.950845487522
 10
-722.2678221251567
 20
-1820.203578696547
 10
-722.0700210381947
 20
-1819.445659932084
 10
-721.9708863821406
 20
-1818.681326565076
 10
-721.9709713343823
 20
-1817.914853983436
 10
-722.0702765534634
 20
-1817.150527839652
 10
-722.2682468863641
 20
-1816.392623141467
 10
-722.5637740026777
 20
-1815.645378400331
 10
-722.9552052849608
 20
-1814.91297225098
 10
-723.4403537069027
 20
-1814.199501021418
 10
-724.0165040894972
 20
-1813.508954592145
 10
-724.680434503738
 20
-1812.845194156235
 10
-725.4284325695988
 20
-1812.211932165386
 10
-726.2563152123639
 20
-1811.612710280078
 10
-727.159452477634
 20
-1811.050879538754
 10
-728.1327939946511
 20
-1810.529582039507
 10
-729.1708955688935
 20
-1810.051732547143
 10
-730.2679511999431
 20
-1809.620003051025
 10
-731.4178285213422
 20
-1809.23680990946
 10
-732.6140930593393
 20
-1808.904293762719
 10
-733.8500589408168
 20
-1808.624316111505
 10
-735.1188111191688
 20
-1808.398441163852
 10
-736.4132554236821
 20
-1808.227932793768
 10
-737.7261514867654
 20
-1808.113744656828
 10
-739.0501591713318
 20
-1808.056515438046
 10
-740.3778724858443
 20
-1808.056564479931
 10
-741.7018676580652
 20
-1808.113892162653
 10
-743.0147393550013
 20
-1808.228178003194
 10
-744.3091454639336
 20
-1808.39878217603
 10
-745.5778475929027
 20
-1808.624750645417
 10
-746.813749924835
 20
-1808.904820867942
 10
-748.0099410351193
 20
-1809.237425404127
 10
-749.1597324164604
 20
-1809.620704273949
 10
-750.2566932171013
 20
-1810.052514366034
 10
-751.2946884364055
 20
-1810.53044084275
 10
-752.2679132765705
 20
-1811.051810888318
 10
-753.1709248743136
 20
-1811.613708985755
 10
-753.9986741618158
 20
-1812.212992268461
 10
-754.7465326162408
 20
-1812.846309003741
 10
-755.4103145286952
 20
-1813.510119051789
 10
-755.9863117996919
 20
-1814.200707869979
 10
-756.4712998660461
 20
-1814.914215785913
 10
-756.8625691463803
 20
-1815.646650828157
 10
-757.1579303094773
 20
-1816.393917619132
 10
-757.3557313964392
 20
-1817.151836383596
 10
-757.4548660524932
 20
-1817.916169750603
 10
-757.4547811002518
 20
-1818.682642332244
 10
-757.3554758811706
 20
-1819.446968476027
 10
-757.1575055482697
 20
-1820.204873174213
 10
-756.8619784319562
 20
-1820.952117915348
 10
-756.4941223845143
 20
-1821.645382177466
  0
ARC
  5
3872DE
330
18
100
AcDbEntity
  8
姿図
100
AcDbCircle
 10
-732.1045356555696
 20
-1820.570084491635
 30
0.0
 40
11.07720946931323
100
AcDbArc
 50
30.19021628882297
 51
62.47738971382036
  0
LWPOLYLINE
  5
3872DF
330
18
100
AcDbEntity
  8
姿図
100
AcDbPolyline
 90
       29
 70
   128
 43
0.0
 10
-756.8907904127248
 20
-1814.990185562535
 10
-756.7031579115109
 20
-1814.663285281898
 10
-756.2114596058921
 20
-1813.939906070857
 10
-755.627493287805
 20
-1813.239762448796
 10
-754.9545276429142
 20
-1812.56676845237
 10
-754.1963236189046
 20
-1811.924688901648
 10
-753.3571210899557
 20
-1811.317114974205
 10
-752.4416155509997
 20
-1810.747443147623
 10
-751.4549259799959
 20
-1810.218859688125
 10
-750.4025705391502
 20
-1809.734320540476
 10
-749.2904327571428
 20
-1809.296536367432
 10
-748.1247335746675
 20
-1808.907954891299
 10
-746.9119932408975
 20
-1808.570748021304
 10
-745.6589911422708
 20
-1808.286803870022
 10
-744.3727358387137
 20
-1808.057708695329
 10
-743.0604219289756
 20
-1807.884744049121
 10
-741.7293862574202
 20
-1807.768877463166
 10
-740.3870736697099
 20
-1807.71075636638
 10
-739.0409909146915
 20
-1807.710706564156
 10
-737.6986644975467
 20
-1807.768727676323
 10
-736.3676038012998
 20
-1807.884495418169
 10
-735.0552503788913
 20
-1808.057362740945
 10
-733.7689450259512
 20
-1808.286362873225
 10
-732.5158797070521
 20
-1808.570214263112
 10
-731.3030639699364
 20
-1808.907330842815
 10
-730.137277859586
 20
-1809.295825640267
 10
-729.0250429422632
 20
-1809.733527506581
 10
-727.9725799940265
 20
-1810.217988814494
 10
-726.9857725241015
 20
-1810.74649891248
  0
ARC
  5
3872E0
330
18
100
AcDbEntity
  8
姿図
100
AcDbCircle
 10
-747.5836390611865
 20
-1820.189547555079
 30
0.0
 40
10.76714066065528
100
AcDbArc
 50
121.6469539425032
 51
149.5354050556332
  0
LWPOLYLINE
  5
3872E1
330
18
100
AcDbEntity
  8
姿図
100
AcDbPolyline
 90
       28
 70
   128
 43
0.0
 10
-722.5319149364703
 20
-1814.784611376544
 10
-722.704694624852
 20
-1814.481765950488
 10
-723.1963596739723
 20
-1813.752520911797
 10
-723.7816934597304
 20
-1813.04670344776
 10
-724.4573765885332
 20
-1812.368316174561
 10
-725.2195768252533
 20
-1811.721206123957
 10
-726.0639708251952
 20
-1811.109043073599
 10
-726.9857725241015
 20
-1810.535300116483
 10
-727.9797512967641
 20
-1810.003229492098
 10
-729.0402709608293
 20
-1809.515849194072
 10
-730.1613180268494
 20
-1809.075923620419
 10
-731.3365344945546
 20
-1808.685947682002
 10
-732.5592537532538
 20
-1808.348132160394
 10
-733.8225433049118
 20
-1808.064394251148
 10
-735.1192378560092
 20
-1807.836341501641
 10
-736.4419844278427
 20
-1807.665268579624
 10
-737.7832815399217
 20
-1807.552145297879
 10
-739.1355210275451
 20
-1807.497613002611
 10
-740.4910354570075
 20
-1807.501980771747
 10
-741.8421356626317
 20
-1807.565224274428
 10
-743.1811614547028
 20
-1807.686984630504
 10
-744.5005171808642
 20
-1807.866571451885
 10
-745.7927221047794
 20
-1808.102966073987
 10
-747.0504449797113
 20
-1808.394828588873
 10
-748.2665564028175
 20
-1808.740502217196
 10
-749.4341572971961
 20
-1809.138028229865
 10
-750.5466271502719
 20
-1809.585150985291
 10
-751.5976565294322
 20
-1810.079335179583
  0
LWPOLYLINE
  5
3872E2
330
18
100
AcDbEntity
  8
姿図
100
AcDbPolyline
 90
       40
 70
   128
 43
0.0
 10
-755.0497034586583
 20
-1817.893200133792
 10
-754.9909277027762
 20
-1817.44240750567
 10
-754.8172570036759
 20
-1816.735593426889
 10
-754.5456291261016
 20
-1816.039138971135
 10
-754.1778050180682
 20
-1815.357560553875
 10
-753.7161702570564
 20
-1814.695278977912
 10
-753.1637185863988
 20
-1814.05658863964
 10
-752.524033805308
 20
-1813.445631867589
 10
-751.8012630978226
 20
-1812.86637136013
 10
-751.0000946834552
 20
-1812.32256359736
 10
-750.1257240667817
 20
-1811.817735555705
 10
-749.1838222215164
 20
-1811.355161018606
 10
-748.1804983004226
 20
-1810.937839809746
 10
-747.1222576119451
 20
-1810.568478855854
 10
-746.0159650709905
 20
-1810.249473368302
 10
-744.8687937089747
 20
-1809.982892325381
 10
-743.6881854081108
 20
-1809.770464168415
 10
-742.481795089759
 20
-1809.613567392563
 10
-741.2574469212195
 20
-1809.513218951646
 10
-740.0230822907132
 20
-1809.470069315938
 10
-738.7867051481907
 20
-1809.484399050643
 10
-737.5563345901253
 20
-1809.556115014196
 10
-736.3399508588653
 20
-1809.684751878942
 10
-735.1454413419824
 20
-1809.869475932834
 10
-733.9805531570681
 20
-1810.10908812079
 10
-732.8528414559911
 20
-1810.402035639863
 10
-731.7696198694204
 20
-1810.746417736834
 10
-730.7379132562592
 20
-1811.140001580294
 10
-729.7644130049339
 20
-1811.580234378547
 10
-728.8554321214187
 20
-1812.064260943019
 10
-728.0168655481453
 20
-1812.588942033617
 10
-727.2541523875716
 20
-1813.150875406268
 10
-726.572239098451
 20
-1813.746416298917
 10
-725.9755475601996
 20
-1814.371702710631
 10
-725.4679483681639
 20
-1815.022679181642
 10
-725.0527324338864
 20
-1815.69512383292
 10
-724.7325935336756
 20
-1816.384675928467
 10
-724.5096070705501
 20
-1817.08686258224
 10
-724.3852198667938
 20
-1817.797131262651
 10
-724.3763828580412
 20
-1817.889339510973
  0
SPLINE
  5
3872E3
330
18
100
AcDbEntity
  8
姿図
100
AcDbSpline
210
0.0
220
0.0
230
1.0
 70
     8
 71
     3
 72
     9
 73
     5
 74
     0
 42
0.000000001
 43
0.0000000001
 40
0.0
 40
0.0
 40
0.0
 40
0.0
 40
0.3728146820740721
 40
1.0
 40
1.0
 40
1.0
 40
1.0
 10
-731.7872593956572
 20
-1808.458000606792
 30
0.0
 10
-731.933134351033
 20
-1808.188478684395
 30
0.0
 10
-732.3244144223135
 20
-1807.465540626006
 30
0.0
 10
-732.7572301154532
 20
-1806.791072769797
 30
0.0
 10
-733.0286857635582
 20
-1806.368056432972
 30
0.0
  0
SPLINE
  5
3872E4
330
18
100
AcDbEntity
  8
姿図
100
AcDbSpline
210
0.0
220
0.0
230
1.0
 70
     8
 71
     3
 72
     9
 73
     5
 74
     0
 42
0.000000001
 43
0.0000000001
 40
0.0
 40
0.0
 40
0.0
 40
0.0
 40
0.9967068940042944
 40
1.0
 40
1.0
 40
1.0
 40
1.0
 10
-732.8158982615458
 20
-1806.352042879356
 30
0.0
 10
-732.3598632406392
 20
-1807.047637736486
 30
0.0
 10
-731.9023214862378
 20
-1807.745530829546
 30
0.0
 10
-731.5266134123143
 20
-1808.535033328492
 30
0.0
 10
-731.5253761658036
 20
-1808.537633243905
 30
0.0
  0
LINE
  5
3872E5
330
18
100
AcDbEntity
  8
姿図
100
AcDbLine
 10
-724.5022652871035
 20
-1790.000053361521
 30
0.0
 11
-724.734211577532
 21
-1790.005095424444
 31
0.0
  0
LINE
  5
3872E6
330
18
100
AcDbEntity
  8
姿図
100
AcDbLine
 10
-723.6702690460687
 20
-1790.706290734875
 30
0.0
 11
-723.687712572996
 21
-1790.533322098536
 31
0.0
  0
LINE
  5
3872E7
330
18
100
AcDbEntity
  8
姿図
100
AcDbLine
 10
-722.6707558750886
 20
-1791.446394079435
 30
0.0
 11
-714.7683758787106
 21
-1780.973880381361
 31
0.0
  0
LINE
  5
3872E8
330
18
100
AcDbEntity
  8
姿図
100
AcDbLine
 10
-726.2472771829006
 20
-1789.090592511692
 30
0.0
 11
-719.0873399355504
 21
-1778.146363787102
 31
0.0
  0
SPLINE
  5
3872E9
330
18
100
AcDbEntity
  8
姿図
100
AcDbSpline
210
0.0
220
0.0
230
1.0
 70
     8
 71
     3
 72
     9
 73
     5
 74
     0
 42
0.000000001
 43
0.0000000001
 40
0.0
 40
0.0
 40
0.0
 40
0.0
 40
0.7993305118103101
 40
1.0
 40
1.0
 40
1.0
 40
1.0
 10
-723.0298931225169
 20
-1790.46834585014
 30
0.0
 10
-723.0043828524704
 20
-1790.68466480372
 30
0.0
 10
-722.972468306898
 20
-1790.955289971137
 30
0.0
 10
-722.9428007437054
 20
-1791.228316329966
 30
0.0
 10
-722.9368473689836
 20
-1791.283104389654
 30
0.0
  0
SPLINE
  5
3872EA
330
18
100
AcDbEntity
  8
姿図
100
AcDbSpline
210
0.0
220
0.0
230
1.0
 70
     8
 71
     3
 72
     9
 73
     5
 74
     0
 42
0.000000001
 43
0.0000000001
 40
0.0
 40
0.0
 40
0.0
 40
0.0
 40
0.1394856238211336
 40
0.9999999999999998
 40
0.9999999999999998
 40
0.9999999999999998
 40
0.9999999999999998
 10
-725.7499512851889
 20
-1789.387395079788
 30
0.0
 10
-725.7012711438055
 20
-1789.386416264196
 30
0.0
 10
-725.3522735908655
 20
-1789.379398941796
 30
0.0
 10
-725.004474935097
 20
-1789.375192378321
 30
0.0
 10
-724.705189191793
 20
-1789.371572569977
 30
0.0
  0
SPLINE
  5
3872EB
330
18
100
AcDbEntity
  8
姿図
100
AcDbSpline
210
0.0
220
0.0
230
1.0
 70
     8
 71
     3
 72
    10
 73
     6
 74
     0
 42
0.000000001
 43
0.0000000001
 40
0.0
 40
0.0
 40
0.0
 40
0.0
 40
0.4674132699106826
 40
0.9932856066475682
 40
1.0
 40
1.0
 40
1.0
 40
1.0
 10
-723.0298931225169
 20
-1790.46834585014
 30
0.0
 10
-723.0383894576021
 20
-1790.465971289975
 30
0.0
 10
-723.0564447587512
 20
-1790.460925184988
 30
0.0
 10
-723.1186043347419
 20
-1790.50277393157
 30
0.0
 10
-723.1768135112787
 20
-1790.55584490645
 30
0.0
 10
-723.177547362285
 20
-1790.556513979449
 30
0.0
  0
LINE
  5
3872EC
330
18
100
AcDbEntity
  8
姿図
100
AcDbLine
 10
-722.7436564228502
 20
-1789.6020149891
 30
0.0
 11
-723.497317806843
 21
-1790.608575289133
 31
0.0
  0
LINE
  5
3872ED
330
18
100
AcDbEntity
  8
姿図
100
AcDbLine
 10
-718.1708165434655
 20
-1795.210150155414
 30
0.0
 11
-710.9256264290179
 21
-1785.522374152778
 31
0.0
  0
SPLINE
  5
3872EE
330
18
100
AcDbEntity
  8
姿図
100
AcDbSpline
210
0.0
220
0.0
230
1.0
 70
     8
 71
     3
 72
    10
 73
     6
 74
     0
 42
0.000000001
 43
0.0000000001
 40
0.0
 40
0.0
 40
0.0
 40
0.0
 40
0.0791714183882882
 40
0.5395172289474807
 40
1.0
 40
1.0
 40
1.0
 40
1.0
 10
-724.7145332798171
 20
-1789.611573566366
 30
0.0
 10
-724.710659184181
 20
-1789.598304426698
 30
0.0
 10
-724.6842589833931
 20
-1789.507881271354
 30
0.0
 10
-724.6727620785605
 20
-1789.4051627666
 30
0.0
 10
-724.6943790823055
 20
-1789.382770412369
 30
0.0
 10
-724.705189191793
 20
-1789.371572569977
 30
0.0
  0
LINE
  5
3872EF
330
18
100
AcDbEntity
  8
姿図
100
AcDbLine
 10
-724.5299238271663
 20
-1789.972783405704
 30
0.0
 11
-723.8178116625431
 21
-1788.898793101863
 31
0.0
  0
LINE
  5
3872F0
330
18
100
AcDbEntity
  8
姿図
100
AcDbLine
 10
-731.3536383771519
 20
-1786.478658709733
 30
0.0
 11
-724.736163503454
 21
-1776.480961076862
 31
0.0
  0
LINE
  5
3872F1
330
18
100
AcDbEntity
  8
姿図
100
AcDbLine
 10
-710.9256264290179
 20
-1785.522374152778
 30
0.0
 11
-718.235561346768
 21
-1787.952675484432
 31
0.0
  0
LINE
  5
3872F2
330
18
100
AcDbEntity
  8
姿図
100
AcDbLine
 10
-720.7395148364233
 20
-1792.024518144715
 30
0.0
 11
-720.8292751114059
 21
-1792.140402723485
 31
0.0
  0
SPLINE
  5
3872F3
330
18
100
AcDbEntity
  8
姿図
100
AcDbSpline
210
0.0
220
0.0
230
1.0
 70
     8
 71
     3
 72
    10
 73
     6
 74
     0
 42
0.000000001
 43
0.0000000001
 40
0.0
 40
0.0
 40
0.0
 40
0.0
 40
0.307019499210444
 40
0.7349854826988418
 40
1.0
 40
1.0
 40
1.0
 40
1.0
 10
-720.7395148364233
 20
-1792.024518144715
 30
0.0
 10
-720.7140305147503
 20
-1791.986698195384
 30
0.0
 10
-720.653022642239
 20
-1791.896159601627
 30
0.0
 10
-720.6396378456056
 20
-1791.796943013014
 30
0.0
 10
-720.6968731382922
 20
-1791.766357328501
 30
0.0
 10
-720.7187614647992
 20
-1791.754660534135
 30
0.0
  0
LINE
  5
3872F4
330
18
100
AcDbEntity
  8
姿図
100
AcDbLine
 10
-733.2925405110326
 20
-1786.206189744555
 30
0.0
 11
-730.5136103626619
 21
-1782.606772981063
 31
0.0
  0
SPLINE
  5
3872F5
330
18
100
AcDbEntity
  8
姿図
100
AcDbSpline
210
0.0
220
0.0
230
1.0
 70
     8
 71
     3
 72
     9
 73
     5
 74
     0
 42
0.000000001
 43
0.0000000001
 40
0.0
 40
0.0
 40
0.0
 40
0.0
 40
0.9014396495584215
 40
1.0
 40
1.0
 40
1.0
 40
1.0
 10
-733.9040658466436
 20
-1782.933907970963
 30
0.0
 10
-734.8349111187579
 20
-1784.149444145812
 30
0.0
 10
-735.8675318522377
 20
-1785.497882918662
 30
0.0
 10
-736.9128581355534
 20
-1786.84921058326
 30
0.0
 10
-737.0158858603627
 20
-1786.982397911444
 30
0.0
  0
ARC
  5
3872F6
330
18
100
AcDbEntity
  8
姿図
100
AcDbCircle
 10
-730.4984809171683
 20
-1782.183210193039
 30
0.0
 40
0.4238329099065597
100
AcDbArc
 50
267.9542938800176
 51
285.8272941658838
  0
LWPOLYLINE
  5
3872F7
330
18
100
AcDbEntity
  8
姿図
100
AcDbPolyline
 90
        3
 70
   128
 43
0.0
 10
-723.9889756119741
 20
-1783.136798504278
 10
-724.372877096353
 20
-1779.717064774156
 10
-724.736163503454
 20
-1776.480961076862
  0
LINE
  5
3872F8
330
18
100
AcDbEntity
  8
姿図
100
AcDbLine
 10
-708.9749714982573
 20
-1790.724869745706
 30
0.0
 11
-713.1415648195625
 21
-1790.464227270466
 31
0.0
  0
LINE
  5
3872F9
330
18
100
AcDbEntity
  8
姿図
100
AcDbLine
 10
-716.2835307165304
 20
-1800.682144125904
 30
0.0
 11
-708.9749714982573
 21
-1790.724869745706
 31
0.0
  0
SPLINE
  5
3872FA
330
18
100
AcDbEntity
  8
姿図
100
AcDbSpline
210
0.0
220
0.0
230
1.0
 70
     8
 71
     3
 72
     9
 73
     5
 74
     0
 42
0.000000001
 43
0.0000000001
 40
0.0
 40
0.0
 40
0.0
 40
0.0
 40
0.1369438722688487
 40
1.0
 40
1.0
 40
1.0
 40
1.0
 10
-737.5954371520118
 20
-1787.048463126639
 30
0.0
 10
-737.4491676270154
 20
-1786.852789486178
 30
0.0
 10
-736.3810692698312
 20
-1785.42392934647
 30
0.0
 10
-735.3274843888437
 20
-1783.992035748459
 30
0.0
 10
-734.4181815012225
 20
-1782.756231204438
 30
0.0
  0
LINE
  5
3872FB
330
18
100
AcDbEntity
  8
姿図
100
AcDbLine
 10
-738.4277583847615
 20
-1785.057812375713
 30
0.0
 11
-740.0345759503286
 21
-1787.099269604997
 31
0.0
  0
ARC
  5
3872FC
330
18
100
AcDbEntity
  8
姿図
100
AcDbCircle
 10
-731.8660207538823
 20
-1793.319410965692
 30
0.0
 40
10.55037496956584
100
AcDbArc
 50
114.3763185119341
 51
128.458201895896
  0
LINE
  5
3872FD
330
18
100
AcDbEntity
  8
姿図
100
AcDbLine
 10
-709.2133810737599
 20
-1795.789336242578
 30
0.0
 11
-710.9495783513174
 21
-1795.068407906
 31
0.0
  0
LINE
  5
3872FE
330
18
100
AcDbEntity
  8
姿図
100
AcDbLine
 10
-714.8928236685622
 20
-1803.729754947772
 30
0.0
 11
-709.2133810737599
 21
-1795.789336242578
 31
0.0
  0
SPLINE
  5
3872FF
330
18
100
AcDbEntity
  8
姿図
100
AcDbSpline
210
0.0
220
0.0
230
1.0
 70
     8
 71
     3
 72
    13
 73
     9
 74
     0
 42
0.000000001
 43
0.0000000001
 40
0.0
 40
0.0
 40
0.0
 40
0.0
 40
0.1848978927147875
 40
0.3740803879332188
 40
0.5632251034726025
 40
0.7524358710554246
 40
0.9417699509921303
 40
1.0
 40
1.0
 40
1.0
 40
1.0
 10
-708.944702817037
 20
-1796.395516130712
 30
0.0
 10
-708.9266836688183
 20
-1796.359493149847
 30
0.0
 10
-708.890227818204
 20
-1796.286612434666
 30
0.0
 10
-708.8957186004027
 20
-1796.152726857216
 30
0.0
 10
-708.9465829243139
 20
-1796.018499080075
 30
0.0
 10
-709.0412723616155
 20
-1795.89781607504
 30
0.0
 10
-709.1387312229808
 20
-1795.824953885988
 30
0.0
 10
-709.1991660730092
 20
-1795.796118638291
 30
0.0
 10
-709.2133810737599
 20
-1795.789336242578
 30
0.0
  0
LINE
  5
387300
330
18
100
AcDbEntity
  8
姿図
100
AcDbLine
 10
-740.3109167016745
 20
-1786.882364110288
 30
0.0
 11
-738.9319140475645
 21
-1785.065598777745
 31
0.0
  0
SPLINE
  5
387301
330
18
100
AcDbEntity
  8
姿図
100
AcDbSpline
210
0.0
220
0.0
230
1.0
 70
     8
 71
     3
 72
    13
 73
     9
 74
     0
 42
0.000000001
 43
0.0000000001
 40
0.0
 40
0.0
 40
0.0
 40
0.0
 40
0.1988938552030082
 40
0.3979057757351305
 40
0.5969219470489456
 40
0.79580272630116
 40
0.9945068160104479
 40
1.0
 40
1.0
 40
1.0
 40
1.0
 10
-734.5745607971768
 20
-1779.1860069853
 30
0.0
 10
-734.6156862394281
 20
-1779.15402064009
 30
0.0
 10
-734.6979615363934
 20
-1779.090028962265
 30
0.0
 10
-734.8449843092129
 20
-1779.041341401102
 30
0.0
 10
-734.9905487818332
 20
-1779.03473555979
 30
0.0
 10
-735.1143141216303
 20
-1779.077537849953
 30
0.0
 10
-735.1897903746385
 20
-1779.125898480931
 30
0.0
 10
-735.2077379062257
 20
-1779.163960236831
 30
0.0
 10
-735.2082207192005
 20
-1779.164984149757
 30
0.0
  0
SPLINE
  5
387302
330
18
100
AcDbEntity
  8
姿図
100
AcDbSpline
210
0.0
220
0.0
230
1.0
 70
     8
 71
     3
 72
     9
 73
     5
 74
     0
 42
0.000000001
 43
0.0000000001
 40
0.0
 40
0.0
 40
0.0
 40
0.0
 40
0.648200188657731
 40
1.0
 40
1.0
 40
1.0
 40
1.0
 10
-730.5136103626619
 20
-1782.606772981063
 30
0.0
 10
-730.495991308744
 20
-1782.58348787381
 30
0.0
 10
-730.4688098079878
 20
-1782.547565164035
 30
0.0
 10
-730.4546680783519
 20
-1782.551791611661
 30
0.0
 10
-730.449693020534
 20
-1782.553278475139
 30
0.0
  0
SPLINE
  5
387303
330
18
100
AcDbEntity
  8
姿図
100
AcDbSpline
210
0.0
220
0.0
230
1.0
 70
     8
 71
     3
 72
     9
 73
     5
 74
     0
 42
0.000000001
 43
0.0000000001
 40
0.0
 40
0.0
 40
0.0
 40
0.0
 40
0.5283150815144675
 40
1.0
 40
1.0
 40
1.0
 40
1.0
 10
-733.7960214126696
 20
-1782.877658688724
 30
0.0
 10
-733.8198494583602
 20
-1782.881913059259
 30
0.0
 10
-733.8649514183924
 20
-1782.889965773791
 30
0.0
 10
-733.8915294092113
 20
-1782.919824201108
 30
0.0
 10
-733.9040658466436
 20
-1782.933907970963
 30
0.0
  0
SPLINE
  5
387304
330
18
100
AcDbEntity
  8
姿図
100
AcDbSpline
210
0.0
220
0.0
230
1.0
 70
     8
 71
     3
 72
    10
 73
     6
 74
     0
 42
0.000000001
 43
0.0000000001
 40
0.0
 40
0.0
 40
0.0
 40
0.0
 40
0.4326455475346548
 40
0.9642716548787275
 40
1.0
 40
1.0
 40
1.0
 40
1.0
 10
-711.4891027932835
 20
-1800.450884924447
 30
0.0
 10
-711.4730613615465
 20
-1800.422091903818
 30
0.0
 10
-711.4373085426022
 20
-1800.357918601195
 30
0.0
 10
-711.4272641678625
 20
-1800.273454589568
 30
0.0
 10
-711.4430448278343
 20
-1800.226260970748
 30
0.0
 10
-711.4440385926027
 20
-1800.223289019275
 30
0.0
  0
ARC
  5
387305
330
18
100
AcDbEntity
  8
姿図
100
AcDbCircle
 10
-733.6923707496006
 20
-1782.570508803933
 30
0.0
 40
0.3457268327919831
100
AcDbArc
 50
178.3123437801691
 51
237.3846101745261
  0
SPLINE
  5
387306
330
18
100
AcDbEntity
  8
姿図
100
AcDbSpline
210
0.0
220
0.0
230
1.0
 70
     8
 71
     3
 72
     9
 73
     5
 74
     0
 42
0.000000001
 43
0.0000000001
 40
0.0
 40
0.0
 40
0.0
 40
0.0
 40
0.6437255619504771
 40
1.0
 40
1.0
 40
1.0
 40
1.0
 10
-734.0379476158446
 20
-1782.560326838032
 30
0.0
 10
-733.9712536326201
 20
-1782.605757565496
 30
0.0
 10
-733.8676473954802
 20
-1782.676332248483
 30
0.0
 10
-733.7787374418202
 20
-1782.813656049678
 30
0.0
 10
-733.7470610980426
 20
-1782.86258100978
 30
0.0
  0
LWPOLYLINE
  5
387307
330
18
100
AcDbEntity
  8
姿図
100
AcDbPolyline
 90
        3
 70
   128
 43
0.0
 10
-728.4846780328688
 20
-1780.07686165477
 10
-728.5464524711678
 20
-1779.958755353149
 10
-730.1745521372821
 20
-1776.84603278421
  0
LWPOLYLINE
  5
387308
330
18
100
AcDbEntity
  8
姿図
100
AcDbPolyline
 90
        3
 70
   128
 43
0.0
 10
-720.9048029224823
 20
-1792.039501482255
 10
-720.8229567061244
 20
-1792.040091728622
 10
-720.7395148364233
 20
-1792.024518144715
  0
SPLINE
  5
387309
330
18
100
AcDbEntity
  8
姿図
100
AcDbSpline
210
0.0
220
0.0
230
1.0
 70
     8
 71
     3
 72
     9
 73
     5
 74
     0
 42
0.000000001
 43
0.0000000001
 40
0.0
 40
0.0
 40
0.0
 40
0.0
 40
0.9996450527296458
 40
1.0
 40
1.0
 40
1.0
 40
1.0
 10
-723.9132456277339
 20
-1790.376017567496
 30
0.0
 10
-723.5984227895333
 20
-1789.954059739154
 30
0.0
 10
-723.2834881661468
 20
-1789.531952084854
 30
0.0
 10
-722.9690096949179
 20
-1789.108962168318
 30
0.0
 10
-722.9688980716428
 20
-1789.108812029202
 30
0.0
  0
SPLINE
  5
38730A
330
18
100
AcDbEntity
  8
姿図
100
AcDbSpline
210
0.0
220
0.0
230
1.0
 70
     8
 71
     3
 72
    10
 73
     6
 74
     0
 42
0.000000001
 43
0.0000000001
 40
0.0
 40
0.0
 40
0.0
 40
0.0
 40
0.0003560477801184
 40
0.3799976936643741
 40
1.0
 40
1.0
 40
1.0
 40
1.0
 10
-723.2300475182782
 20
-1788.937844092478
 30
0.0
 10
-723.2301506900365
 20
-1788.937999998365
 30
0.0
 10
-723.3402624011524
 20
-1789.10439305329
 30
0.0
 10
-723.6319593703736
 20
-1789.540085380379
 30
0.0
 10
-723.9226007830925
 20
-1789.9768428924
 30
0.0
 10
-724.1028633113677
 20
-1790.247730005918
 30
0.0
  0
LINE
  5
38730B
330
18
100
AcDbEntity
  8
姿図
100
AcDbLine
 10
-733.5486648514816
 20
-1780.17085242461
 30
0.0
 11
-734.5745607971768
 21
-1779.1860069853
 31
0.0
  0
LINE
  5
38730C
330
18
100
AcDbEntity
  8
姿図
100
AcDbLine
 10
-738.4954149426057
 20
-1784.828829001898
 30
0.0
 11
-738.2619698048765
 21
-1784.927770929534
 31
0.0
  0
ARC
  5
38730D
330
18
100
AcDbEntity
  8
姿図
100
AcDbCircle
 10
-738.2190224298827
 20
-1784.782130077442
 30
0.0
 40
0.2803098475515888
100
AcDbArc
 50
189.5900500370703
 51
236.1151905681008
  0
LINE
  5
38730E
330
18
100
AcDbEntity
  8
姿図
100
AcDbLine
 10
-719.0873399355504
 20
-1778.146363787102
 30
0.0
 11
-719.0718351636542
 21
-1778.115298150141
 31
0.0
  0
LINE
  5
38730F
330
18
100
AcDbEntity
  8
姿図
100
AcDbLine
 10
-721.6278028034557
 20
-1785.716749346744
 30
0.0
 11
-721.6122973730152
 21
-1785.685683329614
 31
0.0
  0
LWPOLYLINE
  5
387310
330
18
100
AcDbEntity
  8
姿図
100
AcDbPolyline
 90
        3
 70
   128
 43
0.0
 10
-710.8697568300494
 20
-1785.477655864564
 10
-710.8974538949665
 20
-1785.492265561569
 10
-710.9256264290179
 20
-1785.522374152778
  0
LWPOLYLINE
  5
387311
330
18
100
AcDbEntity
  8
姿図
100
AcDbPolyline
 90
        3
 70
   128
 43
0.0
 10
-723.416147915695
 20
-1788.450302209831
 10
-723.445480475897
 20
-1788.523608099437
 10
-723.4520570306261
 20
-1788.551422077025
  0
SPLINE
  5
387312
330
18
100
AcDbEntity
  8
姿図
100
AcDbSpline
210
0.0
220
0.0
230
1.0
 70
     8
 71
     3
 72
     9
 73
     5
 74
     0
 42
0.000000001
 43
0.0000000001
 40
0.0
 40
0.0
 40
0.0
 40
0.0
 40
0.7614924511880239
 40
1.0
 40
1.0
 40
1.0
 40
1.0
 10
-723.416147915695
 20
-1788.450302209831
 30
0.0
 10
-723.4175752300666
 20
-1788.462284125017
 30
0.0
 10
-723.4194495945062
 20
-1788.478018903695
 30
0.0
 10
-723.4341376263337
 20
-1788.500874359161
 30
0.0
 10
-723.4376408328021
 20
-1788.506325557821
 30
0.0
  0
ARC
  5
387313
330
18
100
AcDbEntity
  8
姿図
100
AcDbCircle
 10
-724.812846235005
 20
-1776.416064269952
 30
0.0
 40
0.1004581348884996
100
AcDbArc
 50
319.7586700750013
 51
5.104381576442877
  0
ARC
  5
387314
330
18
100
AcDbEntity
  8
姿図
100
AcDbCircle
 10
-708.8977436762652
 20
-1790.757087966517
 30
0.0
 40
0.0836788518199649
100
AcDbArc
 50
95.96074453700298
 51
157.3548776771933
  0
ARC
  5
387315
330
18
100
AcDbEntity
  8
姿図
100
AcDbCircle
 10
-730.2273358096559
 20
-1776.784175754153
 30
0.0
 40
0.08131671560477
100
AcDbArc
 50
310.4746991516915
 51
13.24811442564979
  0
LWPOLYLINE
  5
387316
330
18
100
AcDbEntity
  8
姿図
100
AcDbPolyline
 90
        5
 70
   128
 43
0.0
 10
-709.1619757480112
 20
-1795.729128388762
 10
-709.1637663305282
 20
-1795.728776479648
 10
-709.1752684689048
 20
-1795.735635999527
 10
-709.192015255743
 20
-1795.756077904787
 10
-709.2133810737599
 20
-1795.789336242578
  0
ARC
  5
387317
330
18
100
AcDbEntity
  8
姿図
100
AcDbCircle
 10
-734.667847085041
 20
-1779.07428098616
 30
0.0
 40
0.145550782846206
100
AcDbArc
 50
309.8603943623108
 51
341.1908504626477
  0
TEXT
  5
389882
330
18
100
AcDbEntity
  8
文字
100
AcDbText
 10
-778.5357725541688
 20
-1861.17732445065
 30
0.0
 40
6.5
  1
MSP-080A/FLF/M/10A/DL/3
 41
0.7
100
AcDbText
  0
ENDSEC
  0
SECTION
  2
OBJECTS
  0
DICTIONARY
  5
C
330
0
100
AcDbDictionary
281
     1
  3
ACAD_GROUP
350
D
  3
ACAD_IMAGE_VARS
350
2F1759
  3
ACAD_LAYOUT
350
353
  3
ACAD_MLINESTYLE
350
E
  3
ACAD_PLOTSETTINGS
350
354
  3
ACAD_PLOTSTYLENAME
350
351
  3
ACAD_SCALELIST
350
CD53
  3
AcadDim
350
5182D
  3
AcDbVariableDictionary
350
E0D
  3
AEC_DISP_REPS
350
380002
  3
AEC_DISPLAY_PROPS_DEFAULTS
350
380004
  3
AEC_VARS
350
380000
  3
APPDATA
350
2F1758
  3
DWGPROPS
350
389DAA
  0
DICTIONARY
  5
381D61
330
8
100
AcDbDictionary
280
     1
281
     1
  0
DICTIONARY
  5
559E
330
2
100
AcDbDictionary
280
     1
281
     1
  3
ACAD_LAYERFILTERS
360
29A509
  3
ACAD_LAYERSTATES
360
559F
  3
ACLYDICTIONARY
360
29A508
  0
DICTIONARY
  5
CD7F
330
F
100
AcDbDictionary
280
     1
281
     1
  3
ADSK_XREC_LAYER_RECONCILED
360
CD80
  0
DICTIONARY
  5
CD8D
330
2F4
100
AcDbDictionary
280
     1
281
     1
  3
ADSK_XREC_LAYER_RECONCILED
360
CD8E
  0
DICTIONARY
  5
D25F
330
18
100
AcDbDictionary
280
     1
281
     1
  3
ACAD_SORTENTS
360
D260
  0
DICTIONARY
  5
D
102
{ACAD_REACTORS
330
C
102
}
330
C
100
AcDbDictionary
281
     1
  0
RASTERVARIABLES
  5
2F1759
102
{ACAD_REACTORS
330
C
102
}
330
C
100
AcDbRasterVariables
 90
        0
 70
     1
 71
     1
 72
     0
  0
DICTIONARY
  5
353
102
{ACAD_REACTORS
330
C
102
}
330
C
100
AcDbDictionary
281
     1
  3
Model
350
355
  3
ﾚｲｱｳﾄ1
350
356
  0
DICTIONARY
  5
E
102
{ACAD_REACTORS
330
C
102
}
330
C
100
AcDbDictionary
281
     1
  3
STANDARD
350
1B
  0
DICTIONARY
  5
354
102
{ACAD_REACTORS
330
C
102
}
330
C
100
AcDbDictionary
281
     1
  0
ACDBDICTIONARYWDFLT
  5
351
102
{ACAD_REACTORS
330
C
102
}
330
C
100
AcDbDictionary
281
     1
  3
Normal
350
352
100
AcDbDictionaryWithDefault
340
352
  0
DICTIONARY
  5
CD53
102
{ACAD_REACTORS
330
C
102
}
330
C
100
AcDbDictionary
281
     1
  3
A0
350
CD54
  3
A1
350
35DF8
  3
A2
350
35DF9
  3
A3
350
35DFA
  3
A4
350
35DFB
  3
A5
350
35DFC
  3
A6
350
35DFD
  3
A7
350
35DFE
  3
A8
350
35DFF
  3
A9
350
35E00
  3
B0
350
35E01
  3
B1
350
35E02
  3
B2
350
35E03
  3
B3
350
35E04
  3
B4
350
35E05
  3
B5
350
35E06
  3
B6
350
35E07
  3
B7
350
35E08
  3
B8
350
35E09
  3
B9
350
35E0A
  3
C0
350
35E0B
  3
C1
350
35E0C
  3
C2
350
35E0D
  3
C3
350
35E0E
  3
C4
350
35E0F
  3
C5
350
35E10
  3
C6
350
35E11
  3
C7
350
35E12
  3
C8
350
35E13
  3
C9
350
35E14
  3
D0
350
35E15
  3
D1
350
35E16
  3
D2
350
35E17
  0
XRECORD
  5
5182D
102
{ACAD_REACTORS
330
C
102
}
330
C
100
AcDbXrecord
280
     1
 90
   990106
  3
OPEN30
 60
     0
 61
     0
 62
     4
 63
     4
 64
     1
 65
     0
 66
     0
 67
     3
 68
     1
 69
     0
 70
     0
 71
     0
 72
     0
 40
0.0
170
     0
340
0
  0
DICTIONARY
  5
E0D
102
{ACAD_REACTORS
330
C
102
}
330
C
100
AcDbDictionary
281
     1
  3
DIMASSOC
350
E0E
  3
INDEXCTL
350
D04A
  3
PROJECTNAME
350
E0F
  3
SORTENTS
350
D049
  0
DICTIONARY
  5
380002
102
{ACAD_REACTORS
330
C
102
}
330
C
100
AcDbDictionary
281
     1
  3
AecDbDispRep2dSection
350
380003
  3
AecDbDispRepAnchor
350
380039
  3
AecDbDispRepAnchorEntToNode
350
38003A
  3
AecDbDispRepClipVolModel
350
380006
  3
AecDbDispRepClipVolPlan
350
380008
  3
AecDbDispRepClipVolResSubDiv
350
38000B
  3
AecDbDispRepClipVolResult
350
38000A
  3
AecDbDispRepDisplayTheme
350
38000D
  3
AecDbDispRepEditInPlaceProfile
350
38003E
  3
AecDbDispRepEntRef
350
38000F
  3
AecDbDispRepLayoutCurve
350
380011
  3
AecDbDispRepLayoutGrid2d
350
380013
  3
AecDbDispRepLayoutGrid3d
350
380015
  3
AecDbDispRepMaskBlockRef
350
380017
  3
AecDbDispRepMaskBlockRefRcp
350
380019
  3
AecDbDispRepMassElemModel
350
38001B
  3
AecDbDispRepMassElemPlan100
350
380021
  3
AecDbDispRepMassElemPlan50
350
38001F
  3
AecDbDispRepMassElemRcp
350
380023
  3
AecDbDispRepMassElemSchem
350
38001D
  3
AecDbDispRepMassGroupModel
350
380025
  3
AecDbDispRepMassGroupPlan
350
380027
  3
AecDbDispRepMassGroupPlan100
350
38002B
  3
AecDbDispRepMassGroupPlan50
350
380029
  3
AecDbDispRepMassGroupRcp
350
38002D
  3
AecDbDispRepMaterial
350
38003C
  3
AecDbDispRepMvBlockRef
350
38002F
  3
AecDbDispRepMvBlockRefModel
350
380030
  3
AecDbDispRepMvBlockRefPlan100
350
380031
  3
AecDbDispRepMvBlockRefPlan50
350
380032
  3
AecDbDispRepPolygonModel
350
380033
  3
AecDbDispRepPolygonTrueColour
350
380035
  3
AecDbDispRepSlice
350
380037
  0
DICTIONARY
  5
380004
102
{ACAD_REACTORS
330
C
102
}
330
C
100
AcDbDictionary
281
     1
  3
*A1
350
380005
  3
*A10
350
38000C
  3
*A11
350
38000E
  3
*A12
350
380022
  3
*A13
350
380010
  3
*A14
350
380014
  3
*A15
350
380028
  3
*A16
350
380016
  3
*A17
350
38001A
  3
*A18
350
38001C
  3
*A19
350
38001E
  3
*A2
350
380034
  3
*A20
350
380020
  3
*A21
350
380024
  3
*A22
350
38003B
  3
*A23
350
380026
  3
*A24
350
38002A
  3
*A25
350
380007
  3
*A26
350
38002C
  3
*A27
350
38002E
  3
*A3
350
380036
  3
*A4
350
380012
  3
*A5
350
380038
  3
*A6
350
38003D
  3
*A7
350
380018
  3
*A8
350
38003F
  3
*A9
350
380009
  0
DICTIONARY
  5
380000
102
{ACAD_REACTORS
330
C
102
}
330
C
100
AcDbDictionary
281
     1
  3
AEC_VARS_DWG_SETUP
350
380001
  0
DICTIONARY
  5
2F1758
102
{ACAD_REACTORS
330
C
102
}
330
C
100
AcDbDictionary
281
     1
  0
XRECORD
  5
389DAA
102
{ACAD_REACTORS
330
C
102
}
330
C
100
AcDbXrecord
280
     1
  1
DWGPROPS COOKIE
  2

  3

  4

  6

  7

  8
SPAX
  9

300
=
301
=
302
=
303
=
304
=
305
=
306
=
307
=
308
=
309
=
 40
0.0
 41
2448636.244629618
 42
2457347.473961586
  1

 90
        0
  0
DICTIONARY
  5
29A509
102
{ACAD_REACTORS
330
559E
102
}
330
559E
100
AcDbDictionary
281
     1
  0
DICTIONARY
  5
559F
102
{ACAD_REACTORS
330
559E
102
}
330
559E
100
AcDbDictionary
281
     1
  0
DICTIONARY
  5
29A508
102
{ACAD_REACTORS
330
559E
102
}
330
559E
100
AcDbDictionary
281
     1
1001
ACAD
1000
<All
  0
XRECORD
  5
CD80
102
{ACAD_REACTORS
330
CD7F
102
}
330
CD7F
100
AcDbXrecord
280
     1
290
     1
  0
XRECORD
  5
CD8E
102
{ACAD_REACTORS
330
CD8D
102
}
330
CD8D
100
AcDbXrecord
280
     1
290
     1
  0
SORTENTSTABLE
  5
D260
102
{ACAD_REACTORS
330
D25F
102
}
330
D25F
100
AcDbSortentsTable
330
18
331
8182F
  5
2FEC53
331
3073B9
  5
307455
  0
LAYOUT
  5
355
102
{ACAD_REACTORS
330
353
102
}
330
353
100
AcDbPlotSettings
  1

  2
JUST PDF 3
  4
A4
  6

 40
3.174999952316283
 41
3.174999952316283
 42
3.175003051757812
 43
3.17498779296875
 44
209.8886566162109
 45
297.0530090332031
 46
14.27171682183785
 47
9.855173337468727
 48
-775.1971641327489
 49
-2268.34796840378
140
-425.2067241958267
141
-1726.362619177819
142
1.0
143
2.0
 70
  3748
 72
     1
 73
     0
 74
     4
  7
spax form.ctb
 75
     0
147
0.547045008312821
148
775.1971641327489
149
2268.34796840378
100
AcDbLayout
  1
Model
 70
     1
 71
     0
 10
0.0
 20
0.0
 11
12.0
 21
9.0
 12
0.0
 22
0.0
 32
0.0
 14
-778.5357725541688
 24
-1861.17732445065
 34
0.0
 15
-675.4024392208355
 25
-1776.012231556994
 35
0.0
146
0.0
 13
0.0
 23
0.0
 33
0.0
 16
1.0
 26
0.0
 36
0.0
 17
0.0
 27
1.0
 37
0.0
 76
     0
330
18
331
3523F0
1001
ACAD_PSEXT
1000
JUST PDF 3
1000
JUST PDF 3
1000
JUST PDF 3 Port:
1000

1070
     0
  0
LAYOUT
  5
356
102
{ACAD_REACTORS
330
353
102
}
330
353
100
AcDbPlotSettings
  1

  2
Canon LASER SHOT LBP-750
  4

  6

 40
0.0
 41
0.0
 42
0.0
 43
0.0
 44
0.0
 45
0.0
 46
0.0
 47
0.0
 48
0.0
 49
0.0
140
0.0
141
0.0
142
1.0
143
1.0
 70
   688
 72
     0
 73
     0
 74
     5
  7
spax form.ctb
 75
    16
147
1.0
148
0.0
149
0.0
100
AcDbLayout
  1
ﾚｲｱｳﾄ1
 70
     0
 71
     1
 10
0.0
 20
0.0
 11
12.0
 21
9.0
 12
0.0
 22
0.0
 32
0.0
 14
1.000000000000000E+20
 24
1.000000000000000E+20
 34
1.000000000000000E+20
 15
-1.000000000000000E+20
 25
-1.000000000000000E+20
 35
-1.000000000000000E+20
146
0.0
 13
0.0
 23
0.0
 33
0.0
 16
1.0
 26
0.0
 36
0.0
 17
0.0
 27
1.0
 37
0.0
 76
     0
330
15
  0
MLINESTYLE
  5
1B
102
{ACAD_REACTORS
330
E
102
}
330
E
100
AcDbMlineStyle
  2
STANDARD
 70
     0
  3

 62
     0
 51
90.0
 52
90.0
 71
     2
 49
0.5
 62
   256
  6
BYLAYER
 49
-0.5
 62
   256
  6
BYLAYER
  0
ACDBPLACEHOLDER
  5
352
102
{ACAD_REACTORS
330
351
102
}
330
351
  0
SCALE
  5
CD54
102
{ACAD_REACTORS
330
CD53
102
}
330
CD53
100
AcDbScale
 70
     0
300
1:1
140
1.0
141
1.0
290
     1
1001
ACAD
1000
AcRTDxfName
1000
SCALE
1000
AcRTDxfName
1000
SCALE
  0
SCALE
  5
35DF8
102
{ACAD_REACTORS
330
CD53
102
}
330
CD53
100
AcDbScale
 70
     0
300
1:2
140
1.0
141
2.0
290
     0
1001
ACAD
1000
AcRTDxfName
1000
SCALE
1000
AcRTDxfName
1000
SCALE
  0
SCALE
  5
35DF9
102
{ACAD_REACTORS
330
CD53
102
}
330
CD53
100
AcDbScale
 70
     0
300
1:4
140
1.0
141
4.0
290
     0
1001
ACAD
1000
AcRTDxfName
1000
SCALE
1000
AcRTDxfName
1000
SCALE
  0
SCALE
  5
35DFA
102
{ACAD_REACTORS
330
CD53
102
}
330
CD53
100
AcDbScale
 70
     0
300
1:5
140
1.0
141
5.0
290
     0
1001
ACAD
1000
AcRTDxfName
1000
SCALE
1000
AcRTDxfName
1000
SCALE
  0
SCALE
  5
35DFB
102
{ACAD_REACTORS
330
CD53
102
}
330
CD53
100
AcDbScale
 70
     0
300
1:8
140
1.0
141
8.0
290
     0
1001
ACAD
1000
AcRTDxfName
1000
SCALE
1000
AcRTDxfName
1000
SCALE
  0
SCALE
  5
35DFC
102
{ACAD_REACTORS
330
CD53
102
}
330
CD53
100
AcDbScale
 70
     0
300
1:10
140
1.0
141
10.0
290
     0
1001
ACAD
1000
AcRTDxfName
1000
SCALE
1000
AcRTDxfName
1000
SCALE
  0
SCALE
  5
35DFD
102
{ACAD_REACTORS
330
CD53
102
}
330
CD53
100
AcDbScale
 70
     0
300
1:16
140
1.0
141
16.0
290
     0
1001
ACAD
1000
AcRTDxfName
1000
SCALE
1000
AcRTDxfName
1000
SCALE
  0
SCALE
  5
35DFE
102
{ACAD_REACTORS
330
CD53
102
}
330
CD53
100
AcDbScale
 70
     0
300
1:20
140
1.0
141
20.0
290
     0
1001
ACAD
1000
AcRTDxfName
1000
SCALE
1000
AcRTDxfName
1000
SCALE
  0
SCALE
  5
35DFF
102
{ACAD_REACTORS
330
CD53
102
}
330
CD53
100
AcDbScale
 70
     0
300
1:30
140
1.0
141
30.0
290
     0
1001
ACAD
1000
AcRTDxfName
1000
SCALE
1000
AcRTDxfName
1000
SCALE
  0
SCALE
  5
35E00
102
{ACAD_REACTORS
330
CD53
102
}
330
CD53
100
AcDbScale
 70
     0
300
1:40
140
1.0
141
40.0
290
     0
1001
ACAD
1000
AcRTDxfName
1000
SCALE
1000
AcRTDxfName
1000
SCALE
  0
SCALE
  5
35E01
102
{ACAD_REACTORS
330
CD53
102
}
330
CD53
100
AcDbScale
 70
     0
300
1:50
140
1.0
141
50.0
290
     0
1001
ACAD
1000
AcRTDxfName
1000
SCALE
1000
AcRTDxfName
1000
SCALE
  0
SCALE
  5
35E02
102
{ACAD_REACTORS
330
CD53
102
}
330
CD53
100
AcDbScale
 70
     0
300
1:100
140
1.0
141
100.0
290
     0
1001
ACAD
1000
AcRTDxfName
1000
SCALE
1000
AcRTDxfName
1000
SCALE
  0
SCALE
  5
35E03
102
{ACAD_REACTORS
330
CD53
102
}
330
CD53
100
AcDbScale
 70
     0
300
2:1
140
2.0
141
1.0
290
     0
1001
ACAD
1000
AcRTDxfName
1000
SCALE
1000
AcRTDxfName
1000
SCALE
  0
SCALE
  5
35E04
102
{ACAD_REACTORS
330
CD53
102
}
330
CD53
100
AcDbScale
 70
     0
300
4:1
140
4.0
141
1.0
290
     0
1001
ACAD
1000
AcRTDxfName
1000
SCALE
1000
AcRTDxfName
1000
SCALE
  0
SCALE
  5
35E05
102
{ACAD_REACTORS
330
CD53
102
}
330
CD53
100
AcDbScale
 70
     0
300
8:1
140
8.0
141
1.0
290
     0
1001
ACAD
1000
AcRTDxfName
1000
SCALE
1000
AcRTDxfName
1000
SCALE
  0
SCALE
  5
35E06
102
{ACAD_REACTORS
330
CD53
102
}
330
CD53
100
AcDbScale
 70
     0
300
10:1
140
10.0
141
1.0
290
     0
1001
ACAD
1000
AcRTDxfName
1000
SCALE
1000
AcRTDxfName
1000
SCALE
  0
SCALE
  5
35E07
102
{ACAD_REACTORS
330
CD53
102
}
330
CD53
100
AcDbScale
 70
     0
300
100:1
140
100.0
141
1.0
290
     0
1001
ACAD
1000
AcRTDxfName
1000
SCALE
1000
AcRTDxfName
1000
SCALE
  0
SCALE
  5
35E08
102
{ACAD_REACTORS
330
CD53
102
}
330
CD53
100
AcDbScale
 70
     0
300
1/128" = 1'-0"
140
0.0078125
141
12.0
290
     0
1001
ACAD
1000
AcRTDxfName
1000
SCALE
1000
AcRTDxfName
1000
SCALE
  0
SCALE
  5
35E09
102
{ACAD_REACTORS
330
CD53
102
}
330
CD53
100
AcDbScale
 70
     0
300
1/64" = 1'-0"
140
0.015625
141
12.0
290
     0
1001
ACAD
1000
AcRTDxfName
1000
SCALE
1000
AcRTDxfName
1000
SCALE
  0
SCALE
  5
35E0A
102
{ACAD_REACTORS
330
CD53
102
}
330
CD53
100
AcDbScale
 70
     0
300
1/32" = 1'-0"
140
0.03125
141
12.0
290
     0
1001
ACAD
1000
AcRTDxfName
1000
SCALE
1000
AcRTDxfName
1000
SCALE
  0
SCALE
  5
35E0B
102
{ACAD_REACTORS
330
CD53
102
}
330
CD53
100
AcDbScale
 70
     0
300
1/16" = 1'-0"
140
0.0625
141
12.0
290
     0
1001
ACAD
1000
AcRTDxfName
1000
SCALE
1000
AcRTDxfName
1000
SCALE
  0
SCALE
  5
35E0C
102
{ACAD_REACTORS
330
CD53
102
}
330
CD53
100
AcDbScale
 70
     0
300
3/32" = 1'-0"
140
0.09375
141
12.0
290
     0
1001
ACAD
1000
AcRTDxfName
1000
SCALE
1000
AcRTDxfName
1000
SCALE
  0
SCALE
  5
35E0D
102
{ACAD_REACTORS
330
CD53
102
}
330
CD53
100
AcDbScale
 70
     0
300
1/8" = 1'-0"
140
0.125
141
12.0
290
     0
1001
ACAD
1000
AcRTDxfName
1000
SCALE
1000
AcRTDxfName
1000
SCALE
  0
SCALE
  5
35E0E
102
{ACAD_REACTORS
330
CD53
102
}
330
CD53
100
AcDbScale
 70
     0
300
3/16" = 1'-0"
140
0.1875
141
12.0
290
     0
1001
ACAD
1000
AcRTDxfName
1000
SCALE
1000
AcRTDxfName
1000
SCALE
  0
SCALE
  5
35E0F
102
{ACAD_REACTORS
330
CD53
102
}
330
CD53
100
AcDbScale
 70
     0
300
1/4" = 1'-0"
140
0.25
141
12.0
290
     0
1001
ACAD
1000
AcRTDxfName
1000
SCALE
1000
AcRTDxfName
1000
SCALE
  0
SCALE
  5
35E10
102
{ACAD_REACTORS
330
CD53
102
}
330
CD53
100
AcDbScale
 70
     0
300
3/8" = 1'-0"
140
0.375
141
12.0
290
     0
1001
ACAD
1000
AcRTDxfName
1000
SCALE
1000
AcRTDxfName
1000
SCALE
  0
SCALE
  5
35E11
102
{ACAD_REACTORS
330
CD53
102
}
330
CD53
100
AcDbScale
 70
     0
300
1/2" = 1'-0"
140
0.5
141
12.0
290
     0
1001
ACAD
1000
AcRTDxfName
1000
SCALE
1000
AcRTDxfName
1000
SCALE
  0
SCALE
  5
35E12
102
{ACAD_REACTORS
330
CD53
102
}
330
CD53
100
AcDbScale
 70
     0
300
3/4" = 1'-0"
140
0.75
141
12.0
290
     0
1001
ACAD
1000
AcRTDxfName
1000
SCALE
1000
AcRTDxfName
1000
SCALE
  0
SCALE
  5
35E13
102
{ACAD_REACTORS
330
CD53
102
}
330
CD53
100
AcDbScale
 70
     0
300
1" = 1'-0"
140
1.0
141
12.0
290
     0
1001
ACAD
1000
AcRTDxfName
1000
SCALE
1000
AcRTDxfName
1000
SCALE
  0
SCALE
  5
35E14
102
{ACAD_REACTORS
330
CD53
102
}
330
CD53
100
AcDbScale
 70
     0
300
1-1/2" = 1'-0"
140
1.5
141
12.0
290
     0
1001
ACAD
1000
AcRTDxfName
1000
SCALE
1000
AcRTDxfName
1000
SCALE
  0
SCALE
  5
35E15
102
{ACAD_REACTORS
330
CD53
102
}
330
CD53
100
AcDbScale
 70
     0
300
3" = 1'-0"
140
3.0
141
12.0
290
     0
1001
ACAD
1000
AcRTDxfName
1000
SCALE
1000
AcRTDxfName
1000
SCALE
  0
SCALE
  5
35E16
102
{ACAD_REACTORS
330
CD53
102
}
330
CD53
100
AcDbScale
 70
     0
300
6" = 1'-0"
140
6.0
141
12.0
290
     0
1001
ACAD
1000
AcRTDxfName
1000
SCALE
1000
AcRTDxfName
1000
SCALE
  0
SCALE
  5
35E17
102
{ACAD_REACTORS
330
CD53
102
}
330
CD53
100
AcDbScale
 70
     0
300
1'-0" = 1'-0"
140
12.0
141
12.0
290
     0
1001
ACAD
1000
AcRTDxfName
1000
SCALE
1000
AcRTDxfName
1000
SCALE
  0
DICTIONARYVAR
  5
E0E
102
{ACAD_REACTORS
330
E0D
102
}
330
E0D
100
DictionaryVariables
280
     0
  1
1
  0
DICTIONARYVAR
  5
D04A
102
{ACAD_REACTORS
330
E0D
102
}
330
E0D
100
DictionaryVariables
280
     0
  1
0
  0
DICTIONARYVAR
  5
E0F
102
{ACAD_REACTORS
330
E0D
102
}
330
E0D
100
DictionaryVariables
280
     0
  1

  0
DICTIONARYVAR
  5
D049
102
{ACAD_REACTORS
330
E0D
102
}
330
E0D
100
DictionaryVariables
280
     0
  1
127
  0
ACAD_PROXY_OBJECT
  5
380001
102
{ACAD_REACTORS
330
380000
102
}
330
380000
100
AcDbProxyObject
 90
      499
 91
      516
 95
   524319
 70
     0
 93
     1888
310
51B4D146518005194651A8FC812095550000000000000B08000000000000008200000000000001807E8F2048F205000200001204000000000000581F8000000000000B0807EC3FA6DEBC0E99F8000000000001C07FE8FCC028FE07000041A4E2520CA600E2005C008C00E8005C008321803A80170023003A00170020898006
310
20064006001202DA008C2080248020801000140019001A801B00100021803780360037803900148010001000100010002080220019001A801B0021082008600820088008200A4008600900087A08032803180260030803C803280390029803A003200170032003B80338049C09
330
0
 94
        0
1001
ACAD
1000
AcRTDxfName
1000
AEC_VARS_DWG_SETUP
1000
AcRTDxfName
1000
AEC_VARS_DWG_SETUP
1000
AcRTDxfName
1000
AEC_VARS_DWG_SETUP
1000
AcRTDxfName
1000
AEC_VARS_DWG_SETUP
1000
AcRTDxfName
1000
AEC_VARS_DWG_SETUP
1000
AcRTDxfName
1000
AEC_VARS_DWG_SETUP
  0
ENDSEC
  0
EOF
