  0
SECTION
  2
HEADER
  9
$ACADVER
  1
AC1015
  9
$ACADMAINTVER
 70
     6
  9
$DWGCODEPAGE
  3
ANSI_932
  9
$INSBASE
 10
0.0
 20
0.0
 30
0.0
  9
$EXTMIN
 10
245.7402364104511
 20
-123.7539681580245
 30
0.0
  9
$EXTMAX
 10
1105.69922050314
 20
441.1440102785513
 30
0.0
  9
$LIMMIN
 10
0.0
 20
0.0
  9
$LIMMAX
 10
1189.0
 20
841.0
  9
$ORTHOMODE
 70
     0
  9
$REGENMODE
 70
     1
  9
$FILLMODE
 70
     1
  9
$QTEXTMODE
 70
     0
  9
$MIRRTEXT
 70
     1
  9
$LTSCALE
 40
1.0
  9
$ATTMODE
 70
     1
  9
$TEXTSIZE
 40
3.5
  9
$TRACEWID
 40
1.0
  9
$TEXTSTYLE
  7
Standard
  9
$CLAYER
  8
0
  9
$CELTYPE
  6
ByLayer
  9
$CECOLOR
 62
   256
  9
$CELTSCALE
 40
1.0
  9
$DISPSILH
 70
     0
  9
$DIMSCALE
 40
1.0
  9
$DIMASZ
 40
3.302
  9
$DIMEXO
 40
1.0
  9
$DIMDLI
 40
3.75
  9
$DIMRND
 40
0.0
  9
$DIMDLE
 40
0.0
  9
$DIMEXE
 40
1.0
  9
$DIMTP
 40
0.0
  9
$DIMTM
 40
0.0
  9
$DIMTXT
 40
3.5
  9
$DIMCEN
 40
2.5
  9
$DIMTSZ
 40
0.0
  9
$DIMTOL
 70
     0
  9
$DIMLIM
 70
     0
  9
$DIMTIH
 70
     1
  9
$DIMTOH
 70
     1
  9
$DIMSE1
 70
     0
  9
$DIMSE2
 70
     0
  9
$DIMTAD
 70
     1
  9
$DIMZIN
 70
     0
  9
$DIMBLK
  1

  9
$DIMASO
 70
     1
  9
$DIMSHO
 70
     1
  9
$DIMPOST
  1

  9
$DIMAPOST
  1

  9
$DIMALT
 70
     0
  9
$DIMALTD
 70
     3
  9
$DIMALTF
 40
0.0393700787401575
  9
$DIMLFAC
 40
1.0
  9
$DIMTOFL
 70
     1
  9
$DIMTVP
 40
0.0
  9
$DIMTIX
 70
     0
  9
$DIMSOXD
 70
     0
  9
$DIMSAH
 70
     0
  9
$DIMBLK1
  1

  9
$DIMBLK2
  1

  9
$DIMSTYLE
  2
ISO-25
  9
$DIMCLRD
 70
     0
  9
$DIMCLRE
 70
     0
  9
$DIMCLRT
 70
     0
  9
$DIMTFAC
 40
1.0
  9
$DIMGAP
 40
1.524
  9
$DIMJUST
 70
     0
  9
$DIMSD1
 70
     0
  9
$DIMSD2
 70
     0
  9
$DIMTOLJ
 70
     0
  9
$DIMTZIN
 70
     0
  9
$DIMALTZ
 70
     0
  9
$DIMALTTZ
 70
     0
  9
$DIMUPT
 70
     0
  9
$DIMDEC
 70
     2
  9
$DIMTDEC
 70
     2
  9
$DIMALTU
 70
     2
  9
$DIMALTTD
 70
     3
  9
$DIMTXSTY
  7
Standard
  9
$DIMAUNIT
 70
     0
  9
$DIMADEC
 70
     2
  9
$DIMALTRND
 40
0.0
  9
$DIMAZIN
 70
     0
  9
$DIMDSEP
 70
    44
  9
$DIMATFIT
 70
     3
  9
$DIMFRAC
 70
     0
  9
$DIMLDRBLK
  1

  9
$DIMLUNIT
 70
     2
  9
$DIMLWD
 70
    -2
  9
$DIMLWE
 70
    -2
  9
$DIMTMOVE
 70
     0
  9
$LUNITS
 70
     2
  9
$LUPREC
 70
     2
  9
$SKETCHINC
 40
1.0
  9
$FILLETRAD
 40
10.0
  9
$AUNITS
 70
     0
  9
$AUPREC
 70
     2
  9
$MENU
  1
.
  9
$ELEVATION
 40
0.0
  9
$PELEVATION
 40
0.0
  9
$THICKNESS
 40
0.0
  9
$LIMCHECK
 70
     0
  9
$CHAMFERA
 40
0.0
  9
$CHAMFERB
 40
0.0
  9
$CHAMFERC
 40
0.0
  9
$CHAMFERD
 40
0.0
  9
$SKPOLY
 70
     0
  9
$TDCREATE
 40
2458682.539137454
  9
$TDUCREATE
 40
2458682.164137454
  9
$TDUPDATE
 40
2458737.563517454
  9
$TDUUPDATE
 40
2458737.188517454
  9
$TDINDWG
 40
0.0057521412
  9
$TDUSRTIMER
 40
0.0004410069
  9
$USRTIMER
 70
     1
  9
$ANGBASE
 50
0.0
  9
$ANGDIR
 70
     0
  9
$PDMODE
 70
     0
  9
$PDSIZE
 40
-1.0
  9
$PLINEWID
 40
0.0
  9
$SPLFRAME
 70
     0
  9
$SPLINETYPE
 70
     6
  9
$SPLINESEGS
 70
     8
  9
$HANDSEED
  5
6FC
  9
$SURFTAB1
 70
     6
  9
$SURFTAB2
 70
     6
  9
$SURFTYPE
 70
     6
  9
$SURFU
 70
     6
  9
$SURFV
 70
     6
  9
$UCSBASE
  2

  9
$UCSNAME
  2

  9
$UCSORG
 10
0.0
 20
0.0
 30
0.0
  9
$UCSXDIR
 10
1.0
 20
0.0
 30
0.0
  9
$UCSYDIR
 10
0.0
 20
1.0
 30
0.0
  9
$UCSORTHOREF
  2

  9
$UCSORTHOVIEW
 70
     1
  9
$UCSORGTOP
 10
0.0
 20
0.0
 30
0.0
  9
$UCSORGBOTTOM
 10
0.0
 20
0.0
 30
0.0
  9
$UCSORGLEFT
 10
0.0
 20
0.0
 30
0.0
  9
$UCSORGRIGHT
 10
0.0
 20
0.0
 30
0.0
  9
$UCSORGFRONT
 10
0.0
 20
0.0
 30
0.0
  9
$UCSORGBACK
 10
0.0
 20
0.0
 30
0.0
  9
$PUCSBASE
  2

  9
$PUCSNAME
  2

  9
$PUCSORG
 10
0.0
 20
0.0
 30
0.0
  9
$PUCSXDIR
 10
1.0
 20
0.0
 30
0.0
  9
$PUCSYDIR
 10
0.0
 20
1.0
 30
0.0
  9
$PUCSORTHOREF
  2

  9
$PUCSORTHOVIEW
 70
     0
  9
$PUCSORGTOP
 10
0.0
 20
0.0
 30
0.0
  9
$PUCSORGBOTTOM
 10
0.0
 20
0.0
 30
0.0
  9
$PUCSORGLEFT
 10
0.0
 20
0.0
 30
0.0
  9
$PUCSORGRIGHT
 10
0.0
 20
0.0
 30
0.0
  9
$PUCSORGFRONT
 10
0.0
 20
0.0
 30
0.0
  9
$PUCSORGBACK
 10
0.0
 20
0.0
 30
0.0
  9
$USERI1
 70
     0
  9
$USERI2
 70
     0
  9
$USERI3
 70
     0
  9
$USERI4
 70
     0
  9
$USERI5
 70
     0
  9
$USERR1
 40
0.0
  9
$USERR2
 40
0.0
  9
$USERR3
 40
0.0
  9
$USERR4
 40
0.0
  9
$USERR5
 40
0.0
  9
$WORLDVIEW
 70
     1
  9
$SHADEDGE
 70
     3
  9
$SHADEDIF
 70
    70
  9
$TILEMODE
 70
     1
  9
$MAXACTVP
 70
    64
  9
$PINSBASE
 10
0.0
 20
0.0
 30
0.0
  9
$PLIMCHECK
 70
     0
  9
$PEXTMIN
 10
1.000000000000000E+20
 20
1.000000000000000E+20
 30
1.000000000000000E+20
  9
$PEXTMAX
 10
-1.000000000000000E+20
 20
-1.000000000000000E+20
 30
-1.000000000000000E+20
  9
$PLIMMIN
 10
0.0
 20
0.0
  9
$PLIMMAX
 10
0.0
 20
0.0
  9
$UNITMODE
 70
     0
  9
$VISRETAIN
 70
     1
  9
$PLINEGEN
 70
     0
  9
$PSLTSCALE
 70
     1
  9
$TREEDEPTH
 70
  3020
  9
$CMLSTYLE
  2
Standard
  9
$CMLJUST
 70
     0
  9
$CMLSCALE
 40
20.0
  9
$PROXYGRAPHICS
 70
     1
  9
$MEASUREMENT
 70
     1
  9
$CELWEIGHT
370
    -1
  9
$ENDCAPS
280
     0
  9
$JOINSTYLE
280
     0
  9
$LWDISPLAY
290
     1
  9
$INSUNITS
 70
     4
  9
$HYPERLINKBASE
  1

  9
$STYLESHEET
  1

  9
$XEDIT
290
     1
  9
$CEPSNTYPE
380
     0
  9
$PSTYLEMODE
290
     1
  9
$FINGERPRINTGUID
  2
{622E7696-5225-434D-B8B4-100EF819DE16}
  9
$VERSIONGUID
  2
{FAEB1C32-E019-11D5-929B-00C0DF256EC4}
  9
$EXTNAMES
290
     1
  9
$PSVPSCALE
 40
0.0
  9
$OLESTARTUP
290
     0
  0
ENDSEC
  0
SECTION
  2
CLASSES
  0
CLASS
  1
ACDBDICTIONARYWDFLT
  2
AcDbDictionaryWithDefault
  3
ObjectDBX Classes
 90
        0
280
     0
281
     0
  0
CLASS
  1
VISUALSTYLE
  2
AcDbVisualStyle
  3
ObjectDBX Classes
 90
     4095
280
     0
281
     0
  0
CLASS
  1
MATERIAL
  2
AcDbMaterial
  3
ObjectDBX Classes
 90
     1153
280
     0
281
     0
  0
CLASS
  1
SCALE
  2
AcDbScale
  3
ObjectDBX Classes
 90
     1153
280
     0
281
     0
  0
CLASS
  1
TABLESTYLE
  2
AcDbTableStyle
  3
ObjectDBX Classes
 90
     4095
280
     0
281
     0
  0
CLASS
  1
MLEADERSTYLE
  2
AcDbMLeaderStyle
  3
ACDB_MLEADERSTYLE_CLASS
 90
     4095
280
     0
281
     0
  0
CLASS
  1
SUN
  2
AcDbSun
  3
SCENEOE
 90
     1153
280
     0
281
     0
  0
CLASS
  1
ACDBPLACEHOLDER
  2
AcDbPlaceHolder
  3
ObjectDBX Classes
 90
        0
280
     0
281
     0
  0
CLASS
  1
LAYOUT
  2
AcDbLayout
  3
ObjectDBX Classes
 90
        0
280
     0
281
     0
  0
CLASS
  1
SORTENTSTABLE
  2
AcDbSortentsTable
  3
ObjectDBX Classes
 90
        0
280
     0
281
     0
  0
CLASS
  1
DICTIONARYVAR
  2
AcDbDictionaryVar
  3
ObjectDBX Classes
 90
        0
280
     0
281
     0
  0
ENDSEC
  0
SECTION
  2
TABLES
  0
TABLE
  2
VPORT
  5
8
330
0
100
AcDbSymbolTable
 70
     1
  0
VPORT
  5
29
330
8
100
AcDbSymbolTableRecord
100
AcDbViewportTableRecord
  2
*Active
 70
     0
 10
0.0
 20
0.0
 11
1.0
 21
1.0
 12
675.7197284567956
 22
158.6950210602635
 13
0.0
 23
0.0
 14
10.0
 24
10.0
 15
10.0
 25
10.0
 16
0.0
 26
0.0
 36
1.0
 17
0.0
 27
0.0
 37
0.0
 40
576.1959380053073
 41
1.940740740740741
 42
50.0
 43
0.0
 44
0.0
 50
0.0
 51
0.0
 71
    16
 72
  2000
 73
     1
 74
     3
 75
     0
 76
     0
 77
     0
 78
     0
281
     0
 65
     1
110
0.0
120
0.0
130
0.0
111
1.0
121
0.0
131
0.0
112
0.0
122
1.0
132
0.0
 79
     1
146
0.0
  0
ENDTAB
  0
TABLE
  2
LTYPE
  5
5
330
0
100
AcDbSymbolTable
 70
     6
  0
LTYPE
  5
14
330
5
100
AcDbSymbolTableRecord
100
AcDbLinetypeTableRecord
  2
ByBlock
 70
     0
  3

 72
    65
 73
     0
 40
0.0
  0
LTYPE
  5
15
330
5
100
AcDbSymbolTableRecord
100
AcDbLinetypeTableRecord
  2
ByLayer
 70
     0
  3

 72
    65
 73
     0
 40
0.0
  0
LTYPE
  5
16
330
5
100
AcDbSymbolTableRecord
100
AcDbLinetypeTableRecord
  2
Continuous
 70
     0
  3
Solid line
 72
    65
 73
     0
 40
0.0
  0
LTYPE
  5
6E
330
5
100
AcDbSymbolTableRecord
100
AcDbLinetypeTableRecord
  2
HIDDEN
 70
     0
  3
Hidden __ __ __ __ __ __ __ __ __ __ __ __ __ __
 72
    65
 73
     2
 40
1.905
 49
1.27
 74
     0
 49
-0.635
 74
     0
  0
LTYPE
  5
6F
330
5
100
AcDbSymbolTableRecord
100
AcDbLinetypeTableRecord
  2
PHANTOM
 70
     0
  3
Phantom ______  __  __  ______  __  __  ______
 72
    65
 73
     6
 40
12.7
 49
6.35
 74
     0
 49
-1.27
 74
     0
 49
1.27
 74
     0
 49
-1.27
 74
     0
 49
1.27
 74
     0
 49
-1.27
 74
     0
  0
LTYPE
  5
70
330
5
100
AcDbSymbolTableRecord
100
AcDbLinetypeTableRecord
  2
CENTER
 70
     0
  3
Center ____ _ ____ _ ____ _ ____ _ ____ _ ____
 72
    65
 73
     4
 40
10.16
 49
6.35
 74
     0
 49
-1.27
 74
     0
 49
1.27
 74
     0
 49
-1.27
 74
     0
  0
LTYPE
  5
71
330
5
100
AcDbSymbolTableRecord
100
AcDbLinetypeTableRecord
  2
CENTERX2
 70
     0
  3
Center (2x) ________  __  ________  __  _____
 72
    65
 73
     4
 40
20.32
 49
12.7
 74
     0
 49
-2.54
 74
     0
 49
2.54
 74
     0
 49
-2.54
 74
     0
  0
LTYPE
  5
72
330
5
100
AcDbSymbolTableRecord
100
AcDbLinetypeTableRecord
  2
DOT2
 70
     0
  3
Dot (.5x) ........................................
 72
    65
 73
     2
 40
0.635
 49
0.0
 74
     0
 49
-0.635
 74
     0
  0
ENDTAB
  0
TABLE
  2
LAYER
  5
2
102
{ACAD_XDICTIONARY
360
308
102
}
330
0
100
AcDbSymbolTable
 70
     3
  0
LAYER
  5
10
330
2
100
AcDbSymbolTableRecord
100
AcDbLayerTableRecord
  2
0
 70
     0
 62
     7
  6
Continuous
370
    -3
390
F
  0
LAYER
  5
73
330
2
100
AcDbSymbolTableRecord
100
AcDbLayerTableRecord
  2
FORMAT
 70
     0
 62
     7
  6
Continuous
370
    -3
390
F
  0
LAYER
  5
2E8
102
{ACAD_XDICTIONARY
360
2E9
102
}
330
2
100
AcDbSymbolTableRecord
100
AcDbLayerTableRecord
  2
寸法線
 70
     0
 62
     7
  6
Continuous
370
    -3
390
F
  0
ENDTAB
  0
TABLE
  2
STYLE
  5
3
330
0
100
AcDbSymbolTable
 70
     3
  0
STYLE
  5
11
330
3
100
AcDbSymbolTableRecord
100
AcDbTextStyleTableRecord
  2
Standard
 70
     0
 40
0.0
 41
1.0
 50
0.0
 71
     0
 42
3.5
  3
txt
  4
bigfont
  0
STYLE
  5
E1
330
3
100
AcDbSymbolTableRecord
100
AcDbTextStyleTableRecord
  2
SLDTEXTSTYLE0
 70
     0
 40
0.0
 41
0.75
 50
0.0
 71
     0
 42
3.5
  3
TXT
  4
bigfont
  0
STYLE
  5
135
330
3
100
AcDbSymbolTableRecord
100
AcDbTextStyleTableRecord
  2
SLDTEXTSTYLE1
 70
     0
 40
0.0
 41
0.65625
 50
0.0
 71
     0
 42
3.5
  3
TXT
  4
bigfont
  0
ENDTAB
  0
TABLE
  2
VIEW
  5
6
330
0
100
AcDbSymbolTable
 70
     0
  0
ENDTAB
  0
TABLE
  2
UCS
  5
7
330
0
100
AcDbSymbolTable
 70
     0
  0
ENDTAB
  0
TABLE
  2
APPID
  5
9
330
0
100
AcDbSymbolTable
 70
     4
  0
APPID
  5
12
330
9
100
AcDbSymbolTableRecord
100
AcDbRegAppTableRecord
  2
ACAD
 70
     0
  0
APPID
  5
2F4
330
9
100
AcDbSymbolTableRecord
100
AcDbRegAppTableRecord
  2
ACAD_DSTYLE_DIMJAG
 70
     0
  0
APPID
  5
2F5
330
9
100
AcDbSymbolTableRecord
100
AcDbRegAppTableRecord
  2
ACAD_DSTYLE_DIMTALN
 70
     0
  0
APPID
  5
2FE
330
9
100
AcDbSymbolTableRecord
100
AcDbRegAppTableRecord
  2
ACAD_PSEXT
 70
     0
  0
ENDTAB
  0
TABLE
  2
DIMSTYLE
  5
A
330
0
100
AcDbSymbolTable
 70
     4
100
AcDbDimStyleTable
  0
DIMSTYLE
105
27
330
A
100
AcDbSymbolTableRecord
100
AcDbDimStyleTableRecord
  2
ISO-25
 70
     0
 41
2.5
 42
0.625
 43
3.75
 44
1.25
 73
     0
 74
     0
 77
     1
 78
     8
140
2.5
141
2.5
143
0.03937007874016
147
0.625
171
     3
172
     1
178
     0
271
     2
272
     2
274
     3
278
    44
283
     0
284
     8
340
11
  0
DIMSTYLE
105
2EC
330
A
100
AcDbSymbolTableRecord
100
AcDbDimStyleTableRecord
  2
STANDARD
 70
     0
 41
2.5
 42
1.5
 44
1.0
 73
     0
 74
     0
 77
     3
 78
     8
 79
     2
140
2.500000000000003
141
0.0
147
1.0
171
     0
172
     1
173
     1
176
     8
177
     8
271
     2
178
   256
179
     2
271
     2
272
     2
274
     0
289
     1
340
11
341
2EE
343
2EE
344
2EE
1001
ACAD_DSTYLE_DIMJAG
1070
   388
1040
1.5
1001
ACAD_DSTYLE_DIMTALN
1070
   392
1070
     0
  0
DIMSTYLE
105
2F6
330
A
100
AcDbSymbolTableRecord
100
AcDbDimStyleTableRecord
  2
STANDARD$0
 70
     0
 41
2.5
 42
1.0
 43
4.0
 44
1.0
 73
     0
 74
     0
 77
     1
 78
     8
140
2.5
145
1.0
147
0.9999999999999991
171
     0
172
     1
176
     8
177
     8
271
     2
178
   256
271
     2
272
     2
274
     0
284
     8
289
     1
340
11
341
2F7
342
2EE
371
    -1
372
    -1
1001
ACAD_DSTYLE_DIMJAG
1070
   388
1040
1.5
1001
ACAD_DSTYLE_DIMTALN
1070
   392
1070
     0
  0
DIMSTYLE
105
2FD
330
A
100
AcDbSymbolTableRecord
100
AcDbDimStyleTableRecord
  2
STANDARD-1
 70
     0
 41
4.0
 42
3.0
 43
2.0
 44
2.0
 73
     0
 74
     0
 77
     3
 78
     8
 79
     2
140
5.0
141
0.0
147
2.0
172
     1
176
   252
177
   252
178
     0
179
     2
271
     2
272
     2
288
     1
289
     0
340
11
341
2EE
342
2EE
1001
ACAD_DSTYLE_DIMJAG
1070
   388
1040
1.5
1001
ACAD_DSTYLE_DIMTALN
1070
   392
1070
     0
  0
ENDTAB
  0
TABLE
  2
BLOCK_RECORD
  5
1
330
0
100
AcDbSymbolTable
 70
     4
  0
BLOCK_RECORD
  5
1F
330
1
100
AcDbSymbolTableRecord
100
AcDbBlockTableRecord
  2
*Model_Space
340
22
  0
BLOCK_RECORD
  5
1B
330
1
100
AcDbSymbolTableRecord
100
AcDbBlockTableRecord
  2
*Paper_Space
340
1E
  0
BLOCK_RECORD
  5
23
330
1
100
AcDbSymbolTableRecord
100
AcDbBlockTableRecord
  2
*Paper_Space0
340
26
  0
BLOCK_RECORD
  5
142
330
1
100
AcDbSymbolTableRecord
100
AcDbBlockTableRecord
  2
SW_NOTE_0
340
0
  0
BLOCK_RECORD
  5
2EE
330
1
100
AcDbSymbolTableRecord
100
AcDbBlockTableRecord
  2
_OPEN
340
0
  0
BLOCK_RECORD
  5
2F7
330
1
100
AcDbSymbolTableRecord
100
AcDbBlockTableRecord
  2
SUN
340
0
  0
ENDTAB
  0
ENDSEC
  0
SECTION
  2
BLOCKS
  0
BLOCK
  5
20
330
1F
100
AcDbEntity
  8
0
100
AcDbBlockBegin
  2
*Model_Space
 70
     0
 10
0.0
 20
0.0
 30
0.0
  3
*Model_Space
  1

  0
ENDBLK
  5
21
330
1F
100
AcDbEntity
  8
0
100
AcDbBlockEnd
  0
BLOCK
  5
1C
330
1B
100
AcDbEntity
 67
     1
  8
0
100
AcDbBlockBegin
  2
*Paper_Space
 70
     0
 10
0.0
 20
0.0
 30
0.0
  3
*Paper_Space
  1

  0
ENDBLK
  5
1D
330
1B
100
AcDbEntity
 67
     1
  8
0
100
AcDbBlockEnd
  0
BLOCK
  5
24
330
23
100
AcDbEntity
  8
0
100
AcDbBlockBegin
  2
*Paper_Space0
 70
     0
 10
0.0
 20
0.0
 30
0.0
  3
*Paper_Space0
  1

  0
ENDBLK
  5
25
330
23
100
AcDbEntity
  8
0
100
AcDbBlockEnd
  0
BLOCK
  5
143
330
142
100
AcDbEntity
  8
0
100
AcDbBlockBegin
  2
SW_NOTE_0
 70
     0
 10
0.0
 20
0.0
 30
0.0
  3
SW_NOTE_0
  1

  0
MTEXT
  5
145
330
142
100
AcDbEntity
  8
0
  6
Continuous
 62
     0
370
     0
100
AcDbMText
 10
0.0
 20
1.933601609657942
 30
0.0
 40
1.5
 41
0.0
 71
     1
 72
     1
  1
指示なき場合：
  7
SLDTEXTSTYLE0
 73
     1
 44
1.0
  0
MTEXT
  5
146
330
142
100
AcDbEntity
  8
0
  6
Continuous
 62
     0
370
     0
100
AcDbMText
 10
0.0
 20
-0.5663983344627033
 30
0.0
 40
1.5
 41
0.0
 71
     1
 72
     1
  1
寸法はミリメータとする　
  7
SLDTEXTSTYLE0
 73
     1
 44
1.0
  0
MTEXT
  5
147
330
142
100
AcDbEntity
  8
0
  6
Continuous
 62
     0
370
     0
100
AcDbMText
 10
0.0
 20
-3.066398278583349
 30
0.0
 40
1.5
 41
0.0
 71
     1
 72
     1
  1
表面粗さ：
  7
SLDTEXTSTYLE0
 73
     1
 44
1.0
  0
MTEXT
  5
148
330
142
100
AcDbEntity
  8
0
  6
Continuous
 62
     0
370
     0
100
AcDbMText
 10
0.0
 20
-5.566398222703994
 30
0.0
 40
1.5
 41
0.0
 71
     1
 72
     1
  1
　公差　：
  7
SLDTEXTSTYLE0
 73
     1
 44
1.0
  0
MTEXT
  5
149
330
142
100
AcDbEntity
  8
0
  6
Continuous
 62
     0
370
     0
100
AcDbMText
 10
0.0
 20
-8.06639816682464
 30
0.0
 40
1.5
 41
0.0
 71
     1
 72
     1
  1
　寸法　：
  7
SLDTEXTSTYLE0
 73
     1
 44
1.0
  0
MTEXT
  5
14A
330
142
100
AcDbEntity
  8
0
  6
Continuous
 62
     0
370
     0
100
AcDbMText
 10
0.0
 20
-10.56639811094528
 30
0.0
 40
1.5
 41
0.0
 71
     1
 72
     1
  1
　角度　：
  7
SLDTEXTSTYLE0
 73
     1
 44
1.0
  0
ENDBLK
  5
144
330
142
100
AcDbEntity
  8
0
100
AcDbBlockEnd
  0
BLOCK
  5
2EF
330
2EE
100
AcDbEntity
  8
0
100
AcDbBlockBegin
  2
_OPEN
 70
     0
 10
0.0
 20
0.0
 30
0.0
  3
_OPEN
  1

  0
LINE
  5
2F0
330
2EE
100
AcDbEntity
  8
0
  6
ByBlock
 62
     0
100
AcDbLine
 10
-1.0
 20
0.1666666666666667
 30
0.0
 11
0.0
 21
0.0
 31
0.0
  0
LINE
  5
2F1
330
2EE
100
AcDbEntity
  8
0
  6
ByBlock
 62
     0
100
AcDbLine
 10
0.0
 20
0.0
 30
0.0
 11
-1.0
 21
-0.1666666666666667
 31
0.0
  0
LINE
  5
2F2
330
2EE
100
AcDbEntity
  8
0
  6
ByBlock
 62
     0
100
AcDbLine
 10
0.0
 20
0.0
 30
0.0
 11
-1.0
 21
0.0
 31
0.0
  0
ENDBLK
  5
2F3
330
2EE
100
AcDbEntity
  8
0
100
AcDbBlockEnd
  0
BLOCK
  5
2F8
330
2F7
100
AcDbEntity
  8
0
100
AcDbBlockBegin
  2
SUN
 70
     0
 10
0.0
 20
0.0
 30
0.0
  3
SUN
  1

  0
LINE
  5
2F9
330
2F7
100
AcDbEntity
  8
0
100
AcDbLine
 10
-0.0000000000000568
 20
0.0
 30
0.0
 11
-1.500000000000057
 21
0.0
 31
0.0
  0
LINE
  5
2FA
330
2F7
100
AcDbEntity
  8
0
100
AcDbLine
 10
-0.0000000000000568
 20
0.0000000000000284
 30
0.0
 11
-1.500000000000057
 21
0.401923788646684
 31
0.0
  0
LINE
  5
2FB
330
2F7
100
AcDbEntity
  8
0
100
AcDbLine
 10
-0.0000000000000568
 20
0.0000000000000284
 30
0.0
 11
-1.500000000000057
 21
-0.4019237886466556
 31
0.0
  0
ENDBLK
  5
2FC
330
2F7
100
AcDbEntity
  8
0
100
AcDbBlockEnd
  0
ENDSEC
  0
SECTION
  2
ENTITIES
  0
ARC
  5
159
330
1F
100
AcDbEntity
  8
0
  6
Continuous
 62
     7
370
    25
100
AcDbCircle
 10
245.9402364104511
 20
400.0369743538631
 30
0.0
 40
0.2000000000000266
100
AcDbArc
 50
180.0
 51
240.0026882663649
  0
LINE
  5
15A
330
1F
100
AcDbEntity
  8
0
  6
Continuous
 62
     7
370
    25
100
AcDbLine
 10
245.7402442795296
 20
430.7389034846743
 30
0.0
 11
245.7402442795296
 21
400.036969673955
 31
0.0
  0
LINE
  5
15B
330
1F
100
AcDbEntity
  8
0
  6
Continuous
 62
     7
370
    25
100
AcDbLine
 10
245.8402462387003
 20
399.8637639672768
 30
0.0
 11
246.6180663279688
 21
399.4147379875288
 31
0.0
  0
ARC
  5
15C
330
1F
100
AcDbEntity
  8
0
  6
Continuous
 62
     7
370
    25
100
AcDbCircle
 10
263.6179059401148
 20
440.9440102785512
 30
0.0
 40
0.2000000000000692
100
AcDbArc
 50
60.00268826634286
 51
119.9973117336289
  0
LINE
  5
15D
330
1F
100
AcDbEntity
  8
0
  6
Continuous
 62
     7
370
    25
100
AcDbLine
 10
264.4957189659675
 20
440.6681936124836
 30
0.0
 11
263.7178988766989
 21
441.1172195922316
 31
0.0
  0
LINE
  5
15E
330
1F
100
AcDbEntity
  8
0
  6
Continuous
 62
     7
370
    25
100
AcDbLine
 10
263.5179140561482
 20
441.1172207327406
 30
0.0
 11
245.8402442630667
 21
430.9121191828888
 31
0.0
  0
ARC
  5
15F
330
1F
100
AcDbEntity
  8
0
  6
Continuous
 62
     7
370
    25
100
AcDbCircle
 10
245.9402364104511
 20
430.7389088807673
 30
0.0
 40
0.2000000000000058
100
AcDbArc
 50
119.9973117336582
 51
180.0
  0
ARC
  5
176
330
1F
100
AcDbEntity
  8
0
  6
Continuous
 62
     7
370
    25
100
AcDbCircle
 10
263.6179046695339
 20
410.0507409158909
 30
0.0
 40
0.3074344667704958
100
AcDbArc
 50
62.61204327093908
 51
117.3873406424901
  0
ARC
  5
177
330
1F
100
AcDbEntity
  8
0
  6
Continuous
 62
     7
370
    25
100
AcDbCircle
 10
263.4522849566113
 20
410.337688084077
 30
0.0
 40
0.3073613642656661
100
AcDbArc
 50
302.6055705212731
 51
357.3944846941252
  0
ARC
  5
178
330
1F
100
AcDbEntity
  8
0
  6
Continuous
 62
     7
370
    25
100
AcDbCircle
 10
263.7835558590756
 20
410.3377062569799
 30
0.0
 40
0.3073906335224549
100
AcDbArc
 50
182.6083741322098
 51
237.3921868391835
  0
LINE
  5
179
330
1F
100
AcDbEntity
  8
0
  6
Continuous
 62
     7
370
    25
100
AcDbLine
 10
263.476483704062
 20
410.3237172186782
 30
0.0
 11
263.476483704062
 21
441.0256510293975
 31
0.0
  0
ARC
  5
17A
330
1F
100
AcDbEntity
  8
0
  6
Continuous
 62
     7
370
    25
100
AcDbCircle
 10
263.6179046695339
 20
440.7526747266097
 30
0.0
 40
0.3074344667709841
100
AcDbArc
 50
62.6120432709638
 51
117.3873406424271
  0
LINE
  5
17B
330
1F
100
AcDbEntity
  8
0
  6
Continuous
 62
     7
370
    25
100
AcDbLine
 10
263.7593285702407
 20
441.0256495087189
 30
0.0
 11
263.7593285702407
 21
410.3237156979997
 31
0.0
  0
LINE
  5
17C
330
1F
100
AcDbEntity
  8
0
  6
Continuous
 62
     7
370
    25
100
AcDbLine
 10
257.4784185077792
 20
406.8611078845762
 30
0.0
 11
263.476483704062
 21
410.3237172186782
 31
0.0
  0
LINE
  5
17D
330
1F
100
AcDbEntity
  8
0
  6
Continuous
 62
     7
370
    25
100
AcDbLine
 10
263.6179074542404
 20
410.0787668672516
 30
0.0
 11
257.6173737038693
 21
406.6147324672078
 31
0.0
  0
ELLIPSE
  5
17E
330
1F
100
AcDbEntity
  8
0
  6
Continuous
 62
     7
370
    25
100
AcDbEllipse
 10
257.6173723758506
 20
406.7780414590404
 30
0.0
 11
-0.0974149464412335
 21
0.1746892004040889
 31
0.0
210
0.0
220
0.0
230
1.0
 40
0.5672183927596084
 41
0.793906686310011
 42
2.364703013104416
  0
LINE
  5
17F
330
1F
100
AcDbEntity
  8
0
  6
Continuous
 62
     7
370
    25
100
AcDbLine
 10
263.7593285702407
 20
410.3237156979997
 30
0.0
 11
264.5371486595092
 21
409.8746897182516
 31
0.0
  0
ARC
  5
180
330
1F
100
AcDbEntity
  8
0
  6
Continuous
 62
     7
370
    25
100
AcDbCircle
 10
264.2301050458802
 20
409.8886621043288
 30
0.0
 40
0.3073613642652704
100
AcDbArc
 50
302.6055705212278
 51
357.3944846941324
  0
LINE
  5
181
330
1F
100
AcDbEntity
  8
0
  6
Continuous
 62
     7
370
    25
100
AcDbLine
 10
264.3957275435089
 20
409.6297408875036
 30
0.0
 11
263.6179074542404
 21
410.0787668672516
 31
0.0
  0
LINE
  5
182
330
1F
100
AcDbEntity
  8
0
  6
Continuous
 62
     7
370
    25
100
AcDbLine
 10
264.5371486595092
 20
440.5766235289709
 30
0.0
 11
263.7593285702407
 21
441.0256495087189
 31
0.0
  0
LINE
  5
183
330
1F
100
AcDbEntity
  8
0
  6
Continuous
 62
     7
370
    25
100
AcDbLine
 10
264.5371486595092
 20
440.5766235289709
 30
0.0
 11
264.5371486595092
 21
409.8746897182516
 31
0.0
  0
LINE
  5
184
330
1F
100
AcDbEntity
  8
0
  6
Continuous
 62
     7
370
    25
100
AcDbLine
 10
263.476483704062
 20
441.0256510293975
 30
0.0
 11
245.7988139109805
 21
430.8205494795458
 31
0.0
  0
LINE
  5
185
330
1F
100
AcDbEntity
  8
0
  6
Continuous
 62
     7
370
    25
100
AcDbLine
 10
257.4784185077792
 20
406.8611078845762
 30
0.0
 11
257.4784185077792
 21
413.6526496000499
 31
0.0
  0
LINE
  5
186
330
1F
100
AcDbEntity
  8
0
  6
Continuous
 62
     7
370
    25
100
AcDbLine
 10
257.4784185077792
 20
413.6526496000499
 30
0.0
 11
251.7968791072634
 21
410.3727667184023
 31
0.0
  0
LINE
  5
187
330
1F
100
AcDbEntity
  8
0
  6
Continuous
 62
     7
370
    25
100
AcDbLine
 10
251.7968791072634
 20
403.5812250029286
 30
0.0
 11
251.7968791072634
 21
410.3727667184023
 31
0.0
  0
LINE
  5
188
330
1F
100
AcDbEntity
  8
0
  6
Continuous
 62
     7
370
    25
100
AcDbLine
 10
245.7988139109805
 20
400.1186156688266
 30
0.0
 11
251.7968791072634
 21
403.5812250029286
 31
0.0
  0
LINE
  5
189
330
1F
100
AcDbEntity
  8
0
  6
Continuous
 62
     7
370
    25
100
AcDbLine
 10
245.7988139109805
 20
430.8205494795458
 30
0.0
 11
245.7988139109805
 21
400.1186156688266
 31
0.0
  0
LINE
  5
18A
330
1F
100
AcDbEntity
  8
0
  6
Continuous
 62
     7
370
    25
100
AcDbLine
 10
251.1082862011982
 20
403.8298150792342
 30
0.0
 11
251.1082862011982
 21
410.7704117871056
 31
0.0
  0
LINE
  5
18B
330
1F
100
AcDbEntity
  8
0
  6
Continuous
 62
     7
370
    25
100
AcDbLine
 10
251.1082862011982
 20
410.7704117871056
 30
0.0
 11
258.1670114138444
 21
414.8453271153546
 31
0.0
  0
LINE
  5
18C
330
1F
100
AcDbEntity
  8
0
  6
Continuous
 62
     7
370
    25
100
AcDbLine
 10
258.1670114138444
 20
414.8453271153546
 30
0.0
 11
258.1670114138444
 21
407.9047304074833
 31
0.0
  0
LINE
  5
18D
330
1F
100
AcDbEntity
  8
0
  6
Continuous
 62
     7
370
    25
100
AcDbLine
 10
258.1670114138444
 20
407.9047304074833
 30
0.0
 11
262.9169691435562
 21
410.6468226377717
 31
0.0
  0
LINE
  5
18E
330
1F
100
AcDbEntity
  8
0
  6
Continuous
 62
     7
370
    25
100
AcDbLine
 10
262.9169691435562
 20
410.6468226377717
 30
0.0
 11
262.9169691435562
 21
440.0565456672597
 31
0.0
  0
LINE
  5
18F
330
1F
100
AcDbEntity
  8
0
  6
Continuous
 62
     7
370
    25
100
AcDbLine
 10
262.9169691435562
 20
440.0565456672597
 30
0.0
 11
246.3583284714863
 21
430.497445878434
 31
0.0
  0
LINE
  5
190
330
1F
100
AcDbEntity
  8
0
  6
Continuous
 62
     7
370
    25
100
AcDbLine
 10
246.3583284714863
 20
430.497445878434
 30
0.0
 11
246.3583284714863
 21
401.0877228489458
 31
0.0
  0
LINE
  5
191
330
1F
100
AcDbEntity
  8
0
  6
Continuous
 62
     7
370
    25
100
AcDbLine
 10
246.3583284714863
 20
401.0877228489458
 30
0.0
 11
251.1082862011982
 21
403.8298150792342
 31
0.0
  0
LINE
  5
192
330
1F
100
AcDbEntity
  8
0
  6
Continuous
 62
     7
370
    25
100
AcDbLine
 10
258.1731737440778
 20
406.2824757862546
 30
0.0
 11
252.5163192258993
 21
403.0168431838546
 31
0.0
  0
LINE
  5
193
330
1F
100
AcDbEntity
  8
0
  6
Continuous
 62
     7
370
    25
100
AcDbLine
 10
258.1731737440778
 20
406.2824757862546
 30
0.0
 11
257.6173737038693
 21
406.6147324672078
 31
0.0
  0
LINE
  5
194
330
1F
100
AcDbEntity
  8
0
  6
Continuous
 62
     7
370
    25
100
AcDbLine
 10
264.5371512936872
 20
409.5480986943286
 30
0.0
 11
264.3957275435089
 21
409.6297408875036
 31
0.0
  0
LINE
  5
195
330
1F
100
AcDbEntity
  8
0
  6
Continuous
 62
     7
370
    25
100
AcDbLine
 10
264.5371512936872
 20
409.5480986943286
 30
0.0
 11
246.8594815006057
 21
399.3429971444768
 31
0.0
  0
LINE
  5
196
330
1F
100
AcDbEntity
  8
0
  6
Continuous
 62
     7
370
    25
100
AcDbLine
 10
246.8594815006057
 20
399.3429971444768
 30
0.0
 11
246.7180577504274
 21
399.4246393376519
 31
0.0
  0
LINE
  5
197
330
1F
100
AcDbEntity
  8
0
  6
Continuous
 62
     7
370
    25
100
AcDbLine
 10
245.9402376611588
 20
399.8736653173999
 30
0.0
 11
246.7180577504274
 21
399.4246393376519
 31
0.0
  0
LINE
  5
198
330
1F
100
AcDbEntity
  8
0
  6
Continuous
 62
     7
370
    25
100
AcDbLine
 10
251.9407714115299
 20
403.3376997174436
 30
0.0
 11
245.9402376611588
 21
399.8736653173999
 31
0.0
  0
LINE
  5
199
330
1F
100
AcDbEntity
  8
0
  6
Continuous
 62
     7
370
    25
100
AcDbLine
 10
252.5163192258993
 20
403.0168431838546
 30
0.0
 11
251.9407714115299
 21
403.3376997174436
 31
0.0
  0
LINE
  5
19A
330
1F
100
AcDbEntity
  8
0
  6
Continuous
 62
     7
370
    25
100
AcDbLine
 10
264.5371512936872
 20
409.5480986943286
 30
0.0
 11
264.5371512936872
 21
409.8746884896885
 31
0.0
  0
LINE
  5
19B
330
1F
100
AcDbEntity
  8
0
  6
Continuous
 62
     7
370
    25
100
AcDbLine
 10
264.5371512936872
 20
440.5766242134473
 30
0.0
 11
264.5371512936872
 21
440.5766485482598
 31
0.0
  0
LINE
  5
19C
330
1F
100
AcDbEntity
  8
0
  6
Continuous
 62
     7
370
    25
100
AcDbLine
 10
258.2438997778739
 20
414.8039865743963
 30
0.0
 11
258.1670114138444
 21
414.8453271153546
 31
0.0
  0
LINE
  5
19D
330
1F
100
AcDbEntity
  8
0
  6
Continuous
 62
     7
370
    25
100
AcDbLine
 10
257.5220227152863
 20
406.7162546204876
 30
0.0
 11
252.3064947625826
 21
403.7053944213531
 31
0.0
  0
LINE
  5
19E
330
1F
100
AcDbEntity
  8
0
  6
Continuous
 62
     7
370
    25
100
AcDbLine
 10
252.3064947625826
 20
403.7053944213531
 30
0.0
 11
252.5163192258993
 21
403.0168431838546
 31
0.0
  0
LINE
  5
19F
330
1F
100
AcDbEntity
  8
0
  6
Continuous
 62
     7
370
    25
100
AcDbLine
 10
257.4784244346797
 20
407.0951992712942
 30
0.0
 11
252.3064947625826
 21
404.109507823822
 31
0.0
  0
LINE
  5
1A0
330
1F
100
AcDbEntity
  8
0
  6
Continuous
 62
     7
370
    25
100
AcDbLine
 10
252.3064947625826
 20
404.109507823822
 30
0.0
 11
252.3064947625826
 21
403.7053944213531
 31
0.0
  0
LINE
  5
1A1
330
1F
100
AcDbEntity
  8
0
  6
Continuous
 62
     7
370
    25
100
AcDbLine
 10
257.4784244346797
 20
407.6709348896287
 30
0.0
 11
252.3064947625826
 21
404.6852434421563
 31
0.0
  0
LINE
  5
1A2
330
1F
100
AcDbEntity
  8
0
  6
Continuous
 62
     7
370
    25
100
AcDbLine
 10
252.3064947625826
 20
404.6852434421563
 30
0.0
 11
252.4557044844788
 21
404.1956409149469
 31
0.0
  0
LINE
  5
1A3
330
1F
100
AcDbEntity
  8
0
  6
Continuous
 62
     7
370
    25
100
AcDbLine
 10
257.4784244346797
 20
408.0750482920974
 30
0.0
 11
252.3064947625826
 21
405.0893568446252
 31
0.0
  0
LINE
  5
1A4
330
1F
100
AcDbEntity
  8
0
  6
Continuous
 62
     7
370
    25
100
AcDbLine
 10
252.3064947625826
 20
405.0893568446252
 30
0.0
 11
252.3064947625826
 21
404.6852434421563
 31
0.0
  0
LINE
  5
1A5
330
1F
100
AcDbEntity
  8
0
  6
Continuous
 62
     7
370
    25
100
AcDbLine
 10
257.4784244346797
 20
408.6507839104319
 30
0.0
 11
252.3064947625826
 21
405.6650924629596
 31
0.0
  0
LINE
  5
1A6
330
1F
100
AcDbEntity
  8
0
  6
Continuous
 62
     7
370
    25
100
AcDbLine
 10
252.3064947625826
 20
405.6650924629596
 30
0.0
 11
252.4557044844788
 21
405.1754899357501
 31
0.0
  0
LINE
  5
1A7
330
1F
100
AcDbEntity
  8
0
  6
Continuous
 62
     7
370
    25
100
AcDbLine
 10
257.4784244346797
 20
409.054897122785
 30
0.0
 11
252.3064947625826
 21
406.0692056753127
 31
0.0
  0
LINE
  5
1A8
330
1F
100
AcDbEntity
  8
0
  6
Continuous
 62
     7
370
    25
100
AcDbLine
 10
252.3064947625826
 20
406.0692056753127
 30
0.0
 11
252.3064947625826
 21
405.6650924629596
 31
0.0
  0
LINE
  5
1A9
330
1F
100
AcDbEntity
  8
0
  6
Continuous
 62
     7
370
    25
100
AcDbLine
 10
257.4784244346797
 20
409.6306329312351
 30
0.0
 11
252.3064947625826
 21
406.6449414837628
 31
0.0
  0
LINE
  5
1AA
330
1F
100
AcDbEntity
  8
0
  6
Continuous
 62
     7
370
    25
100
AcDbLine
 10
252.3064947625826
 20
406.6449414837628
 30
0.0
 11
252.4557044844788
 21
406.1553387664376
 31
0.0
  0
LINE
  5
1AB
330
1F
100
AcDbEntity
  8
0
  6
Continuous
 62
     7
370
    25
100
AcDbLine
 10
257.4784244346797
 20
410.0347463337039
 30
0.0
 11
252.3064947625826
 21
407.0490548862317
 31
0.0
  0
LINE
  5
1AC
330
1F
100
AcDbEntity
  8
0
  6
Continuous
 62
     7
370
    25
100
AcDbLine
 10
252.3064947625826
 20
407.0490548862317
 30
0.0
 11
252.3064947625826
 21
406.6449414837628
 31
0.0
  0
LINE
  5
1AD
330
1F
100
AcDbEntity
  8
0
  6
Continuous
 62
     7
370
    25
100
AcDbLine
 10
257.4784244346797
 20
410.6104817619226
 30
0.0
 11
252.3064947625826
 21
407.6247903144503
 31
0.0
  0
LINE
  5
1AE
330
1F
100
AcDbEntity
  8
0
  6
Continuous
 62
     7
370
    25
100
AcDbLine
 10
252.3064947625826
 20
407.6247903144503
 30
0.0
 11
252.4557044844788
 21
407.1351877872409
 31
0.0
  0
LINE
  5
1AF
330
1F
100
AcDbEntity
  8
0
  6
Continuous
 62
     7
370
    25
100
AcDbLine
 10
257.4784244346797
 20
411.0145951643914
 30
0.0
 11
252.3064947625826
 21
408.0289037169192
 31
0.0
  0
LINE
  5
1B0
330
1F
100
AcDbEntity
  8
0
  6
Continuous
 62
     7
370
    25
100
AcDbLine
 10
252.3064947625826
 20
408.0289037169192
 30
0.0
 11
252.3064947625826
 21
407.6247903144503
 31
0.0
  0
LINE
  5
1B1
330
1F
100
AcDbEntity
  8
0
  6
Continuous
 62
     7
370
    25
100
AcDbLine
 10
257.4784244346797
 20
411.5903305926101
 30
0.0
 11
252.3064947625826
 21
408.6046391451378
 31
0.0
  0
LINE
  5
1B2
330
1F
100
AcDbEntity
  8
0
  6
Continuous
 62
     7
370
    25
100
AcDbLine
 10
252.3064947625826
 20
408.6046391451378
 30
0.0
 11
252.4557044844788
 21
408.1150366179284
 31
0.0
  0
LINE
  5
1B3
330
1F
100
AcDbEntity
  8
0
  6
Continuous
 62
     7
370
    25
100
AcDbLine
 10
257.4784244346797
 20
411.9944439950789
 30
0.0
 11
252.3064947625826
 21
409.0087525476067
 31
0.0
  0
LINE
  5
1B4
330
1F
100
AcDbEntity
  8
0
  6
Continuous
 62
     7
370
    25
100
AcDbLine
 10
252.3064947625826
 20
409.0087525476067
 30
0.0
 11
252.3064947625826
 21
408.6046391451378
 31
0.0
  0
LINE
  5
1B5
330
1F
100
AcDbEntity
  8
0
  6
Continuous
 62
     7
370
    25
100
AcDbLine
 10
251.7968791072634
 20
410.3727667184023
 30
0.0
 11
252.5163192258993
 21
409.9574404620731
 31
0.0
  0
LINE
  5
1B6
330
1F
100
AcDbEntity
  8
0
  6
Continuous
 62
     7
370
    25
100
AcDbLine
 10
252.5163192258993
 20
409.9574404620731
 30
0.0
 11
252.5163192258993
 21
409.1298990403931
 31
0.0
  0
ELLIPSE
  5
1B7
330
1F
100
AcDbEntity
  8
0
  6
Continuous
 62
     7
370
    25
100
AcDbEllipse
 10
251.9407699747153
 20
403.5010086464696
 30
0.0
 11
-0.1026525863727841
 21
0.1716643463722676
 31
0.0
210
0.0
220
0.0
230
1.0
 40
0.5873687162540265
 41
0.7764427606543296
 42
2.34723908744941
  0
ARC
  5
1B8
330
1F
100
AcDbEntity
  8
0
  6
Continuous
 62
     7
370
    25
100
AcDbCircle
 10
246.1058860659946
 20
400.1326047071282
 30
0.0
 40
0.3073906335227956
100
AcDbArc
 50
182.6083741322069
 51
237.3921868391191
  0
LINE
  5
1B9
330
1F
100
AcDbEntity
  8
0
  6
Continuous
 62
     7
370
    25
100
AcDbLine
 10
257.4784094527922
 20
412.8219941763181
 30
0.0
 11
252.5163192258993
 21
409.9574404620731
 31
0.0
  0
LINE
  5
1BA
330
1F
100
AcDbEntity
  8
0
  6
Continuous
 62
     7
370
    25
100
AcDbLine
 10
246.4352168355158
 20
430.4530581626705
 30
0.0
 11
246.3583284714863
 21
430.497445878434
 31
0.0
  0
ARC
  5
1BB
330
1F
100
AcDbEntity
  8
0
  6
Continuous
 62
     7
370
    25
100
AcDbCircle
 10
246.659474321393
 20
399.5064140190648
 30
0.0
 40
0.1005938202754376
100
AcDbArc
 50
245.6923804640076
 51
305.6178335840621
  0
ARC
  5
1BC
330
1F
100
AcDbEntity
  8
0
  6
Continuous
 62
     7
370
    25
100
AcDbCircle
 10
264.4448462995275
 20
440.5900197312726
 30
0.0
 40
0.0932694156425426
100
AcDbArc
 50
351.7420984918685
 51
56.94541242426437
  0
LINE
  5
1BD
330
1F
100
AcDbEntity
  8
0
  6
Continuous
 62
     7
370
    25
100
AcDbLine
 10
264.6785724096875
 20
440.6582892207562
 30
0.0
 11
264.5371512936872
 21
440.5766485482598
 31
0.0
  0
LINE
  5
1BE
330
1F
100
AcDbEntity
  8
0
  6
Continuous
 62
     7
370
    25
100
AcDbLine
 10
264.6785724096875
 20
409.629739366825
 30
0.0
 11
264.6785724096875
 21
440.6582892207562
 31
0.0
  0
LINE
  5
1BF
330
1F
100
AcDbEntity
  8
0
  6
Continuous
 62
     7
370
    25
100
AcDbLine
 10
260.7894851342349
 20
407.384617071478
 30
0.0
 11
264.6785724096875
 21
409.629739366825
 31
0.0
  0
LINE
  5
1C0
330
1F
100
AcDbEntity
  8
0
  6
Continuous
 62
     7
370
    25
100
AcDbLine
 10
260.7894851342349
 20
407.384617071478
 30
0.0
 11
470.8001927403182
 21
286.1480161640958
 31
0.0
  0
LINE
  5
1C1
330
1F
100
AcDbEntity
  8
0
  6
Continuous
 62
     7
370
    25
100
AcDbLine
 10
264.6785724096875
 20
409.629739366825
 30
0.0
 11
474.6892800157707
 21
288.3931384594429
 31
0.0
  0
LINE
  5
1C3
330
1F
100
AcDbEntity
  8
0
  6
Continuous
 62
     7
370
    25
100
AcDbLine
 10
264.6785724096875
 20
440.6582892207562
 30
0.0
 11
474.6892800157707
 21
319.421688313374
 31
0.0
  0
LINE
  5
1C5
330
1F
100
AcDbEntity
  8
0
  6
Continuous
 62
     7
370
    25
100
AcDbLine
 10
246.7180603846054
 20
399.2613564719805
 30
0.0
 11
247.0716138331506
 21
399.4654585333911
 31
0.0
  0
LINE
  5
1C6
330
1F
100
AcDbEntity
  8
0
  6
Continuous
 62
     7
370
    25
100
AcDbLine
 10
246.7180603846054
 20
399.2613564719805
 30
0.0
 11
246.7180603846054
 21
399.4246380972066
 31
0.0
  0
LINE
  5
1C8
330
1F
100
AcDbEntity
  8
0
  6
Continuous
 62
     7
370
    25
100
AcDbLine
 10
247.0716138331506
 20
399.4654585333911
 30
0.0
 11
457.0823214392339
 21
278.228857626009
 31
0.0
  0
LINE
  5
1C9
330
1F
100
AcDbEntity
  8
0
  6
Continuous
 62
     7
370
    25
100
AcDbLine
 10
246.7180603846054
 20
399.2613564719805
 30
0.0
 11
456.7287679906887
 21
278.0247555645984
 31
0.0
  0
LINE
  5
1CB
330
1F
100
AcDbEntity
  8
0
  6
Continuous
 62
     7
370
    25
100
AcDbLine
 10
262.8400873649718
 20
439.9233802395774
 30
0.0
 11
246.4352102500708
 21
430.4530462628717
 31
0.0
  0
LINE
  5
1CC
330
1F
100
AcDbEntity
  8
0
  6
Continuous
 62
     7
370
    25
100
AcDbLine
 10
262.8400873649718
 20
410.691220162061
 30
0.0
 11
262.8400873649718
 21
439.9233802395774
 31
0.0
  0
LINE
  5
1CD
330
1F
100
AcDbEntity
  8
0
  6
Continuous
 62
     7
370
    25
100
AcDbLine
 10
258.2438935217011
 20
408.0378939339776
 30
0.0
 11
262.8400873649718
 21
410.691220162061
 31
0.0
  0
LINE
  5
1CE
330
1F
100
AcDbEntity
  8
0
  6
Continuous
 62
     7
370
    25
100
AcDbLine
 10
258.2438935217011
 20
414.978491212196
 30
0.0
 11
258.2438935217011
 21
408.0378939339776
 31
0.0
  0
LINE
  5
1CF
330
1F
100
AcDbEntity
  8
0
  6
Continuous
 62
     7
370
    25
100
AcDbLine
 10
251.0314040933415
 20
410.8148096916571
 30
0.0
 11
258.2438935217011
 21
414.978491212196
 31
0.0
  0
LINE
  5
1D0
330
1F
100
AcDbEntity
  8
0
  6
Continuous
 62
     7
370
    25
100
AcDbLine
 10
251.0314040933415
 20
403.8742124134387
 30
0.0
 11
251.0314040933415
 21
410.8148096916571
 31
0.0
  0
LINE
  5
1D1
330
1F
100
AcDbEntity
  8
0
  6
Continuous
 62
     7
370
    25
100
AcDbLine
 10
246.4352102500708
 20
401.2208861853553
 30
0.0
 11
251.0314040933415
 21
403.8742124134387
 31
0.0
  0
LINE
  5
1D2
330
1F
100
AcDbEntity
  8
0
  6
Continuous
 62
     7
370
    25
100
AcDbLine
 10
246.4352102500708
 20
430.4530462628717
 30
0.0
 11
246.4352102500708
 21
401.2208861853553
 31
0.0
  0
LINE
  5
1D3
330
1F
100
AcDbEntity
  8
0
  6
Continuous
 62
     7
370
    25
100
AcDbLine
 10
258.2438935217011
 20
408.0378939339776
 30
0.0
 11
258.3207904468092
 21
407.9935022840154
 31
0.0
  0
LINE
  5
1D4
330
1F
100
AcDbEntity
  8
0
  6
Continuous
 62
     7
370
    25
100
AcDbLine
 10
262.8400873649718
 20
410.691220162061
 30
0.0
 11
262.9169842900799
 21
410.6468285120988
 31
0.0
  0
LINE
  5
1D5
330
1F
100
AcDbEntity
  8
0
  6
Continuous
 62
     7
370
    25
100
AcDbLine
 10
262.8400873649718
 20
439.9233802395774
 30
0.0
 11
262.9169632166556
 21
439.8790007550442
 31
0.0
  0
LINE
  5
1D6
330
1F
100
AcDbEntity
  8
0
  6
Continuous
 62
     7
370
    25
100
AcDbLine
 10
251.0314040933415
 20
410.8148096916571
 30
0.0
 11
251.1083010184496
 21
410.7704180416951
 31
0.0
  0
LINE
  5
1D7
330
1F
100
AcDbEntity
  8
0
  6
Continuous
 62
     7
370
    25
100
AcDbLine
 10
251.0314040933415
 20
403.8742124134387
 30
0.0
 11
251.1083010184496
 21
403.8298207634766
 31
0.0
  0
LINE
  5
1D8
330
1F
100
AcDbEntity
  8
0
  6
Continuous
 62
     7
370
    25
100
AcDbLine
 10
246.4352102500708
 20
401.2208861853553
 30
0.0
 11
246.5121071751789
 21
401.1764945353931
 31
0.0
  0
ARC
  5
1DF
330
1F
100
AcDbEntity
  8
0
  6
Continuous
 62
     8
370
    25
100
AcDbCircle
 10
245.8816542321246
 20
399.9554399988128
 30
0.0
 40
0.1005938202754243
100
AcDbArc
 50
245.6923804639928
 51
305.6178335840095
  0
ARC
  5
1E0
330
1F
100
AcDbEntity
  8
0
  6
Continuous
 62
     8
370
    25
100
AcDbCircle
 10
245.8403078376119
 20
400.0270187802658
 30
0.0
 40
0.1005571277498973
100
AcDbArc
 50
114.3708046309882
 51
174.320851425665
  0
ARC
  5
1E1
330
1F
100
AcDbEntity
  8
0
  6
Continuous
 62
     8
370
    25
100
AcDbCircle
 10
245.8403078376116
 20
430.7289525909851
 30
0.0
 40
0.1005571277496546
100
AcDbArc
 50
114.3708046308674
 51
174.3208514256812
  0
LWPOLYLINE
  5
1E2
330
1F
100
AcDbEntity
  8
0
  6
Continuous
 62
     8
370
    25
100
AcDbPolyline
 90
        6
 70
   128
 43
0.0
 10
263.476483704062
 20
441.0256510293975
 10
263.479202175791
 20
441.0559420423626
 10
263.4872522238566
 20
441.0819293356419
 10
263.5003177468949
 20
441.1026212359645
 10
263.5179140561482
 20
441.1172116071859
 10
263.5179140561482
 20
441.1172207327406
  0
ARC
  5
1E3
330
1F
100
AcDbEntity
  8
0
  6
Continuous
 62
     8
370
    25
100
AcDbCircle
 10
263.6641612591881
 20
441.0377495011633
 30
0.0
 40
0.0959334504234428
100
AcDbArc
 50
352.7540398577398
 51
55.93347105840311
  0
LWPOLYLINE
  5
1E4
330
1F
100
AcDbEntity
  8
0
  6
Continuous
 62
     8
370
    25
100
AcDbPolyline
 90
        6
 70
   128
 43
0.0
 10
245.7988139109805
 20
430.8205494795458
 10
245.8015323827095
 20
430.8508404925109
 10
245.8095824307751
 20
430.8768277857902
 10
245.8226479538134
 20
430.8975196861128
 10
245.8402442630667
 20
430.9121100573341
 10
245.8402442630667
 20
430.9121191828888
  0
MTEXT
  5
30D
330
1F
100
AcDbEntity
  8
寸法線
100
AcDbMText
 10
587.5205389234568
 20
-112.0873014913578
 30
0.0
 40
11.66666666666667
 41
273.3522079092452
 71
     1
 72
     5
  1
{MPP-10/1200/COS90/S}
 73
     1
 44
1.0
1001
ACAD
1000
ACAD_MTEXT_DEFINED_HEIGHT_BEGIN
1070
    46
1040
11.66666666666667
1000
ACAD_MTEXT_DEFINED_HEIGHT_END
  0
LINE
  5
49C
330
1F
100
AcDbEntity
  8
0
  6
Continuous
 62
     7
370
    25
100
AcDbLine
 10
470.8001927403182
 20
286.1480161640957
 30
0.0
 11
680.8109003464015
 21
164.9114152567136
 31
0.0
  0
LINE
  5
49D
330
1F
100
AcDbEntity
  8
0
  6
Continuous
 62
     7
370
    25
100
AcDbLine
 10
474.6892800157707
 20
288.3931384594428
 30
0.0
 11
684.6999876218539
 21
167.1565375520607
 31
0.0
  0
LINE
  5
49F
330
1F
100
AcDbEntity
  8
0
  6
Continuous
 62
     7
370
    25
100
AcDbLine
 10
474.6892800157707
 20
319.421688313374
 30
0.0
 11
684.6999876218539
 21
198.1850874059918
 31
0.0
  0
LINE
  5
4A4
330
1F
100
AcDbEntity
  8
0
  6
Continuous
 62
     7
370
    25
100
AcDbLine
 10
457.0823214392337
 20
278.2288576260088
 30
0.0
 11
667.093029045317
 21
156.9922567186268
 31
0.0
  0
LINE
  5
4A5
330
1F
100
AcDbEntity
  8
0
  6
Continuous
 62
     7
370
    25
100
AcDbLine
 10
456.7287679906885
 20
278.0247555645983
 30
0.0
 11
666.7394755967719
 21
156.7881546572162
 31
0.0
  0
LINE
  5
5CA
330
1F
100
AcDbEntity
  8
0
  6
Continuous
 62
     7
370
    25
100
AcDbLine
 10
680.8109003464014
 20
164.9114152567135
 30
0.0
 11
890.8216079524847
 21
43.67481434933131
 31
0.0
  0
LINE
  5
5CB
330
1F
100
AcDbEntity
  8
0
  6
Continuous
 62
     7
370
    25
100
AcDbLine
 10
684.6999876218539
 20
167.1565375520605
 30
0.0
 11
894.7106952279371
 21
45.91993664467844
 31
0.0
  0
LINE
  5
5CC
330
1F
100
AcDbEntity
  8
0
  6
Continuous
 62
     7
370
    25
100
AcDbLine
 10
684.6999876218539
 20
198.1850874059918
 30
0.0
 11
894.7106952279371
 21
76.9484864986095
 31
0.0
  0
LINE
  5
5CF
330
1F
100
AcDbEntity
  8
0
  6
Continuous
 62
     7
370
    25
100
AcDbLine
 10
667.0930290453169
 20
156.9922567186266
 30
0.0
 11
877.1037366514003
 21
35.75565581124454
 31
0.0
  0
LINE
  5
5D0
330
1F
100
AcDbEntity
  8
0
  6
Continuous
 62
     7
370
    25
100
AcDbLine
 10
666.7394755967717
 20
156.788154657216
 30
0.0
 11
876.750183202855
 21
35.55155374983394
 31
0.0
  0
ARC
  5
5E5
330
1F
100
AcDbEntity
  8
0
  6
Continuous
 62
     7
370
    25
100
AcDbCircle
 10
1105.499220401854
 20
-75.7656621215418
 30
0.0
 40
0.1999999999999886
100
AcDbArc
 50
299.997311733653
 51
0.0
  0
LINE
  5
5E6
330
1F
100
AcDbEntity
  8
0
  6
Continuous
 62
     7
370
    25
100
AcDbLine
 10
1105.69922050314
 20
-75.76566205107801
 30
0.0
 11
1105.69922050314
 21
-45.0637282403587
 31
0.0
  0
LINE
  5
5E7
330
1F
100
AcDbEntity
  8
0
  6
Continuous
 62
     7
370
    25
100
AcDbLine
 10
1099.600424091961
 20
-79.40189855743901
 30
0.0
 11
1105.599212370114
 21
-75.93887179705868
 31
0.0
  0
LINE
  5
5E8
330
1F
100
AcDbEntity
  8
0
  6
Continuous
 62
     7
370
    25
100
AcDbLine
 10
1087.921542577033
 20
-86.14397334691037
 30
0.0
 11
1093.920330855185
 21
-82.6809465865301
 31
0.0
  0
LINE
  5
5E9
330
1F
100
AcDbEntity
  8
0
  6
Continuous
 62
     7
370
    25
100
AcDbLine
 10
1086.943741855145
 20
-85.69494864429478
 30
0.0
 11
1087.721559320525
 21
-86.14397310930431
 31
0.0
  0
ARC
  5
5EA
330
1F
100
AcDbEntity
  8
0
  6
Continuous
 62
     7
370
    25
100
AcDbCircle
 10
1087.82155087219
 20
-85.97076351932557
 30
0.0
 40
0.1999999999999915
100
AcDbArc
 50
240.0026882663306
 51
299.9973117336673
  0
LINE
  5
5EB
330
1F
100
AcDbEntity
  8
0
  6
Continuous
 62
     7
370
    25
100
AcDbLine
 10
1105.599211958523
 20
-44.8905174843496
 30
0.0
 11
1104.821394493144
 21
-44.44149301934007
 31
0.0
  0
ARC
  5
5EC
330
1F
100
AcDbEntity
  8
0
  6
Continuous
 62
     7
370
    25
100
AcDbCircle
 10
1105.499220401854
 20
-45.06372759463747
 30
0.0
 40
0.1999999999999915
100
AcDbArc
 50
0.0
 51
60.00268826634591
  0
LINE
  5
5ED
330
1F
100
AcDbEntity
  8
0
  6
Continuous
 62
     7
370
    25
100
AcDbLine
 10
1086.902311924939
 20
-85.60340648505186
 30
0.0
 11
1104.57998171802
 21
-75.39830493520017
 31
0.0
  0
ARC
  5
5EE
330
1F
100
AcDbEntity
  8
0
  6
Continuous
 62
     7
370
    25
100
AcDbCircle
 10
1104.776610356128
 20
-44.51907613483186
 30
0.0
 40
0.0873410548015076
100
AcDbArc
 50
350.7848636093294
 51
129.2043846359735
  0
LINE
  5
5EF
330
1F
100
AcDbEntity
  8
0
  6
Continuous
 62
     7
370
    25
100
AcDbLine
 10
1104.862824186685
 20
-75.23499691357202
 30
0.0
 11
1104.862824186685
 21
-44.53306310285276
 31
0.0
  0
ARC
  5
5F0
330
1F
100
AcDbEntity
  8
0
  6
Continuous
 62
     7
370
    25
100
AcDbCircle
 10
1104.555780573056
 20
-75.2210245274949
 30
0.0
 40
0.3073613642651919
100
AcDbArc
 50
302.6055705212341
 51
357.3944846941419
  0
LINE
  5
5F1
330
1F
100
AcDbEntity
  8
0
  6
Continuous
 62
     7
370
    25
100
AcDbLine
 10
1104.721403070685
 20
-75.31666411909399
 30
0.0
 11
1104.721403070685
 21
-75.47994574431996
 31
0.0
  0
LINE
  5
5F2
330
1F
100
AcDbEntity
  8
0
  6
Continuous
 62
     7
370
    25
100
AcDbLine
 10
1093.266272969776
 20
-82.33777404897612
 30
0.0
 11
1098.923127487955
 21
-79.07214144657601
 31
0.0
  0
LINE
  5
5F3
330
1F
100
AcDbEntity
  8
0
  6
Continuous
 62
     7
370
    25
100
AcDbLine
 10
1093.266272969776
 20
-82.33777404897612
 30
0.0
 11
1093.822084493355
 21
-82.67003735913758
 31
0.0
  0
LINE
  5
5F4
330
1F
100
AcDbEntity
  8
0
  6
Continuous
 62
     7
370
    25
100
AcDbLine
 10
1087.821550742984
 20
-86.1340717591813
 30
0.0
 11
1093.822084493355
 21
-82.67003735913758
 31
0.0
  0
LINE
  5
5F5
330
1F
100
AcDbEntity
  8
0
  6
Continuous
 62
     7
370
    25
100
AcDbLine
 10
1087.043733277603
 20
-85.68504729417177
 30
0.0
 11
1087.821550742984
 21
-86.1340717591813
 31
0.0
  0
LINE
  5
5F6
330
1F
100
AcDbEntity
  8
0
  6
Continuous
 62
     7
370
    25
100
AcDbLine
 10
1086.902311924939
 20
-85.60340648505186
 30
0.0
 11
1087.043733277603
 21
-85.68504729417177
 31
0.0
  0
LINE
  5
5F7
330
1F
100
AcDbEntity
  8
0
  6
Continuous
 62
     7
370
    25
100
AcDbLine
 10
1104.721403070685
 20
-75.47994574431996
 30
0.0
 11
1104.57998171802
 21
-75.39830493520017
 31
0.0
  0
LINE
  5
5F8
330
1F
100
AcDbEntity
  8
0
  6
Continuous
 62
     7
370
    25
100
AcDbLine
 10
1105.499220536065
 20
-75.92897020932966
 30
0.0
 11
1104.721403070685
 21
-75.47994574431996
 31
0.0
  0
LINE
  5
5F9
330
1F
100
AcDbEntity
  8
0
  6
Continuous
 62
     7
370
    25
100
AcDbLine
 10
1099.498686785694
 20
-79.39300460937338
 30
0.0
 11
1105.499220536065
 21
-75.92897020932966
 31
0.0
  0
LINE
  5
5FA
330
1F
100
AcDbEntity
  8
0
  6
Continuous
 62
     7
370
    25
100
AcDbLine
 10
1098.923127487955
 20
-79.07214144657601
 30
0.0
 11
1099.498686785694
 21
-79.39300460937338
 31
0.0
  0
ARC
  5
5FB
330
1F
100
AcDbEntity
  8
0
  6
Continuous
 62
     7
370
    25
100
AcDbCircle
 10
1105.333598038436
 20
-75.67004899250426
 30
0.0
 40
0.3073613642656285
100
AcDbArc
 50
302.6055705212726
 51
357.3944846941152
  0
LINE
  5
5FC
330
1F
100
AcDbEntity
  8
0
  6
Continuous
 62
     7
370
    25
100
AcDbLine
 10
1104.862824186685
 20
-75.23499691357202
 30
0.0
 11
1105.640641652065
 21
-75.6840213785816
 31
0.0
  0
LINE
  5
5FD
330
1F
100
AcDbEntity
  8
0
  6
Continuous
 62
     7
370
    25
100
AcDbLine
 10
1105.640641652065
 20
-44.98208756786241
 30
0.0
 11
1104.862824186685
 21
-44.53306310285276
 31
0.0
  0
LINE
  5
5FE
330
1F
100
AcDbEntity
  8
0
  6
Continuous
 62
     7
370
    25
100
AcDbLine
 10
1105.640641652065
 20
-75.6840213785816
 30
0.0
 11
1105.640641652065
 21
-44.98208756786241
 31
0.0
  0
ELLIPSE
  5
5FF
330
1F
100
AcDbEntity
  8
0
  6
Continuous
 62
     7
370
    25
100
AcDbEllipse
 10
1099.49868683759
 20
-79.22969641414826
 30
0.0
 11
-0.1026525863728125
 21
0.1716643463722675
 31
0.0
210
0.0
220
0.0
230
1.0
 40
0.5873687162541295
 41
2.347239087449359
 42
3.13255598678494
  0
ELLIPSE
  5
600
330
1F
100
AcDbEntity
  8
0
  6
Continuous
 62
     7
370
    25
100
AcDbEllipse
 10
1093.822084436454
 20
-82.50672922671899
 30
0.0
 11
-0.09741494644123351
 21
0.1746892004040888
 31
0.0
210
0.0
220
0.0
230
1.0
 40
0.5672183927598565
 41
2.364703013104635
 42
3.935499339898095
  0
LINE
  5
601
330
1F
100
AcDbEntity
  8
0
  6
Continuous
 62
     7
370
    25
100
AcDbLine
 10
1093.961037302221
 20
-82.58979508188762
 30
0.0
 11
1093.961037302221
 21
-81.9366950902444
 31
0.0
  0
ARC
  5
602
330
1F
100
AcDbEntity
  8
0
  6
Continuous
 62
     7
370
    25
100
AcDbCircle
 10
1086.988527039809
 20
-85.61736518874088
 30
0.0
 40
0.087341834689551
100
AcDbArc
 50
170.7860017458043
 51
309.2030804342534
  0
LINE
  5
603
330
1F
100
AcDbEntity
  8
0
  6
Continuous
 62
     7
370
    25
100
AcDbLine
 10
890.8216079524846
 20
43.67481434933126
 30
0.0
 11
1100.832315558568
 21
-77.5617865580509
 31
0.0
  0
LINE
  5
604
330
1F
100
AcDbEntity
  8
0
  6
Continuous
 62
     7
370
    25
100
AcDbLine
 10
894.7106952279371
 20
45.91993664467833
 30
0.0
 11
1104.72140283402
 21
-75.31666426270377
 31
0.0
  0
LINE
  5
605
330
1F
100
AcDbEntity
  8
0
  6
Continuous
 62
     7
370
    25
100
AcDbLine
 10
1100.832315558568
 20
-77.5617865580509
 30
0.0
 11
1104.72140283402
 21
-75.31666426270377
 31
0.0
  0
LINE
  5
606
330
1F
100
AcDbEntity
  8
0
  6
Continuous
 62
     7
370
    25
100
AcDbLine
 10
894.7106952279371
 20
76.9484864986095
 30
0.0
 11
1104.72140283402
 21
-44.28811440877271
 31
0.0
  0
LINE
  5
607
330
1F
100
AcDbEntity
  8
0
  6
Continuous
 62
     7
370
    25
100
AcDbLine
 10
1104.72140283402
 20
-75.31666426270377
 30
0.0
 11
1104.72140283402
 21
-44.28811440877271
 31
0.0
  0
ELLIPSE
  5
608
330
1F
100
AcDbEntity
  8
0
  6
Continuous
 62
     7
370
    25
100
AcDbEllipse
 10
1052.494648147197
 20
-89.38192368957007
 30
0.0
 11
39.8705369007541
 21
32.52861516048678
 31
0.0
210
0.0
220
0.0
230
1.0
 40
0.4458570691550952
 41
5.317963906477157
 42
5.662729421897031
  0
LINE
  5
609
330
1F
100
AcDbEntity
  8
0
  6
Continuous
 62
     7
370
    25
100
AcDbLine
 10
877.1037366514001
 20
35.75565581124437
 30
0.0
 11
1087.114444257484
 21
-85.48094509613767
 31
0.0
  0
LINE
  5
60A
330
1F
100
AcDbEntity
  8
0
  6
Continuous
 62
     7
370
    25
100
AcDbLine
 10
876.7501832028549
 20
35.55155374983377
 30
0.0
 11
1086.760890808938
 21
-85.68504715754827
 31
0.0
  0
LINE
  5
60B
330
1F
100
AcDbEntity
  8
0
  6
Continuous
 62
     7
370
    25
100
AcDbLine
 10
1086.760890808938
 20
-85.68504715754827
 30
0.0
 11
1087.114444257484
 21
-85.48094509613767
 31
0.0
  0
ARC
  5
60C
330
1F
100
AcDbEntity
  8
0
  6
Continuous
 62
     8
370
    25
100
AcDbCircle
 10
1105.557804499078
 20
-75.8471940566915
 30
0.0
 40
0.1005953272403063
100
AcDbArc
 50
234.3824071859464
 51
294.3071553650095
  0
ARC
  5
60D
330
1F
100
AcDbEntity
  8
0
  6
Continuous
 62
     8
370
    25
100
AcDbCircle
 10
1105.599129575864
 20
-75.77564323935567
 30
0.0
 40
0.1005873642274015
100
AcDbArc
 50
5.694777307569656
 51
65.62564794314184
  0
ARC
  5
60E
330
1F
100
AcDbEntity
  8
0
  6
Continuous
 62
     8
370
    25
100
AcDbCircle
 10
1105.599129575864
 20
-45.07370942863631
 30
0.0
 40
0.1005873642271758
100
AcDbArc
 50
5.694777307468973
 51
65.62564794308506
  0
ARC
  5
60F
330
1F
100
AcDbEntity
  8
0
  6
Continuous
 62
     8
370
    25
100
AcDbCircle
 10
1087.880134705996
 20
-86.05229560654348
 30
0.0
 40
0.100595327240016
100
AcDbArc
 50
234.3824071860296
 51
294.3071553653388
  0
ARC
  5
610
330
1F
100
AcDbEntity
  8
0
  6
Continuous
 62
     8
370
    25
100
AcDbCircle
 10
1087.76296731395
 20
-86.05229707776888
 30
0.0
 40
0.1005938202749814
100
AcDbArc
 50
245.6923804638097
 51
305.6178335841068
  0
ARC
  5
611
330
1F
100
AcDbEntity
  8
0
  6
Continuous
 62
     8
370
    25
100
AcDbCircle
 10
1105.548339291986
 20
-44.96869136560477
 30
0.0
 40
0.0932694157331366
100
AcDbArc
 50
351.7420985273234
 51
56.9454123886149
  0
ARC
  5
68F
330
1F
100
AcDbEntity
  8
0
  6
HIDDEN
 62
     7
370
    25
100
AcDbCircle
 10
1105.499220284304
 20
-75.76566220879064
 30
0.0
 40
0.2000000000000124
100
AcDbArc
 50
299.9973117335946
 51
0.0000000000162844
  0
LINE
  5
690
330
1F
100
AcDbEntity
  8
0
  6
HIDDEN
 62
     7
370
    25
100
AcDbLine
 10
1105.699220284304
 20
-75.76566220879059
 30
0.0
 11
1105.699220284304
 21
-45.06372768188615
 31
0.0
  0
LINE
  5
691
330
1F
100
AcDbEntity
  8
0
  6
HIDDEN
 62
     7
370
    25
100
AcDbLine
 10
1099.600423957943
 20
-79.40189869631351
 30
0.0
 11
1105.599212157567
 21
-75.93887198126683
 31
0.0
  0
LINE
  5
692
330
1F
100
AcDbEntity
  8
0
  6
HIDDEN
 62
     7
370
    25
100
AcDbLine
 10
1087.921542627903
 20
-86.14397337905072
 30
0.0
 11
1093.920330827528
 21
-82.68094666400393
 31
0.0
  0
LINE
  5
693
330
1F
100
AcDbEntity
  8
0
  6
HIDDEN
 62
     7
370
    25
100
AcDbLine
 10
1086.943741422071
 20
-85.69494891754826
 30
0.0
 11
1087.721558881376
 21
-86.14397337905072
 31
0.0
  0
ARC
  5
694
330
1F
100
AcDbEntity
  8
0
  6
HIDDEN
 62
     7
370
    25
100
AcDbCircle
 10
1087.82155075464
 20
-85.97076360657465
 30
0.0
 40
0.1999999999999708
100
AcDbArc
 50
240.0026882663286
 51
299.9973117336734
  0
LINE
  5
695
330
1F
100
AcDbEntity
  8
0
  6
HIDDEN
 62
     7
370
    25
100
AcDbLine
 10
1105.599212157567
 20
-44.89051790941002
 30
0.0
 11
1104.821394698262
 21
-44.44149344790756
 31
0.0
  0
ARC
  5
696
330
1F
100
AcDbEntity
  8
0
  6
HIDDEN
 62
     7
370
    25
100
AcDbCircle
 10
1105.499220284304
 20
-45.06372768188615
 30
0.0
 40
0.20000000000002
100
AcDbArc
 50
0.0
 51
60.00268826633472
  0
LINE
  5
698
330
1F
100
AcDbEntity
  8
0
  6
HIDDEN
 62
     7
370
    25
100
AcDbLine
 10
1086.902311939097
 20
-85.60340649626696
 30
0.0
 11
1104.579981468761
 21
-75.39830509848301
 31
0.0
  0
ARC
  5
69B
330
1F
100
AcDbEntity
  8
0
  6
HIDDEN
 62
     7
370
    25
100
AcDbCircle
 10
1104.555780960963
 20
-75.22102476565416
 30
0.0
 40
0.307360961513707
100
AcDbArc
 50
302.6054783399643
 51
357.3945215144319
  0
LINE
  5
69C
330
1F
100
AcDbEntity
  8
0
  6
HIDDEN
 62
     7
370
    25
100
AcDbLine
 10
1104.721402824998
 20
-75.47994590966525
 30
0.0
 11
1104.721402824998
 21
-44.45139505800651
 31
0.0
  0
ARC
  5
69D
330
1F
100
AcDbEntity
  8
0
  6
HIDDEN
 62
     7
370
    25
100
AcDbCircle
 10
1104.776609307751
 20
-44.51907696982116
 30
0.0
 40
0.0873418394857385
100
AcDbArc
 50
350.7859630094508
 51
129.2032852357418
  0
LINE
  5
69E
330
1F
100
AcDbEntity
  8
0
  6
HIDDEN
 62
     7
370
    25
100
AcDbLine
 10
1104.862824181236
 20
-75.23499693610583
 30
0.0
 11
1104.862824181236
 21
-44.53306240920139
 31
0.0
  0
LINE
  5
69F
330
1F
100
AcDbEntity
  8
0
  6
HIDDEN
 62
     7
370
    25
100
AcDbLine
 10
1093.266272969776
 20
-82.33777404897612
 30
0.0
 11
1098.923127219269
 21
-79.07214160168516
 31
0.0
  0
LINE
  5
6A0
330
1F
100
AcDbEntity
  8
0
  6
HIDDEN
 62
     7
370
    25
100
AcDbLine
 10
1093.266272969776
 20
-82.33777404897612
 30
0.0
 11
1093.822084318904
 21
-82.67003747634513
 31
0.0
  0
LINE
  5
6A1
330
1F
100
AcDbEntity
  8
0
  6
HIDDEN
 62
     7
370
    25
100
AcDbLine
 10
1087.82155075464
 20
-86.13407176895171
 30
0.0
 11
1093.822084318904
 21
-82.67003747634513
 31
0.0
  0
LINE
  5
6A2
330
1F
100
AcDbEntity
  8
0
  6
HIDDEN
 62
     7
370
    25
100
AcDbLine
 10
1087.043733295335
 20
-85.6850473074492
 30
0.0
 11
1087.82155075464
 21
-86.13407176895171
 31
0.0
  0
LINE
  5
6A3
330
1F
100
AcDbEntity
  8
0
  6
HIDDEN
 62
     7
370
    25
100
AcDbLine
 10
1086.902311939097
 20
-85.60340649626696
 30
0.0
 11
1087.043733295335
 21
-85.6850473074492
 31
0.0
  0
LINE
  5
6A4
330
1F
100
AcDbEntity
  8
0
  6
HIDDEN
 62
     7
370
    25
100
AcDbLine
 10
1104.721402824998
 20
-75.47994590966525
 30
0.0
 11
1104.579981468761
 21
-75.39830509848301
 31
0.0
  0
LINE
  5
6A5
330
1F
100
AcDbEntity
  8
0
  6
HIDDEN
 62
     7
370
    25
100
AcDbLine
 10
1105.499220284304
 20
-75.92897037116776
 30
0.0
 11
1104.721402824998
 21
-75.47994590966525
 31
0.0
  0
LINE
  5
6A6
330
1F
100
AcDbEntity
  8
0
  6
HIDDEN
 62
     7
370
    25
100
AcDbLine
 10
1099.498686720039
 20
-79.3930046637744
 30
0.0
 11
1105.499220284304
 21
-75.92897037116776
 31
0.0
  0
LINE
  5
6A7
330
1F
100
AcDbEntity
  8
0
  6
HIDDEN
 62
     7
370
    25
100
AcDbLine
 10
1098.923127219269
 20
-79.07214160168516
 30
0.0
 11
1099.498686720039
 21
-79.3930046637744
 31
0.0
  0
LINE
  5
6A9
330
1F
100
AcDbEntity
  8
0
  6
HIDDEN
 62
     7
370
    25
100
AcDbLine
 10
1104.862824181236
 20
-75.23499693610583
 30
0.0
 11
1105.640641640541
 21
-75.68402139760835
 31
0.0
  0
ARC
  5
6AA
330
1F
100
AcDbEntity
  8
0
  6
HIDDEN
 62
     7
370
    25
100
AcDbCircle
 10
1105.333598420267
 20
-75.67004922715594
 30
0.0
 40
0.3073609615149109
100
AcDbArc
 50
302.6054783400716
 51
357.3945215142959
  0
LINE
  5
6AB
330
1F
100
AcDbEntity
  8
0
  6
HIDDEN
 62
     7
370
    25
100
AcDbLine
 10
1105.640641640541
 20
-44.98208687070391
 30
0.0
 11
1104.862824181236
 21
-44.53306240920139
 31
0.0
  0
LINE
  5
6AC
330
1F
100
AcDbEntity
  8
0
  6
HIDDEN
 62
     7
370
    25
100
AcDbLine
 10
1105.640641640541
 20
-75.68402139760835
 30
0.0
 11
1105.640641640541
 21
-44.98208687070391
 31
0.0
  0
ELLIPSE
  5
6AD
330
1F
100
AcDbEntity
  8
0
  6
HIDDEN
 62
     7
370
    25
100
AcDbEllipse
 10
1099.498686720039
 20
-79.22969650139723
 30
0.0
 11
-0.1026525863727556
 21
0.1716643463722676
 31
0.0
210
0.0
220
0.0
230
1.0
 40
0.5873687162543133
 41
2.347239087449792
 42
3.132555986785543
  0
ELLIPSE
  5
6AE
330
1F
100
AcDbEntity
  8
0
  6
HIDDEN
 62
     7
370
    25
100
AcDbEllipse
 10
1093.822084318904
 20
-82.50672931396795
 30
0.0
 11
-0.09741494644129034
 21
0.1746892004041456
 31
0.0
210
0.0
220
0.0
230
1.0
 40
0.5672183927595275
 41
2.364703013104216
 42
3.935499339899313
  0
LINE
  5
6AF
330
1F
100
AcDbEntity
  8
0
  6
HIDDEN
 62
     7
370
    25
100
AcDbLine
 10
1093.961037156186
 20
-82.58979517081022
 30
0.0
 11
1093.961037156186
 21
-81.93669522136472
 31
0.0
  0
ARC
  5
6B0
330
1F
100
AcDbEntity
  8
0
  6
HIDDEN
 62
     7
370
    25
100
AcDbCircle
 10
1086.988526812582
 20
-85.61736539563444
 30
0.0
 40
0.0873418394856741
100
AcDbArc
 50
170.7859630095382
 51
309.2032852357623
  0
ARC
  5
6B1
330
1F
100
AcDbEntity
  8
0
  6
HIDDEN
 62
     8
370
    25
100
AcDbCircle
 10
1105.557804295274
 20
-75.84719410534362
 30
0.0
 40
0.1005954471807688
100
AcDbArc
 50
234.3824225248988
 51
294.3071190459626
  0
ARC
  5
6B2
330
1F
100
AcDbEntity
  8
0
  6
HIDDEN
 62
     8
370
    25
100
AcDbCircle
 10
1105.599128871805
 20
-75.7756434841705
 30
0.0
 40
0.1005878556989259
100
AcDbArc
 50
5.694799251186704
 51
65.62534170632766
  0
ARC
  5
6B3
330
1F
100
AcDbEntity
  8
0
  6
HIDDEN
 62
     8
370
    25
100
AcDbCircle
 10
1105.599128871805
 20
-45.07370895726601
 30
0.0
 40
0.1005878556988379
100
AcDbArc
 50
5.694799251195528
 51
65.62534170630428
  0
ARC
  5
6B4
330
1F
100
AcDbEntity
  8
0
  6
HIDDEN
 62
     8
370
    25
100
AcDbCircle
 10
1087.88013476561
 20
-86.05229550312808
 30
0.0
 40
0.100595447180329
100
AcDbArc
 50
234.3824225248722
 51
294.3071190462173
  0
ARC
  5
6B5
330
1F
100
AcDbEntity
  8
0
  6
HIDDEN
 62
     8
370
    25
100
AcDbCircle
 10
1087.76296674367
 20
-86.05229550312848
 30
0.0
 40
0.1005954471799664
100
AcDbArc
 50
245.6928809538275
 51
305.6175774752692
  0
ARC
  5
6B6
330
1F
100
AcDbEntity
  8
0
  6
HIDDEN
 62
     8
370
    25
100
AcDbCircle
 10
1105.545504528919
 20
-44.96997406518361
 30
0.0
 40
0.0959051096936088
100
AcDbArc
 50
352.7441705890408
 51
55.94364901756159
  0
ENDSEC
  0
SECTION
  2
OBJECTS
  0
DICTIONARY
  5
C
330
0
100
AcDbDictionary
281
     1
  3
ACAD_DETAILVIEWSTYLE
350
313
  3
ACAD_GROUP
350
D
  3
ACAD_LAYOUT
350
1A
  3
ACAD_MLINESTYLE
350
17
  3
ACAD_PLOTSETTINGS
350
19
  3
ACAD_PLOTSTYLENAME
350
E
  3
ACAD_SCALELIST
350
47
  3
ACAD_SECTIONVIEWSTYLE
350
314
  3
AcDbVariableDictionary
350
30E
  3
APPDATA
350
2E6
  3
DWGPROPS
350
6FB
  0
DICTIONARY
  5
308
330
2
100
AcDbDictionary
280
     1
281
     1
  3
ACAD_LAYERSTATES
360
309
  0
DICTIONARY
  5
2E9
330
2E8
100
AcDbDictionary
280
     1
281
     1
  3
ADSK_XREC_LAYER_RECONCILED
360
2EA
  0
DICTIONARY
  5
313
102
{ACAD_REACTORS
330
C
102
}
330
C
100
AcDbDictionary
281
     1
  0
DICTIONARY
  5
D
102
{ACAD_REACTORS
330
C
102
}
330
C
100
AcDbDictionary
281
     1
  0
DICTIONARY
  5
1A
102
{ACAD_REACTORS
330
C
102
}
330
C
100
AcDbDictionary
281
     1
  3
Layout1
350
1E
  3
Layout2
350
26
  3
Model
350
22
  0
DICTIONARY
  5
17
102
{ACAD_REACTORS
330
C
102
}
330
C
100
AcDbDictionary
281
     1
  3
Standard
350
18
  0
DICTIONARY
  5
19
102
{ACAD_REACTORS
330
C
102
}
330
C
100
AcDbDictionary
281
     1
  0
ACDBDICTIONARYWDFLT
  5
E
102
{ACAD_REACTORS
330
C
102
}
330
C
100
AcDbDictionary
281
     1
  3
Normal
350
F
100
AcDbDictionaryWithDefault
340
F
  0
DICTIONARY
  5
47
102
{ACAD_REACTORS
330
C
102
}
330
C
100
AcDbDictionary
281
     1
  3
A0
350
48
  3
A1
350
49
  3
A2
350
4A
  3
A3
350
4B
  3
A4
350
4C
  3
A5
350
4D
  3
A6
350
4E
  3
A7
350
4F
  3
A8
350
50
  3
A9
350
51
  3
B0
350
52
  3
B1
350
53
  3
B2
350
54
  3
B3
350
55
  3
B4
350
56
  3
B5
350
57
  3
B6
350
58
  3
B7
350
59
  3
B8
350
5A
  3
B9
350
5B
  3
C0
350
5C
  3
C1
350
5D
  3
C2
350
5E
  3
C3
350
5F
  3
C4
350
60
  3
C5
350
61
  3
C6
350
62
  3
C7
350
63
  3
C8
350
64
  3
C9
350
65
  3
D0
350
66
  3
D1
350
67
  3
D2
350
68
  0
DICTIONARY
  5
314
102
{ACAD_REACTORS
330
C
102
}
330
C
100
AcDbDictionary
281
     1
  0
DICTIONARY
  5
30E
102
{ACAD_REACTORS
330
C
102
}
330
C
100
AcDbDictionary
281
     1
  0
DICTIONARY
  5
2E6
102
{ACAD_REACTORS
330
C
102
}
330
C
100
AcDbDictionary
281
     1
  0
XRECORD
  5
6FB
102
{ACAD_REACTORS
330
C
102
}
330
C
100
AcDbXrecord
280
     1
  1
DWGPROPS COOKIE
  2

  3

  4

  6

  7

  8
ModuleX
  9

300
=
301
=
302
=
303
=
304
=
305
=
306
=
307
=
308
=
309
=
 40
0.0
 41
2458682.164137454
 42
2458737.188517454
  1

 90
        0
  0
DICTIONARY
  5
309
102
{ACAD_REACTORS
330
308
102
}
330
308
100
AcDbDictionary
281
     1
  0
XRECORD
  5
2EA
102
{ACAD_REACTORS
330
2E9
102
}
330
2E9
100
AcDbXrecord
280
     1
290
     1
  0
LAYOUT
  5
1E
102
{ACAD_REACTORS
330
1A
102
}
330
1A
100
AcDbPlotSettings
  1

  2
none_device
  4

  6

 40
0.0
 41
0.0
 42
0.0
 43
0.0
 44
0.0
 45
0.0
 46
0.0
 47
0.0
 48
0.0
 49
0.0
140
0.0
141
0.0
142
1.0
143
1.0
 70
   688
 72
     1
 73
     0
 74
     5
  7

 75
    16
147
1.0
148
0.0
149
0.0
100
AcDbLayout
  1
Layout1
 70
     1
 71
     1
 10
0.0
 20
0.0
 11
420.0
 21
297.0
 12
0.0
 22
0.0
 32
0.0
 14
1.000000000000000E+20
 24
1.000000000000000E+20
 34
1.000000000000000E+20
 15
-1.000000000000000E+20
 25
-1.000000000000000E+20
 35
-1.000000000000000E+20
146
0.0
 13
0.0
 23
0.0
 33
0.0
 16
1.0
 26
0.0
 36
0.0
 17
0.0
 27
1.0
 37
0.0
 76
     0
330
1B
  0
LAYOUT
  5
26
102
{ACAD_REACTORS
330
1A
102
}
330
1A
100
AcDbPlotSettings
  1

  2
none_device
  4

  6

 40
0.0
 41
0.0
 42
0.0
 43
0.0
 44
0.0
 45
0.0
 46
0.0
 47
0.0
 48
0.0
 49
0.0
140
0.0
141
0.0
142
1.0
143
1.0
 70
   688
 72
     1
 73
     0
 74
     5
  7

 75
    16
147
1.0
148
0.0
149
0.0
100
AcDbLayout
  1
Layout2
 70
     1
 71
     2
 10
0.0
 20
0.0
 11
0.0
 21
0.0
 12
0.0
 22
0.0
 32
0.0
 14
0.0
 24
0.0
 34
0.0
 15
0.0
 25
0.0
 35
0.0
146
0.0
 13
0.0
 23
0.0
 33
0.0
 16
1.0
 26
0.0
 36
0.0
 17
0.0
 27
1.0
 37
0.0
 76
     0
330
23
  0
LAYOUT
  5
22
102
{ACAD_REACTORS
330
1A
102
}
330
1A
100
AcDbPlotSettings
  1

  2
none_device
  4
Letter_(8.50_x_11.00_Inches)
  6

 40
6.35
 41
6.35
 42
6.35000508
 43
6.35000508
 44
215.9
 45
279.4
 46
0.0
 47
0.0
 48
0.0
 49
0.0
140
0.0
141
0.0
142
1.0
143
1.0
 70
  1712
 72
     1
 73
     0
 74
     0
  7

 75
     0
147
1.0
148
0.0
149
0.0
100
AcDbLayout
  1
Model
 70
     1
 71
     0
 10
0.0
 20
0.0
 11
1189.0
 21
841.0
 12
0.0
 22
0.0
 32
0.0
 14
245.7402364104511
 24
-123.7539681580245
 34
0.0
 15
1105.69922050314
 25
441.1440102785513
 35
0.0
146
0.0
 13
0.0
 23
0.0
 33
0.0
 16
1.0
 26
0.0
 36
0.0
 17
0.0
 27
1.0
 37
0.0
 76
     0
330
1F
331
29
  0
MLINESTYLE
  5
18
102
{ACAD_REACTORS
330
17
102
}
330
17
100
AcDbMlineStyle
  2
Standard
 70
     0
  3

 62
   256
 51
90.0
 52
90.0
 71
     2
 49
0.5
 62
   256
  6
BYLAYER
 49
-0.5
 62
   256
  6
BYLAYER
  0
ACDBPLACEHOLDER
  5
F
102
{ACAD_REACTORS
330
E
102
}
330
E
  0
SCALE
  5
48
102
{ACAD_REACTORS
330
47
102
}
330
47
100
AcDbScale
 70
     0
300
1:1
140
1.0
141
1.0
290
     1
  0
SCALE
  5
49
102
{ACAD_REACTORS
330
47
102
}
330
47
100
AcDbScale
 70
     0
300
1:2
140
1.0
141
2.0
290
     0
  0
SCALE
  5
4A
102
{ACAD_REACTORS
330
47
102
}
330
47
100
AcDbScale
 70
     0
300
1:4
140
1.0
141
4.0
290
     0
  0
SCALE
  5
4B
102
{ACAD_REACTORS
330
47
102
}
330
47
100
AcDbScale
 70
     0
300
1:5
140
1.0
141
5.0
290
     0
  0
SCALE
  5
4C
102
{ACAD_REACTORS
330
47
102
}
330
47
100
AcDbScale
 70
     0
300
1:8
140
1.0
141
8.0
290
     0
  0
SCALE
  5
4D
102
{ACAD_REACTORS
330
47
102
}
330
47
100
AcDbScale
 70
     0
300
1:10
140
1.0
141
10.0
290
     0
  0
SCALE
  5
4E
102
{ACAD_REACTORS
330
47
102
}
330
47
100
AcDbScale
 70
     0
300
1:16
140
1.0
141
16.0
290
     0
  0
SCALE
  5
4F
102
{ACAD_REACTORS
330
47
102
}
330
47
100
AcDbScale
 70
     0
300
1:20
140
1.0
141
20.0
290
     0
  0
SCALE
  5
50
102
{ACAD_REACTORS
330
47
102
}
330
47
100
AcDbScale
 70
     0
300
1:30
140
1.0
141
30.0
290
     0
  0
SCALE
  5
51
102
{ACAD_REACTORS
330
47
102
}
330
47
100
AcDbScale
 70
     0
300
1:40
140
1.0
141
40.0
290
     0
  0
SCALE
  5
52
102
{ACAD_REACTORS
330
47
102
}
330
47
100
AcDbScale
 70
     0
300
1:50
140
1.0
141
50.0
290
     0
  0
SCALE
  5
53
102
{ACAD_REACTORS
330
47
102
}
330
47
100
AcDbScale
 70
     0
300
1:100
140
1.0
141
100.0
290
     0
  0
SCALE
  5
54
102
{ACAD_REACTORS
330
47
102
}
330
47
100
AcDbScale
 70
     0
300
2:1
140
2.0
141
1.0
290
     0
  0
SCALE
  5
55
102
{ACAD_REACTORS
330
47
102
}
330
47
100
AcDbScale
 70
     0
300
4:1
140
4.0
141
1.0
290
     0
  0
SCALE
  5
56
102
{ACAD_REACTORS
330
47
102
}
330
47
100
AcDbScale
 70
     0
300
8:1
140
8.0
141
1.0
290
     0
  0
SCALE
  5
57
102
{ACAD_REACTORS
330
47
102
}
330
47
100
AcDbScale
 70
     0
300
10:1
140
10.0
141
1.0
290
     0
  0
SCALE
  5
58
102
{ACAD_REACTORS
330
47
102
}
330
47
100
AcDbScale
 70
     0
300
100:1
140
100.0
141
1.0
290
     0
  0
SCALE
  5
59
102
{ACAD_REACTORS
330
47
102
}
330
47
100
AcDbScale
 70
     0
300
1/128" = 1'-0"
140
0.0078125
141
12.0
290
     0
  0
SCALE
  5
5A
102
{ACAD_REACTORS
330
47
102
}
330
47
100
AcDbScale
 70
     0
300
1/64" = 1'-0"
140
0.015625
141
12.0
290
     0
  0
SCALE
  5
5B
102
{ACAD_REACTORS
330
47
102
}
330
47
100
AcDbScale
 70
     0
300
1/32" = 1'-0"
140
0.03125
141
12.0
290
     0
  0
SCALE
  5
5C
102
{ACAD_REACTORS
330
47
102
}
330
47
100
AcDbScale
 70
     0
300
1/16" = 1'-0"
140
0.0625
141
12.0
290
     0
  0
SCALE
  5
5D
102
{ACAD_REACTORS
330
47
102
}
330
47
100
AcDbScale
 70
     0
300
3/32" = 1'-0"
140
0.09375
141
12.0
290
     0
  0
SCALE
  5
5E
102
{ACAD_REACTORS
330
47
102
}
330
47
100
AcDbScale
 70
     0
300
1/8" = 1'-0"
140
0.125
141
12.0
290
     0
  0
SCALE
  5
5F
102
{ACAD_REACTORS
330
47
102
}
330
47
100
AcDbScale
 70
     0
300
3/16" = 1'-0"
140
0.1875
141
12.0
290
     0
  0
SCALE
  5
60
102
{ACAD_REACTORS
330
47
102
}
330
47
100
AcDbScale
 70
     0
300
1/4" = 1'-0"
140
0.25
141
12.0
290
     0
  0
SCALE
  5
61
102
{ACAD_REACTORS
330
47
102
}
330
47
100
AcDbScale
 70
     0
300
3/8" = 1'-0"
140
0.375
141
12.0
290
     0
  0
SCALE
  5
62
102
{ACAD_REACTORS
330
47
102
}
330
47
100
AcDbScale
 70
     0
300
1/2" = 1'-0"
140
0.5
141
12.0
290
     0
  0
SCALE
  5
63
102
{ACAD_REACTORS
330
47
102
}
330
47
100
AcDbScale
 70
     0
300
3/4" = 1'-0"
140
0.75
141
12.0
290
     0
  0
SCALE
  5
64
102
{ACAD_REACTORS
330
47
102
}
330
47
100
AcDbScale
 70
     0
300
1" = 1'-0"
140
1.0
141
12.0
290
     0
  0
SCALE
  5
65
102
{ACAD_REACTORS
330
47
102
}
330
47
100
AcDbScale
 70
     0
300
1-1/2" = 1'-0"
140
1.5
141
12.0
290
     0
  0
SCALE
  5
66
102
{ACAD_REACTORS
330
47
102
}
330
47
100
AcDbScale
 70
     0
300
3" = 1'-0"
140
3.0
141
12.0
290
     0
  0
SCALE
  5
67
102
{ACAD_REACTORS
330
47
102
}
330
47
100
AcDbScale
 70
     0
300
6" = 1'-0"
140
6.0
141
12.0
290
     0
  0
SCALE
  5
68
102
{ACAD_REACTORS
330
47
102
}
330
47
100
AcDbScale
 70
     0
300
1'-0" = 1'-0"
140
12.0
141
12.0
290
     0
  0
ENDSEC
  0
EOF
