  0
SECTION
  2
HEADER
  9
$ACADVER
  1
AC1015
  9
$ACADMAINTVER
 70
    20
  9
$DWGCODEPAGE
  3
ANSI_932
  9
$INSBASE
 10
0.0
 20
0.0
 30
0.0
  9
$EXTMIN
 10
1759.063159087004
 20
-4403.509099321904
 30
-0.0000000000000241
  9
$EXTMAX
 10
1914.146502860706
 20
-4292.527233870263
 30
0.000000000000037
  9
$LIMMIN
 10
0.0
 20
0.0
  9
$LIMMAX
 10
420.0
 20
297.0
  9
$ORTHOMODE
 70
     1
  9
$REGENMODE
 70
     1
  9
$FILLMODE
 70
     1
  9
$QTEXTMODE
 70
     0
  9
$MIRRTEXT
 70
     1
  9
$LTSCALE
 40
5.0
  9
$ATTMODE
 70
     0
  9
$TEXTSIZE
 40
53.44730959687513
  9
$TRACEWID
 40
1.0
  9
$TEXTSTYLE
  7
STANDARD
  9
$CLAYER
  8
0
  9
$CELTYPE
  6
BYLAYER
  9
$CECOLOR
 62
   256
  9
$CELTSCALE
 40
1.0
  9
$DISPSILH
 70
     0
  9
$DIMSCALE
 40
1.0
  9
$DIMASZ
 40
2.5
  9
$DIMEXO
 40
1.5
  9
$DIMDLI
 40
0.38
  9
$DIMRND
 40
0.0
  9
$DIMDLE
 40
0.0
  9
$DIMEXE
 40
1.0
  9
$DIMTP
 40
0.0
  9
$DIMTM
 40
0.0
  9
$DIMTXT
 40
2.500000000000003
  9
$DIMCEN
 40
0.0
  9
$DIMTSZ
 40
0.0
  9
$DIMTOL
 70
     0
  9
$DIMLIM
 70
     0
  9
$DIMTIH
 70
     0
  9
$DIMTOH
 70
     0
  9
$DIMSE1
 70
     0
  9
$DIMSE2
 70
     0
  9
$DIMTAD
 70
     3
  9
$DIMZIN
 70
     8
  9
$DIMBLK
  1

  9
$DIMASO
 70
     1
  9
$DIMSHO
 70
     0
  9
$DIMPOST
  1

  9
$DIMAPOST
  1

  9
$DIMALT
 70
     0
  9
$DIMALTD
 70
     0
  9
$DIMALTF
 40
25.4
  9
$DIMLFAC
 40
1.0
  9
$DIMTOFL
 70
     1
  9
$DIMTVP
 40
0.0
  9
$DIMTIX
 70
     0
  9
$DIMSOXD
 70
     0
  9
$DIMSAH
 70
     1
  9
$DIMBLK1
  1
OPEN
  9
$DIMBLK2
  1
OPEN
  9
$DIMSTYLE
  2
STANDARD
  9
$DIMCLRD
 70
     8
  9
$DIMCLRE
 70
     8
  9
$DIMCLRT
 70
   256
  9
$DIMTFAC
 40
1.0
  9
$DIMGAP
 40
1.0
  9
$DIMJUST
 70
     0
  9
$DIMSD1
 70
     0
  9
$DIMSD2
 70
     0
  9
$DIMTOLJ
 70
     1
  9
$DIMTZIN
 70
     0
  9
$DIMALTZ
 70
     0
  9
$DIMALTTZ
 70
     0
  9
$DIMUPT
 70
     0
  9
$DIMDEC
 70
     2
  9
$DIMTDEC
 70
     2
  9
$DIMALTU
 70
     2
  9
$DIMALTTD
 70
     0
  9
$DIMTXSTY
  7
STANDARD
  9
$DIMAUNIT
 70
     0
  9
$DIMADEC
 70
     2
  9
$DIMALTRND
 40
0.0
  9
$DIMAZIN
 70
     2
  9
$DIMDSEP
 70
    46
  9
$DIMATFIT
 70
     1
  9
$DIMFRAC
 70
     0
  9
$DIMLDRBLK
  1
OPEN
  9
$DIMLUNIT
 70
     2
  9
$DIMLWD
 70
    -2
  9
$DIMLWE
 70
    -2
  9
$DIMTMOVE
 70
     0
  9
$LUNITS
 70
     2
  9
$LUPREC
 70
     2
  9
$SKETCHINC
 40
0.1
  9
$FILLETRAD
 40
0.33
  9
$AUNITS
 70
     0
  9
$AUPREC
 70
     1
  9
$MENU
  1
FM
  9
$ELEVATION
 40
0.0
  9
$PELEVATION
 40
0.0
  9
$THICKNESS
 40
0.0
  9
$LIMCHECK
 70
     0
  9
$CHAMFERA
 40
0.0
  9
$CHAMFERB
 40
0.0
  9
$CHAMFERC
 40
0.0
  9
$CHAMFERD
 40
0.0
  9
$SKPOLY
 70
     0
  9
$TDCREATE
 40
2448636.619629630
  9
$TDUCREATE
 40
2448636.244629629
  9
$TDUPDATE
 40
2457455.740734526
  9
$TDUUPDATE
 40
2457455.365734526
  9
$TDINDWG
 40
49.5660922685
  9
$TDUSRTIMER
 40
2457455.359105822
  9
$USRTIMER
 70
     1
  9
$ANGBASE
 50
0.0
  9
$ANGDIR
 70
     0
  9
$PDMODE
 70
     3
  9
$PDSIZE
 40
0.0
  9
$PLINEWID
 40
0.0
  9
$SPLFRAME
 70
     0
  9
$SPLINETYPE
 70
     6
  9
$SPLINESEGS
 70
     8
  9
$HANDSEED
  5
14A9E0
  9
$SURFTAB1
 70
     6
  9
$SURFTAB2
 70
     6
  9
$SURFTYPE
 70
     6
  9
$SURFU
 70
     6
  9
$SURFV
 70
     6
  9
$UCSBASE
  2

  9
$UCSNAME
  2

  9
$UCSORG
 10
0.0
 20
0.0
 30
0.0
  9
$UCSXDIR
 10
1.0
 20
0.0
 30
0.0
  9
$UCSYDIR
 10
0.0
 20
1.0
 30
0.0
  9
$UCSORTHOREF
  2

  9
$UCSORTHOVIEW
 70
     0
  9
$UCSORGTOP
 10
0.0
 20
0.0
 30
0.0
  9
$UCSORGBOTTOM
 10
0.0
 20
0.0
 30
0.0
  9
$UCSORGLEFT
 10
0.0
 20
0.0
 30
0.0
  9
$UCSORGRIGHT
 10
0.0
 20
0.0
 30
0.0
  9
$UCSORGFRONT
 10
0.0
 20
0.0
 30
0.0
  9
$UCSORGBACK
 10
0.0
 20
0.0
 30
0.0
  9
$PUCSBASE
  2

  9
$PUCSNAME
  2

  9
$PUCSORG
 10
0.0
 20
0.0
 30
0.0
  9
$PUCSXDIR
 10
1.0
 20
0.0
 30
0.0
  9
$PUCSYDIR
 10
0.0
 20
1.0
 30
0.0
  9
$PUCSORTHOREF
  2

  9
$PUCSORTHOVIEW
 70
     0
  9
$PUCSORGTOP
 10
0.0
 20
0.0
 30
0.0
  9
$PUCSORGBOTTOM
 10
0.0
 20
0.0
 30
0.0
  9
$PUCSORGLEFT
 10
0.0
 20
0.0
 30
0.0
  9
$PUCSORGRIGHT
 10
0.0
 20
0.0
 30
0.0
  9
$PUCSORGFRONT
 10
0.0
 20
0.0
 30
0.0
  9
$PUCSORGBACK
 10
0.0
 20
0.0
 30
0.0
  9
$USERI1
 70
     0
  9
$USERI2
 70
     0
  9
$USERI3
 70
     0
  9
$USERI4
 70
     0
  9
$USERI5
 70
     0
  9
$USERR1
 40
0.0
  9
$USERR2
 40
0.0
  9
$USERR3
 40
0.0
  9
$USERR4
 40
0.0
  9
$USERR5
 40
0.0
  9
$WORLDVIEW
 70
     0
  9
$SHADEDGE
 70
     3
  9
$SHADEDIF
 70
    70
  9
$TILEMODE
 70
     1
  9
$MAXACTVP
 70
    16
  9
$PINSBASE
 10
0.0
 20
0.0
 30
0.0
  9
$PLIMCHECK
 70
     0
  9
$PEXTMIN
 10
1.000000000000000E+20
 20
1.000000000000000E+20
 30
1.000000000000000E+20
  9
$PEXTMAX
 10
-1.000000000000000E+20
 20
-1.000000000000000E+20
 30
-1.000000000000000E+20
  9
$PLIMMIN
 10
0.0
 20
0.0
  9
$PLIMMAX
 10
0.0
 20
0.0
  9
$UNITMODE
 70
     0
  9
$VISRETAIN
 70
     0
  9
$PLINEGEN
 70
     0
  9
$PSLTSCALE
 70
     0
  9
$TREEDEPTH
 70
  3020
  9
$CMLSTYLE
  2
STANDARD
  9
$CMLJUST
 70
     0
  9
$CMLSCALE
 40
1.0
  9
$PROXYGRAPHICS
 70
     1
  9
$MEASUREMENT
 70
     0
  9
$CELWEIGHT
370
    -1
  9
$ENDCAPS
280
     0
  9
$JOINSTYLE
280
     0
  9
$LWDISPLAY
290
     0
  9
$INSUNITS
 70
     0
  9
$HYPERLINKBASE
  1

  9
$STYLESHEET
  1
SPAX FORM.CTB
  9
$XEDIT
290
     1
  9
$CEPSNTYPE
380
     0
  9
$PSTYLEMODE
290
     1
  9
$FINGERPRINTGUID
  2
{BBAEEBA6-8B94-11D3-9160-00E0294F7E09}
  9
$VERSIONGUID
  2
{7572CA4F-F42A-4608-BC93-46F43BDB3DC6}
  9
$EXTNAMES
290
     1
  9
$PSVPSCALE
 40
0.0
  9
$OLESTARTUP
290
     0
  0
ENDSEC
  0
SECTION
  2
CLASSES
  0
CLASS
  1
ACDBDICTIONARYWDFLT
  2
AcDbDictionaryWithDefault
  3
ObjectDBX Classes
 90
        0
280
     0
281
     0
  0
CLASS
  1
ACDBPLACEHOLDER
  2
AcDbPlaceHolder
  3
ObjectDBX Classes
 90
        0
280
     0
281
     0
  0
CLASS
  1
LAYOUT
  2
AcDbLayout
  3
ObjectDBX Classes
 90
        0
280
     0
281
     0
  0
CLASS
  1
DICTIONARYVAR
  2
AcDbDictionaryVar
  3
ObjectDBX Classes
 90
        0
280
     0
281
     0
  0
CLASS
  1
MATERIAL
  2
AcDbMaterial
  3
ObjectDBX Classes
 90
     1153
280
     0
281
     0
  0
CLASS
  1
VISUALSTYLE
  2
AcDbVisualStyle
  3
ObjectDBX Classes
 90
     4095
280
     0
281
     0
  0
CLASS
  1
TABLESTYLE
  2
AcDbTableStyle
  3
ObjectDBX Classes
 90
     4095
280
     0
281
     0
  0
CLASS
  1
SCALE
  2
AcDbScale
  3
ObjectDBX Classes
 90
     1153
280
     0
281
     0
  0
CLASS
  1
MLEADERSTYLE
  2
AcDbMLeaderStyle
  3
ACDB_MLEADERSTYLE_CLASS
 90
     4095
280
     0
281
     0
  0
CLASS
  1
CELLSTYLEMAP
  2
AcDbCellStyleMap
  3
ObjectDBX Classes
 90
     1152
280
     0
281
     0
  0
CLASS
  1
SORTENTSTABLE
  2
AcDbSortentsTable
  3
ObjectDBX Classes
 90
        0
280
     0
281
     0
  0
CLASS
  1
MULTILEADER
  2
AcDbMLeader
  3
ACDB_MLEADER_CLASS
 90
    33793
280
     0
281
     1
  0
CLASS
  1
DIMASSOC
  2
AcDbDimAssoc
  3
"AcDbDimAssoc|Product Desc:     AcDim ARX App For Dimension|Company:          Autodesk, Inc.|WEB Address:      www.autodesk.com"
 90
    32768
280
     0
281
     0
  0
CLASS
  1
SUN
  2
AcDbSun
  3
SCENEOE
 90
    33921
280
     0
281
     0
  0
CLASS
  1
RASTERVARIABLES
  2
AcDbRasterVariables
  3
ISM
 90
        0
280
     0
281
     0
  0
ENDSEC
  0
SECTION
  2
TABLES
  0
TABLE
  2
VPORT
  5
8
330
0
100
AcDbSymbolTable
 70
     1
  0
VPORT
  5
A0C
330
8
100
AcDbSymbolTableRecord
100
AcDbViewportTableRecord
  2
*Active
 70
     0
 10
0.0
 20
0.0
 11
1.0
 21
1.0
 12
1836.604830973855
 22
-4348.018166596083
 13
0.0
 23
0.0
 14
1.0
 24
1.0
 15
20.0
 25
20.0
 16
0.0
 26
0.0
 36
1.0
 17
0.0
 27
0.0
 37
0.0
 40
111.7437546881501
 41
1.489117983963344
 42
50.0
 43
0.0
 44
0.0
 50
0.0
 51
0.0
 71
    16
 72
   100
 73
     1
 74
     0
 75
     0
 76
     0
 77
     0
 78
     0
281
     0
 65
     1
110
0.0
120
0.0
130
0.0
111
1.0
121
0.0
131
0.0
112
0.0
122
1.0
132
0.0
 79
     0
146
0.0
  0
ENDTAB
  0
TABLE
  2
LTYPE
  5
5
330
0
100
AcDbSymbolTable
 70
     5
  0
LTYPE
  5
12
330
5
100
AcDbSymbolTableRecord
100
AcDbLinetypeTableRecord
  2
BYBLOCK
 70
     0
  3

 72
    65
 73
     0
 40
0.0
  0
LTYPE
  5
13
330
5
100
AcDbSymbolTableRecord
100
AcDbLinetypeTableRecord
  2
BYLAYER
 70
     0
  3

 72
    65
 73
     0
 40
0.0
  0
LTYPE
  5
14
330
5
100
AcDbSymbolTableRecord
100
AcDbLinetypeTableRecord
  2
CONTINUOUS
 70
     0
  3
Solid line
 72
    65
 73
     0
 40
0.0
  0
ENDTAB
  0
TABLE
  2
LAYER
  5
2
102
{ACAD_XDICTIONARY
360
8BF
102
}
330
0
100
AcDbSymbolTable
 70
    26
  0
LAYER
  5
F
102
{ACAD_XDICTIONARY
360
A60
102
}
330
2
100
AcDbSymbolTableRecord
100
AcDbLayerTableRecord
  2
0
 70
     0
 62
     7
  6
CONTINUOUS
370
    -3
390
616
  0
LAYER
  5
34
102
{ACAD_XDICTIONARY
360
A66
102
}
330
2
100
AcDbSymbolTableRecord
100
AcDbLayerTableRecord
  2
寸法線
 70
     0
 62
     7
  6
CONTINUOUS
370
    -3
390
616
  0
LAYER
  5
36
330
2
100
AcDbSymbolTableRecord
100
AcDbLayerTableRecord
  2
DEFPOINTS
 70
     0
 62
     7
  6
CONTINUOUS
290
     0
370
    -3
390
616
  0
LAYER
  5
2F4
102
{ACAD_XDICTIONARY
360
A6E
102
}
330
2
100
AcDbSymbolTableRecord
100
AcDbLayerTableRecord
  2
文字
 70
     0
 62
     7
  6
CONTINUOUS
370
    -3
390
616
  0
LAYER
  5
305
102
{ACAD_XDICTIONARY
360
A72
102
}
330
2
100
AcDbSymbolTableRecord
100
AcDbLayerTableRecord
  2
姿図
 70
     0
 62
     8
  6
CONTINUOUS
370
    -3
390
616
  0
ENDTAB
  0
TABLE
  2
STYLE
  5
3
330
0
100
AcDbSymbolTable
 70
     4
  0
STYLE
  5
10
330
3
100
AcDbSymbolTableRecord
100
AcDbTextStyleTableRecord
  2
STANDARD
 70
     0
 40
0.0
 41
1.0
 50
0.0
 71
     0
 42
53.44730959687513
  3
MONOTXT
  4
BIGFONT
  0
ENDTAB
  0
TABLE
  2
VIEW
  5
6
330
0
100
AcDbSymbolTable
 70
     0
  0
ENDTAB
  0
TABLE
  2
UCS
  5
7
330
0
100
AcDbSymbolTable
 70
     0
  0
ENDTAB
  0
TABLE
  2
APPID
  5
9
330
0
100
AcDbSymbolTable
 70
    17
  0
APPID
  5
11
330
9
100
AcDbSymbolTableRecord
100
AcDbRegAppTableRecord
  2
ACAD
 70
     0
  0
APPID
  5
8BB
330
9
100
AcDbSymbolTableRecord
100
AcDbRegAppTableRecord
  2
ACAD_PSEXT
 70
     0
  0
APPID
  5
A5A
330
9
100
AcDbSymbolTableRecord
100
AcDbRegAppTableRecord
  2
ACAD_MLEADERVER
 70
     0
  0
APPID
  5
A5E
330
9
100
AcDbSymbolTableRecord
100
AcDbRegAppTableRecord
  2
ACAD_DSTYLE_DIMJAG
 70
     0
  0
APPID
  5
A5F
330
9
100
AcDbSymbolTableRecord
100
AcDbRegAppTableRecord
  2
ACAD_DSTYLE_DIMTALN
 70
     0
  0
APPID
  5
12C0
330
9
100
AcDbSymbolTableRecord
100
AcDbRegAppTableRecord
  2
ACAD_EXEMPT_FROM_CAD_STANDARDS
 70
     0
  0
APPID
  5
1C50
330
9
100
AcDbSymbolTableRecord
100
AcDbRegAppTableRecord
  2
AcAecLayerStandard
 70
     0
  0
APPID
  5
5088
330
9
100
AcDbSymbolTableRecord
100
AcDbRegAppTableRecord
  2
ACAD_DSTYLE_DIMRADIAL_EXTENSION
 70
     0
  0
APPID
  5
14AF3
330
9
100
AcDbSymbolTableRecord
100
AcDbRegAppTableRecord
  2
WACOM_STRING
 70
     0
  0
APPID
  5
14AF4
330
9
100
AcDbSymbolTableRecord
100
AcDbRegAppTableRecord
  2
WACOM_DRSYM_ARROW
 70
     0
  0
APPID
  5
1E1A8
330
9
100
AcDbSymbolTableRecord
100
AcDbRegAppTableRecord
  2
GENIUS_GENODEF_13
 70
     0
  0
APPID
  5
1E1A9
330
9
100
AcDbSymbolTableRecord
100
AcDbRegAppTableRecord
  2
GENIUS_GENREC_14
 70
     0
  0
APPID
  5
1E1AA
330
9
100
AcDbSymbolTableRecord
100
AcDbRegAppTableRecord
  2
GENIUS_GENOBJ-N-REC_13
 70
     0
  0
APPID
  5
27C72
330
9
100
AcDbSymbolTableRecord
100
AcDbRegAppTableRecord
  2
ASK_MEN_XD
 70
     0
  0
APPID
  5
29316
330
9
100
AcDbSymbolTableRecord
100
AcDbRegAppTableRecord
  2
ACAD_DSTYLE_DIMBREAK
 70
     0
  0
APPID
  5
142D31
330
9
100
AcDbSymbolTableRecord
100
AcDbRegAppTableRecord
  2
ACAD_SPLINE_DATA
 70
     0
  0
APPID
  5
142D32
330
9
100
AcDbSymbolTableRecord
100
AcDbRegAppTableRecord
  2
ACAD_SPLINE_DATA2
 70
     0
  0
ENDTAB
  0
TABLE
  2
DIMSTYLE
  5
A
330
0
100
AcDbSymbolTable
 70
     4
100
AcDbDimStyleTable
 71
     0
  0
DIMSTYLE
105
1CC
330
A
100
AcDbSymbolTableRecord
100
AcDbDimStyleTableRecord
  2
STANDARD
 70
     0
 41
2.5
 42
1.5
 44
1.0
 73
     0
 74
     0
 77
     3
 78
     8
 79
     2
140
2.500000000000003
141
0.0
147
1.0
171
     0
172
     1
173
     1
176
     8
177
     8
178
   256
179
     2
271
     2
272
     2
274
     0
289
     1
340
10
341
608
343
608
344
608
1001
ACAD_DSTYLE_DIMJAG
1070
   388
1040
1.5
1001
ACAD_DSTYLE_DIMTALN
1070
   392
1070
     0
  0
ENDTAB
  0
TABLE
  2
BLOCK_RECORD
  5
1
330
0
100
AcDbSymbolTable
 70
    18
  0
BLOCK_RECORD
  5
18
102
{ACAD_XDICTIONARY
360
143F
102
}
330
1
100
AcDbSymbolTableRecord
100
AcDbBlockTableRecord
  2
*MODEL_SPACE
340
619
  0
BLOCK_RECORD
  5
15
330
1
100
AcDbSymbolTableRecord
100
AcDbBlockTableRecord
  2
*PAPER_SPACE
340
61A
  0
BLOCK_RECORD
  5
608
330
1
100
AcDbSymbolTableRecord
100
AcDbBlockTableRecord
  2
_OPEN
340
0
102
{BLKREFS
331
14670C
331
14670D
331
146717
331
146718
331
146720
331
146721
331
146729
331
14672A
331
146734
331
146735
331
14673F
331
146740
331
149076
331
149077
331
149081
331
149082
331
14908A
331
14908B
331
149093
331
149094
331
14909E
331
14909F
331
1490A9
331
1490AA
102
}
  0
ENDTAB
  0
ENDSEC
  0
SECTION
  2
BLOCKS
  0
BLOCK
  5
39
330
18
100
AcDbEntity
  8
0
100
AcDbBlockBegin
  2
*MODEL_SPACE
 70
     0
 10
0.0
 20
0.0
 30
0.0
  3
*MODEL_SPACE
  1
*MODEL_SPACE
  0
ENDBLK
  5
3A
330
18
100
AcDbEntity
  8
0
100
AcDbBlockEnd
  0
BLOCK
  5
37
330
15
100
AcDbEntity
 67
     1
  8
0
100
AcDbBlockBegin
  2
*PAPER_SPACE
 70
     0
 10
0.0
 20
0.0
 30
0.0
  3
*PAPER_SPACE
  1
*PAPER_SPACE
  0
ENDBLK
  5
38
330
15
100
AcDbEntity
 67
     1
  8
0
100
AcDbBlockEnd
  0
BLOCK
  5
609
330
608
100
AcDbEntity
  8
0
100
AcDbBlockBegin
  2
_OPEN
 70
     0
 10
0.0
 20
0.0
 30
0.0
  3
_OPEN
  1
_OPEN
  0
LINE
  5
60A
330
608
100
AcDbEntity
  8
0
  6
ByBlock
 62
     0
100
AcDbLine
 10
-1.0
 20
0.1666666666666667
 30
0.0
 11
0.0
 21
0.0
 31
0.0
  0
LINE
  5
60B
330
608
100
AcDbEntity
  8
0
  6
ByBlock
 62
     0
100
AcDbLine
 10
0.0
 20
0.0
 30
0.0
 11
-1.0
 21
-0.1666666666666667
 31
0.0
  0
LINE
  5
60C
330
608
100
AcDbEntity
  8
0
  6
ByBlock
 62
     0
100
AcDbLine
 10
0.0
 20
0.0
 30
0.0
 11
-1.0
 21
0.0
 31
0.0
  0
ENDBLK
  5
60D
330
608
100
AcDbEntity
  8
0
100
AcDbBlockEnd
  0
ENDSEC
  0
SECTION
  2
ENTITIES
  0
MTEXT
  5
D0CC6
330
18
100
AcDbEntity
  8
寸法線
100
AcDbMText
 10
2610.774875364868
 20
-2740.315466585338
 30
0.0
 40
2.500000000000003
 41
0.0
 71
     9
 72
     1
  1
\A1;
 73
     1
 44
1.0
1001
ACAD
1000
MTEXTBEGIN
1070
    73
1070
     1
1070
    44
1040
1.0
1070
    74
1070
     0
1000
MTEXTEND
  0
MTEXT
  5
F6D77
330
18
100
AcDbEntity
  8
文字
100
AcDbMText
 10
5821.057140836062
 20
-2842.341718131324
 30
0.0
 40
2.5
 41
64.39156592258223
 71
     1
 72
     5
  1
   
 73
     1
 44
1.0
1001
ACAD
1000
MTEXTBEGIN
1070
    73
1070
     1
1070
    44
1040
1.0
1070
    74
1070
     0
1000
MTEXTEND
  0
MTEXT
  5
F6D78
330
18
100
AcDbEntity
  8
寸法線
100
AcDbMText
 10
6222.662262480188
 20
-2968.738290481128
 30
0.0
 40
3.000000000000001
 41
0.0
 71
     7
 72
     1
  1
\A1;
 73
     1
 44
1.0
1001
ACAD
1000
MTEXTBEGIN
1070
    73
1070
     1
1070
    44
1040
1.0
1070
    74
1070
     0
1000
MTEXTEND
  0
SPLINE
  5
147BF6
330
18
100
AcDbEntity
  8
姿図
100
AcDbSpline
210
0.0
220
0.0
230
1.0
 70
     8
 71
     3
 72
     8
 73
     4
 74
     0
 42
0.0000000001
 43
0.0000000001
 40
0.0
 40
0.0
 40
0.0
 40
0.0
 40
1.0
 40
1.0
 40
1.0
 40
1.0
 10
1818.867712434792
 20
-4332.479435375615
 30
0.0
 10
1823.577295768126
 20
-4331.950268708949
 30
0.0
 10
1828.868962434792
 20
-4333.546819815266
 30
0.0
 10
1837.820664094948
 20
-4340.127133943322
 30
0.0
  0
SPLINE
  5
147BF7
330
18
100
AcDbEntity
  8
姿図
100
AcDbSpline
210
0.0
220
0.0
230
1.0
 70
     8
 71
     3
 72
     8
 73
     4
 74
     0
 42
0.0000000001
 43
0.0000000001
 40
0.0
 40
0.0
 40
0.0
 40
0.0
 40
1.0
 40
1.0
 40
1.0
 40
1.0
 10
1837.899108919166
 20
-4339.523966625614
 30
0.0
 10
1831.494435253802
 20
-4334.613797782014
 30
0.0
 10
1819.993431835834
 20
-4328.211892244104
 30
0.0
 10
1813.911219107969
 20
-4334.005337068322
 30
0.0
  0
SPLINE
  5
147BF8
330
18
100
AcDbEntity
  8
姿図
100
AcDbSpline
210
0.0
220
0.0
230
1.0
 70
     8
 71
     3
 72
     8
 73
     4
 74
     0
 42
0.0000000001
 43
0.0000000001
 40
6.0
 40
6.0
 40
6.0
 40
6.0
 40
7.0
 40
7.0
 40
7.0
 40
7.0
 10
1816.104470247292
 20
-4331.228038891239
 30
0.0
 10
1817.909011262916
 20
-4328.896604971967
 30
0.0
 10
1820.612412141823
 20
-4325.840564119104
 30
0.0
 10
1823.331832714739
 20
-4322.400567374311
 30
0.0
  0
SPLINE
  5
147BF9
330
18
100
AcDbEntity
  8
姿図
100
AcDbSpline
210
0.0
220
0.0
230
1.0
 70
     8
 71
     3
 72
     8
 73
     4
 74
     0
 42
0.0000000001
 43
0.0000000001
 40
3.0
 40
3.0
 40
3.0
 40
3.0
 40
4.0
 40
4.0
 40
4.0
 40
4.0
 10
1811.688822460832
 20
-4346.840936026656
 30
0.0
 10
1811.688822460832
 20
-4346.840936026656
 30
0.0
 10
1812.960889518125
 20
-4343.069383292283
 30
0.0
 10
1813.340297884011
 20
-4342.55592626103
 30
0.0
  0
SPLINE
  5
147BFA
330
18
100
AcDbEntity
  8
姿図
100
AcDbSpline
210
0.0
220
0.0
230
1.0
 70
     8
 71
     3
 72
     8
 73
     4
 74
     0
 42
0.0000000001
 43
0.0000000001
 40
0.0
 40
0.0
 40
0.0
 40
0.0
 40
1.0
 40
1.0
 40
1.0
 40
1.0
 10
1818.867712434792
 20
-4332.479435375615
 30
0.0
 10
1815.972075227761
 20
-4332.479435375615
 30
0.0
 10
1811.459379101458
 20
-4334.860685375615
 30
0.0
 10
1813.628962434792
 20
-4341.581102042282
 30
0.0
  0
SPLINE
  5
147BFB
330
18
100
AcDbEntity
  8
姿図
100
AcDbSpline
210
0.0
220
0.0
230
1.0
 70
     8
 71
     3
 72
     8
 73
     4
 74
     0
 42
0.0000000001
 43
0.0000000001
 40
0.0
 40
0.0
 40
0.0
 40
0.0
 40
1.0
 40
1.0
 40
1.0
 40
1.0
 10
1813.340297884011
 20
-4342.55592626103
 30
0.0
 10
1814.070485872293
 20
-4340.794380037073
 30
0.0
 10
1815.498719107969
 20
-4337.938740388635
 30
0.0
 10
1818.920629101458
 20
-4332.611727042281
 30
0.0
  0
SPLINE
  5
147BFC
330
18
100
AcDbEntity
  8
姿図
100
AcDbSpline
210
0.0
220
0.0
230
1.0
 70
     8
 71
     3
 72
     8
 73
     4
 74
     0
 42
0.0000000001
 43
0.0000000001
 40
4.0
 40
4.0
 40
4.0
 40
4.0
 40
5.0
 40
5.0
 40
5.0
 40
5.0
 10
1813.340297884011
 20
-4342.55592626103
 30
0.0
 10
1812.804723339739
 20
-4341.06061701624
 30
0.0
 10
1811.62422692047
 20
-4337.877555492802
 30
0.0
 10
1813.036647167864
 20
-4335.267688956343
 30
0.0
  0
SPLINE
  5
147BFD
330
18
100
AcDbEntity
  8
姿図
100
AcDbSpline
210
0.0
220
0.0
230
1.0
 70
     8
 71
     3
 72
     8
 73
     4
 74
     0
 42
0.0000000001
 43
0.0000000001
 40
5.0
 40
5.0
 40
5.0
 40
5.0
 40
6.0
 40
6.0
 40
6.0
 40
6.0
 10
1813.036647167864
 20
-4335.267688956343
 30
0.0
 10
1814.085782096247
 20
-4333.407544099573
 30
0.0
 10
1815.607859732969
 20
-4331.786971182906
 30
0.0
 10
1816.104470247292
 20
-4331.228038891239
 30
0.0
  0
SPLINE
  5
147BFE
330
18
100
AcDbEntity
  8
姿図
100
AcDbSpline
210
0.0
220
0.0
230
1.0
 70
     8
 71
     3
 72
     8
 73
     4
 74
     0
 42
0.0000000001
 43
0.0000000001
 40
0.0
 40
0.0
 40
0.0
 40
0.0
 40
1.0
 40
1.0
 40
1.0
 40
1.0
 10
1848.501045768126
 20
-4350.328475089157
 30
0.0
 10
1848.501045768126
 20
-4347.432941234989
 30
0.0
 10
1848.502906119687
 20
-4344.759202628219
 30
0.0
 10
1847.998544140521
 20
-4344.76871109176
 30
0.0
  0
SPLINE
  5
147BFF
330
18
100
AcDbEntity
  8
姿図
100
AcDbSpline
210
0.0
220
0.0
230
1.0
 70
     8
 71
     3
 72
    11
 73
     7
 74
     0
 42
0.0000000001
 43
0.0000000001
 40
39.0
 40
39.0
 40
39.0
 40
39.0
 40
40.0
 40
40.0
 40
40.0
 40
41.0
 40
41.0
 40
41.0
 40
41.0
 10
1849.253041210834
 20
-4345.065747224573
 30
0.0
 10
1849.315259635312
 20
-4345.718317211551
 30
0.0
 10
1849.377478059792
 20
-4349.634150544885
 30
0.0
 10
1849.377478059792
 20
-4349.851811677697
 30
0.0
 10
1849.377478059792
 20
-4350.069266104781
 30
0.0
 10
1849.222035351457
 20
-4350.59781265426
 30
0.0
 10
1849.03558678375
 20
-4350.846272940719
 30
0.0
  0
LINE
  5
147C00
330
18
100
AcDbEntity
  8
姿図
100
AcDbLine
 10
1862.947295768126
 20
-4305.994643708947
 30
0.0
 11
1860.654309114479
 21
-4303.983810375615
 31
0.0
  0
LINE
  5
147C01
330
18
100
AcDbEntity
  8
姿図
100
AcDbLine
 10
1860.266322460833
 20
-4314.778810375615
 30
0.0
 11
1864.570142447812
 21
-4307.864297029261
 31
0.0
  0
LINE
  5
147C02
330
18
100
AcDbEntity
  8
姿図
100
AcDbLine
 10
1858.566167838439
 20
-4302.779852856082
 30
0.0
 11
1853.585179882708
 21
-4310.54589045374
 31
0.0
  0
LINE
  5
147C03
330
18
100
AcDbEntity
  8
姿図
100
AcDbLine
 10
1858.819795768124
 20
-4303.031310375614
 30
0.0
 11
1854.374795768124
 21
-4310.051553702438
 31
0.0
  0
SPLINE
  5
147C04
330
18
100
AcDbEntity
  8
姿図
100
AcDbSpline
210
0.0
220
0.0
230
1.0
 70
     8
 71
     3
 72
     8
 73
     4
 74
     0
 42
0.0000000001
 43
0.0000000001
 40
0.0
 40
0.0
 40
0.0
 40
0.0
 40
1.0
 40
1.0
 40
1.0
 40
1.0
 10
1847.813129101458
 20
-4317.689227042279
 30
0.0
 10
1841.997876822814
 20
-4314.331705883428
 30
0.0
 10
1834.636982454322
 20
-4313.595626781865
 30
0.0
 10
1831.263544954323
 20
-4314.586574047489
 30
0.0
  0
SPLINE
  5
147C05
330
18
100
AcDbEntity
  8
姿図
100
AcDbSpline
210
0.0
220
0.0
230
1.0
 70
     8
 71
     3
 72
     8
 73
     4
 74
     0
 42
0.0000000001
 43
0.0000000001
 40
0.0
 40
0.0
 40
0.0
 40
0.0
 40
1.0
 40
1.0
 40
1.0
 40
1.0
 10
1837.820664094948
 20
-4340.127133943322
 30
0.0
 10
1839.207762890521
 20
-4341.099064281864
 30
0.0
 10
1840.810559114479
 20
-4339.989054516239
 30
0.0
 10
1840.810559114479
 20
-4339.482005362593
 30
0.0
  0
SPLINE
  5
147C06
330
18
100
AcDbEntity
  8
姿図
100
AcDbSpline
210
0.0
220
0.0
230
1.0
 70
     8
 71
     3
 72
     8
 73
     4
 74
     0
 42
0.0000000001
 43
0.0000000001
 40
0.0
 40
0.0
 40
0.0
 40
0.0
 40
1.0
 40
1.0
 40
1.0
 40
1.0
 10
1840.790508658751
 20
-4338.87036310999
 30
0.0
 10
1840.790508658751
 20
-4339.377412263636
 30
0.0
 10
1839.286104361874
 20
-4340.495896964157
 30
0.0
 10
1837.899108919166
 20
-4339.523966625614
 30
0.0
  0
SPLINE
  5
147C07
330
18
100
AcDbEntity
  8
姿図
100
AcDbSpline
210
0.0
220
0.0
230
1.0
 70
     8
 71
     3
 72
     8
 73
     4
 74
     0
 42
0.0000000001
 43
0.0000000001
 40
7.0
 40
7.0
 40
7.0
 40
7.0
 40
8.0
 40
8.0
 40
8.0
 40
8.0
 10
1823.331832714739
 20
-4322.400567374311
 30
0.0
 10
1826.297026399636
 20
-4318.649581859989
 30
0.0
 10
1829.162794628801
 20
-4314.732404939415
 30
0.0
 10
1831.263544954323
 20
-4314.586574047489
 30
0.0
  0
LINE
  5
147C08
330
18
100
AcDbEntity
  8
姿図
100
AcDbLine
 10
1855.433129101459
 20
-4315.925303702437
 30
0.0
 11
1845.461070768913
 21
-4331.551568943079
 31
0.0
  0
SPLINE
  5
147C09
330
18
100
AcDbEntity
  8
姿図
100
AcDbSpline
210
0.0
220
0.0
230
1.0
 70
     8
 71
     3
 72
     8
 73
     4
 74
     0
 42
0.0000000001
 43
0.0000000001
 40
0.0
 40
0.0
 40
0.0
 40
0.0
 40
1.0
 40
1.0
 40
1.0
 40
1.0
 10
1848.423324413958
 20
-4343.165294750615
 30
0.0
 10
1848.124014518125
 20
-4342.834565583948
 30
0.0
 10
1847.905733268126
 20
-4342.636128083947
 30
0.0
 10
1847.717424348855
 20
-4342.529881339156
 30
0.0
  0
SPLINE
  5
147C0A
330
18
100
AcDbEntity
  8
姿図
100
AcDbSpline
210
0.0
220
0.0
230
1.0
 70
     8
 71
     3
 72
     8
 73
     4
 74
     0
 42
0.0000000001
 43
0.0000000001
 40
0.0
 40
0.0
 40
0.0
 40
0.0
 40
1.0
 40
1.0
 40
1.0
 40
1.0
 10
1848.117399934792
 20
-4344.812739412073
 30
0.0
 10
1847.268666210832
 20
-4343.654360505822
 30
0.0
 10
1846.046415234272
 20
-4342.929856925094
 30
0.0
 10
1844.108962434791
 20
-4342.560060375616
 30
0.0
  0
SPLINE
  5
147C0B
330
18
100
AcDbEntity
  8
姿図
100
AcDbSpline
210
0.0
220
0.0
230
1.0
 70
     8
 71
     3
 72
     8
 73
     4
 74
     0
 42
0.0000000001
 43
0.0000000001
 40
0.0
 40
0.0
 40
0.0
 40
0.0
 40
1.0
 40
1.0
 40
1.0
 40
1.0
 10
1848.077712434791
 20
-4344.703185375615
 30
0.0
 10
1846.807712434791
 20
-4337.400685375615
 30
0.0
 10
1846.22562910146
 20
-4333.908185375615
 30
0.0
 10
1844.849795768125
 20
-4332.267768708947
 30
0.0
  0
SPLINE
  5
147C0C
330
18
100
AcDbEntity
  8
姿図
100
AcDbSpline
210
0.0
220
0.0
230
1.0
 70
     8
 71
     3
 72
     8
 73
     4
 74
     0
 42
0.0000000001
 43
0.0000000001
 40
38.0
 40
38.0
 40
38.0
 40
38.0
 40
39.0
 40
39.0
 40
39.0
 40
39.0
 10
1848.414022656145
 20
-4343.13883641728
 30
0.0
 10
1849.03558678375
 20
-4343.853624828739
 30
0.0
 10
1849.190822786353
 20
-4344.412970531865
 30
0.0
 10
1849.253041210834
 20
-4345.065747224573
 30
0.0
  0
LINE
  5
147C0D
330
18
100
AcDbEntity
  8
姿図
100
AcDbLine
 10
1834.89799827768
 20
-4337.384801548546
 30
0.0
 11
1852.046462434791
 21
-4311.233393708948
 31
0.0
  0
ELLIPSE
  5
147C0E
330
18
100
AcDbEntity
  8
姿図
100
AcDbEllipse
 10
1859.999362011615
 20
-4307.944240470016
 30
0.0
 11
-1.391853027343749
 21
1.167835693359374
 31
0.0
210
0.0
220
0.0
230
1.0
 40
0.7351229721554963
 41
0.0
 42
6.283185307179585
  0
ELLIPSE
  5
147C0F
330
18
100
AcDbEntity
  8
姿図
100
AcDbEllipse
 10
1857.390218945207
 20
-4312.01908218551
 30
0.0
 11
-1.353922526041666
 21
1.136158040364583
 31
0.0
210
0.0
220
0.0
230
1.0
 40
0.7417511887598579
 41
0.0
 42
6.283185307179585
  0
SPLINE
  5
147C10
330
18
100
AcDbEntity
  8
姿図
100
AcDbSpline
210
0.0
220
0.0
230
1.0
 70
     8
 71
     3
 72
     8
 73
     4
 74
     0
 42
0.0000000001
 43
0.0000000001
 40
0.0
 40
0.0
 40
0.0
 40
0.0
 40
1.0
 40
1.0
 40
1.0
 40
1.0
 10
1858.371187616383
 20
-4307.108946701588
 30
0.0
 10
1858.856739374198
 20
-4306.625048589609
 30
0.0
 10
1859.79104927003
 20
-4306.703803472422
 30
0.0
 10
1860.508318150238
 20
-4307.305627202891
 30
0.0
  0
SPLINE
  5
147C11
330
18
100
AcDbEntity
  8
姿図
100
AcDbSpline
210
0.0
220
0.0
230
1.0
 70
     8
 71
     3
 72
     8
 73
     4
 74
     0
 42
0.0000000001
 43
0.0000000001
 40
1.0
 40
1.0
 40
1.0
 40
1.0
 40
2.0
 40
2.0
 40
2.0
 40
2.0
 10
1860.508318150238
 20
-4307.305627202891
 30
0.0
 10
1861.237369257009
 20
-4307.917372808359
 30
0.0
 10
1861.473220493988
 20
-4308.843827886484
 30
0.0
 10
1861.053194452323
 20
-4309.403793706795
 30
0.0
  0
SPLINE
  5
147C12
330
18
100
AcDbEntity
  8
姿図
100
AcDbSpline
210
0.0
220
0.0
230
1.0
 70
     8
 71
     3
 72
     8
 73
     4
 74
     0
 42
0.0000000001
 43
0.0000000001
 40
0.0
 40
0.0
 40
0.0
 40
0.0
 40
0.8940086046754551
 40
0.8940086046754551
 40
0.8940086046754551
 40
0.8940086046754551
 10
1859.950986389449
 20
-4315.239134689383
 30
0.0
 10
1859.314829542493
 20
-4316.294332203884
 30
0.0
 10
1857.766791801225
 20
-4316.071458924198
 30
0.0
 10
1856.736530450096
 20
-4315.709280963218
 30
0.0
  0
SPLINE
  5
147C13
330
18
100
AcDbEntity
  8
姿図
100
AcDbSpline
210
0.0
220
0.0
230
1.0
 70
     8
 71
     3
 72
     8
 73
     4
 74
     0
 42
0.0000000001
 43
0.0000000001
 40
0.0
 40
0.0
 40
0.0
 40
0.0
 40
1.0
 40
1.0
 40
1.0
 40
1.0
 10
1856.967712434791
 20
-4315.221987458947
 30
0.0
 10
1856.125386588437
 20
-4314.937560375615
 30
0.0
 10
1855.631566601458
 20
-4315.592404125615
 30
0.0
 10
1855.433129101459
 20
-4315.925303702437
 30
0.0
  0
SPLINE
  5
147C14
330
18
100
AcDbEntity
  8
姿図
100
AcDbSpline
210
0.0
220
0.0
230
1.0
 70
     8
 71
     3
 72
     8
 73
     4
 74
     0
 42
0.0000000001
 43
0.0000000001
 40
0.0
 40
0.0
 40
0.0
 40
0.0
 40
1.0
 40
1.0
 40
1.0
 40
1.0
 10
1860.266322460833
 20
-4314.778810375615
 30
0.0
 10
1859.631322460833
 20
-4316.189887035771
 30
0.0
 10
1857.612014192604
 20
-4315.669402009729
 30
0.0
 10
1856.967712434791
 20
-4315.221987458947
 30
0.0
  0
SPLINE
  5
147C15
330
18
100
AcDbEntity
  8
姿図
100
AcDbSpline
210
0.0
220
0.0
230
1.0
 70
     8
 71
     3
 72
     8
 73
     4
 74
     0
 42
0.0000000001
 43
0.0000000001
 40
0.0
 40
0.0
 40
0.0
 40
0.0
 40
1.0
 40
1.0
 40
1.0
 40
1.0
 10
1852.046462434791
 20
-4311.18047704228
 30
0.0
 10
1852.363962434792
 20
-4310.757143708947
 30
0.0
 10
1852.567154166562
 20
-4310.580720369105
 30
0.0
 10
1853.210629101459
 20
-4310.580720369105
 30
0.0
  0
SPLINE
  5
147C16
330
18
100
AcDbEntity
  8
姿図
100
AcDbSpline
210
0.0
220
0.0
230
1.0
 70
     8
 71
     3
 72
     8
 73
     4
 74
     0
 42
0.0000000001
 43
0.0000000001
 40
0.0
 40
0.0
 40
0.0
 40
0.0
 40
1.0
 40
1.0
 40
1.0
 40
1.0
 10
1854.374795768124
 20
-4310.051553702438
 30
0.0
 10
1854.26896243479
 20
-4310.40429702926
 30
0.0
 10
1853.598822460834
 20
-4310.686553702438
 30
0.0
 10
1853.210629101459
 20
-4310.580720369105
 30
0.0
  0
SPLINE
  5
147C17
330
18
100
AcDbEntity
  8
姿図
100
AcDbSpline
210
0.0
220
0.0
230
1.0
 70
     8
 71
     3
 72
     8
 73
     4
 74
     0
 42
0.0000000001
 43
0.0000000001
 40
0.0
 40
0.0
 40
0.0
 40
0.0
 40
1.0
 40
1.0
 40
1.0
 40
1.0
 10
1856.736530450096
 20
-4315.709280963218
 30
0.0
 10
1855.887261588439
 20
-4315.46672704228
 30
0.0
 10
1855.393441601458
 20
-4316.121570792281
 30
0.0
 10
1855.135162393859
 20
-4316.392293311373
 30
0.0
  0
SPLINE
  5
147C18
330
18
100
AcDbEntity
  8
姿図
100
AcDbSpline
210
0.0
220
0.0
230
1.0
 70
     8
 71
     3
 72
     8
 73
     4
 74
     0
 42
0.0000000001
 43
0.0000000001
 40
0.0
 40
0.0
 40
0.0
 40
0.0
 40
1.0
 40
1.0
 40
1.0
 40
1.0
 10
1858.566167838439
 20
-4302.779852856082
 30
0.0
 10
1859.02464114573
 20
-4302.039226228479
 30
0.0
 10
1859.518461132708
 20
-4302.720735017542
 30
0.0
 10
1859.518461132708
 20
-4302.603739574834
 30
0.0
  0
SPLINE
  5
147C19
330
18
100
AcDbEntity
  8
姿図
100
AcDbSpline
210
0.0
220
0.0
230
1.0
 70
     8
 71
     3
 72
     8
 73
     4
 74
     0
 42
0.0000000001
 43
0.0000000001
 40
0.0
 40
0.0
 40
0.0
 40
0.0
 40
1.0
 40
1.0
 40
1.0
 40
1.0
 10
1858.819795768124
 20
-4303.031310375614
 30
0.0
 10
1859.278475781146
 20
-4302.255130362595
 30
0.0
 10
1859.772295768125
 20
-4302.936639151655
 30
0.0
 10
1859.772295768125
 20
-4302.819643708947
 30
0.0
  0
LINE
  5
147C1A
330
18
100
AcDbEntity
  8
姿図
100
AcDbLine
 10
1860.865975781146
 20
-4303.630963695928
 30
0.0
 11
1859.772295768125
 21
-4302.819643708947
 31
0.0
  0
LINE
  5
147C1B
330
18
100
AcDbEntity
  8
姿図
100
AcDbLine
 10
1860.654309114479
 20
-4303.983810375615
 30
0.0
 11
1860.83062910146
 21
-4303.701553702437
 31
0.0
  0
LINE
  5
147C1C
330
18
100
AcDbEntity
  8
姿図
100
AcDbLine
 10
1862.947295768126
 20
-4305.994643708947
 30
0.0
 11
1863.300142447813
 21
-4305.64179702926
 31
0.0
  0
LINE
  5
147C1D
330
18
100
AcDbEntity
  8
姿図
100
AcDbLine
 10
1864.534795768126
 20
-4306.700130362593
 30
0.0
 11
1863.300142447813
 21
-4305.64179702926
 31
0.0
  0
SPLINE
  5
147C1E
330
18
100
AcDbEntity
  8
姿図
100
AcDbSpline
210
0.0
220
0.0
230
1.0
 70
     8
 71
     3
 72
     8
 73
     4
 74
     0
 42
0.0000000001
 43
0.0000000001
 40
0.0
 40
0.0
 40
0.0
 40
0.0
 40
1.0
 40
1.0
 40
1.0
 40
1.0
 10
1864.534795768126
 20
-4306.735477042281
 30
0.0
 10
1864.573863150938
 20
-4306.735477042281
 30
0.0
 10
1864.922989127499
 20
-4307.335130362594
 30
0.0
 10
1864.570142447812
 20
-4307.899643708948
 30
0.0
  0
ELLIPSE
  5
147C1F
330
18
100
AcDbEntity
  8
姿図
100
AcDbEllipse
 10
1827.710535798457
 20
-4370.189100908159
 30
0.0
 11
32.91569628906247
 21
0.1865312500000003
 31
0.0
210
0.0
220
0.0
230
1.0
 40
0.4502805162895567
 41
0.0
 42
6.283185307179585
  0
SPLINE
  5
147C20
330
18
100
AcDbEntity
  8
姿図
100
AcDbSpline
210
0.0
220
0.0
230
1.0
 70
     8
 71
     3
 72
    11
 73
     7
 74
     0
 42
0.0000000001
 43
0.0000000001
 40
0.0
 40
0.0
 40
0.0
 40
0.0
 40
1.0
 40
1.0
 40
1.0
 40
2.0
 40
2.0
 40
2.0
 40
2.0
 10
1794.794839509395
 20
-4369.760475908161
 30
0.0
 10
1794.748206696895
 20
-4361.572448564411
 30
0.0
 10
1809.402071931272
 20
-4354.854843095659
 30
0.0
 10
1827.523880525021
 20
-4354.752647783159
 30
0.0
 10
1844.383130525021
 20
-4354.657397783159
 30
0.0
 10
1858.30451333752
 20
-4360.319811845659
 30
0.0
 10
1860.201079743771
 20
-4367.70218293941
 30
0.0
  0
ELLIPSE
  5
147C21
330
18
100
AcDbEntity
  8
姿図
100
AcDbEllipse
 10
1827.649144196896
 20
-4371.11927668941
 30
0.0
 11
27.023466796875
 21
0.0
 31
0.0
210
0.0
220
0.0
230
1.0
 40
0.4469778328514387
 41
0.0
 42
6.283185307179585
  0
SPLINE
  5
147C22
330
18
100
AcDbEntity
  8
姿図
100
AcDbSpline
210
0.0
220
0.0
230
1.0
 70
     8
 71
     3
 72
    17
 73
    13
 74
     0
 42
0.0000000001
 43
0.0000000001
 40
0.0
 40
0.0
 40
0.0
 40
0.0
 40
1.0
 40
1.0
 40
1.0
 40
2.0
 40
2.0
 40
2.0
 40
3.0
 40
3.0
 40
3.0
 40
4.0
 40
4.0
 40
4.0
 40
4.0
 10
1800.36324380627
 20
-4361.323905595659
 30
0.0
 10
1800.344640290647
 20
-4361.13340559566
 30
0.0
 10
1800.335214509396
 20
-4360.941913408159
 30
0.0
 10
1800.335214509396
 20
-4360.749429033158
 30
0.0
 10
1800.335214509396
 20
-4353.779311845658
 30
0.0
 10
1812.515060212521
 20
-4347.88770247066
 30
0.0
 10
1827.645175446894
 20
-4348.12979622066
 30
0.0
 10
1848.142032868771
 20
-4348.457714189408
 30
0.0
 10
1853.754837556271
 20
-4356.000323564411
 30
0.0
 10
1854.894860993771
 20
-4359.075112626909
 30
0.0
 10
1854.894860993771
 20
-4359.075112626909
 30
0.0
 10
1855.10470865002
 20
-4360.758358720658
 30
0.0
 10
1855.07097427502
 20
-4361.257925126909
 30
0.0
  0
POLYLINE
  5
147C23
330
18
100
AcDbEntity
  8
姿図
100
AcDb2dPolyline
 66
     1
 10
0.0
 20
0.0
 30
0.0
  0
VERTEX
  5
147C24
330
147C23
100
AcDbEntity
  8
姿図
100
AcDbVertex
100
AcDb2dVertex
 10
1800.338439118772
 20
-4360.31881965816
 30
0.0
  0
VERTEX
  5
147C25
330
147C23
100
AcDbEntity
  8
姿図
100
AcDbVertex
100
AcDb2dVertex
 10
1800.19308365002
 20
-4358.09334309566
 30
0.0
  0
VERTEX
  5
147C26
330
147C23
100
AcDbEntity
  8
姿図
100
AcDbVertex
100
AcDb2dVertex
 10
1800.362499665647
 20
-4345.417651689409
 30
0.0
  0
VERTEX
  5
147C27
330
147C23
100
AcDbEntity
  8
姿図
100
AcDbVertex
100
AcDb2dVertex
 10
1801.13665396252
 20
-4343.33753059566
 30
0.0
  0
VERTEX
  5
147C28
330
147C23
100
AcDbEntity
  8
姿図
100
AcDbVertex
100
AcDb2dVertex
 10
1802.152653962521
 20
-4343.24079231441
 30
0.0
  0
VERTEX
  5
147C29
330
147C23
100
AcDbEntity
  8
姿図
100
AcDbVertex
100
AcDb2dVertex
 10
1802.466929353146
 20
-4343.555067705035
 30
0.0
  0
VERTEX
  5
147C2A
330
147C23
100
AcDbEntity
  8
姿図
100
AcDbVertex
100
AcDb2dVertex
 10
1802.49098045983
 20
-4355.785055454105
 30
0.0
  0
SEQEND
  5
147C2B
330
147C23
100
AcDbEntity
  8
姿図
  0
POLYLINE
  5
147C2C
330
18
100
AcDbEntity
  8
姿図
100
AcDb2dPolyline
 66
     1
 10
0.0
 20
0.0
 30
0.0
  0
VERTEX
  5
147C2D
330
147C2C
100
AcDbEntity
  8
姿図
100
AcDbVertex
100
AcDb2dVertex
 10
1803.216775056271
 20
-4355.049224398314
 30
0.0
  0
VERTEX
  5
147C2E
330
147C2C
100
AcDbEntity
  8
姿図
100
AcDbVertex
100
AcDb2dVertex
 10
1803.216775056271
 20
-4350.32848372066
 30
0.0
  0
VERTEX
  5
147C2F
330
147C2C
100
AcDbEntity
  8
姿図
100
AcDbVertex
100
AcDb2dVertex
 10
1802.466929353146
 20
-4348.901222001909
 30
0.0
  0
SEQEND
  5
147C30
330
147C2C
100
AcDbEntity
  8
姿図
  0
POLYLINE
  5
147C31
330
18
100
AcDbEntity
  8
姿図
100
AcDb2dPolyline
 66
     1
 10
0.0
 20
0.0
 30
0.0
  0
VERTEX
  5
147C32
330
147C31
100
AcDbEntity
  8
姿図
100
AcDbVertex
100
AcDb2dVertex
 10
1854.956376618771
 20
-4359.078089189408
 30
0.0
  0
VERTEX
  5
147C33
330
147C31
100
AcDbEntity
  8
姿図
100
AcDbVertex
100
AcDb2dVertex
 10
1855.032775056272
 20
-4358.748682939409
 30
0.0
  0
VERTEX
  5
147C34
330
147C31
100
AcDbEntity
  8
姿図
100
AcDbVertex
100
AcDb2dVertex
 10
1854.829872712519
 20
-4345.716796220659
 30
0.0
  0
VERTEX
  5
147C35
330
147C31
100
AcDbEntity
  8
姿図
100
AcDbVertex
100
AcDb2dVertex
 10
1854.779271150021
 20
-4345.311487626909
 30
0.0
  0
VERTEX
  5
147C36
330
147C31
100
AcDbEntity
  8
姿図
100
AcDbVertex
100
AcDb2dVertex
 10
1854.398767243771
 20
-4344.57627668941
 30
0.0
  0
VERTEX
  5
147C37
330
147C31
100
AcDbEntity
  8
姿図
100
AcDbVertex
100
AcDb2dVertex
 10
1854.449368806269
 20
-4344.322524736285
 30
0.0
  0
VERTEX
  5
147C38
330
147C31
100
AcDbEntity
  8
姿図
100
AcDbVertex
100
AcDb2dVertex
 10
1853.91706021252
 20
-4343.308509111283
 30
0.0
  0
VERTEX
  5
147C39
330
147C31
100
AcDbEntity
  8
姿図
100
AcDbVertex
100
AcDb2dVertex
 10
1852.801345368771
 20
-4343.207057939411
 30
0.0
  0
VERTEX
  5
147C3A
330
147C31
100
AcDbEntity
  8
姿図
100
AcDbVertex
100
AcDb2dVertex
 10
1852.902659634288
 20
-4355.961782644224
 30
0.0
  0
SEQEND
  5
147C3B
330
147C31
100
AcDbEntity
  8
姿図
  0
POLYLINE
  5
147C3C
330
18
100
AcDbEntity
  8
姿図
100
AcDb2dPolyline
 66
     1
 10
0.0
 20
0.0
 30
0.0
  0
VERTEX
  5
147C3D
330
147C3C
100
AcDbEntity
  8
姿図
100
AcDbVertex
100
AcDb2dVertex
 10
1852.807298493772
 20
-4348.502362626907
 30
0.0
  0
VERTEX
  5
147C3E
330
147C3C
100
AcDbEntity
  8
姿図
100
AcDbVertex
100
AcDb2dVertex
 10
1851.882579743771
 20
-4349.98717122066
 30
0.0
  0
VERTEX
  5
147C3F
330
147C3C
100
AcDbEntity
  8
姿図
100
AcDbVertex
100
AcDb2dVertex
 10
1851.949568096596
 20
-4355.008333596191
 30
0.0
  0
SEQEND
  5
147C40
330
147C3C
100
AcDbEntity
  8
姿図
  0
LINE
  5
147C41
330
18
100
AcDbEntity
  8
姿図
100
AcDbLine
 10
1853.375821931271
 20
-4343.27750325191
 30
0.0
 11
1853.678935212522
 21
-4356.898253251908
 31
0.0
  0
POLYLINE
  5
147C42
330
18
100
AcDbEntity
  8
姿図
100
AcDb2dPolyline
 66
     1
 10
0.0
 20
0.0
 30
0.0
  0
VERTEX
  5
147C43
330
147C42
100
AcDbEntity
  8
姿図
100
AcDbVertex
100
AcDb2dVertex
 10
1854.485087556272
 20
-4344.717167314407
 30
0.0
  0
VERTEX
  5
147C44
330
147C42
100
AcDbEntity
  8
姿図
100
AcDbVertex
100
AcDb2dVertex
 10
1854.728669587521
 20
-4358.305175126909
 30
0.0
  0
VERTEX
  5
147C45
330
147C42
100
AcDbEntity
  8
姿図
100
AcDbVertex
100
AcDb2dVertex
 10
1855.032775056272
 20
-4358.748682939409
 30
0.0
  0
SEQEND
  5
147C46
330
147C42
100
AcDbEntity
  8
姿図
  0
LINE
  5
147C47
330
18
100
AcDbEntity
  8
姿図
100
AcDbLine
 10
1854.14972818127
 20
-4343.74234309566
 30
0.0
 11
1854.484064415397
 21
-4358.169742926576
 31
0.0
  0
LINE
  5
147C48
330
18
100
AcDbEntity
  8
姿図
100
AcDbLine
 10
1801.893444978146
 20
-4343.245505205034
 30
0.0
 11
1801.760890237514
 21
-4356.684231251009
 31
0.0
  0
LINE
  5
147C49
330
18
100
AcDbEntity
  8
姿図
100
AcDbLine
 10
1801.13665396252
 20
-4343.33753059566
 30
0.0
 11
1801.052616920597
 21
-4357.845784380557
 31
0.0
  0
ARC
  5
147C4A
330
18
100
AcDbEntity
  8
姿図
100
AcDbCircle
 10
1825.802920102167
 20
-4376.374258294116
 30
0.0
 40
32.80922378007655
100
AcDbArc
 50
93.98074746308072
 51
107.8070272858193
  0
ARC
  5
147C4B
330
18
100
AcDbEntity
  8
姿図
100
AcDbCircle
 10
1827.435672100468
 20
-4382.266974120886
 30
0.0
 40
38.34873428268889
100
AcDbArc
 50
62.74935352216632
 51
116.6720763546696
  0
ARC
  5
147C4C
330
18
100
AcDbEntity
  8
姿図
100
AcDbCircle
 10
1820.995969833048
 20
-4361.881434637235
 30
0.0
 40
17.54129624230994
100
AcDbArc
 50
107.3347820979313
 51
124.3980172455399
  0
LINE
  5
147C4D
330
18
100
AcDbEntity
  8
姿図
100
AcDbLine
 10
1811.051512423284
 20
-4347.323013108353
 30
0.0
 11
1811.136000883182
 21
-4347.528772494905
 31
0.0
  0
LINE
  5
147C4E
330
18
100
AcDbEntity
  8
姿図
100
AcDbLine
 10
1808.257338911942
 20
-4347.304299437805
 30
0.0
 11
1808.684698439865
 21
-4346.983224382288
 31
0.0
  0
ARC
  5
147C4F
330
18
100
AcDbEntity
  8
姿図
100
AcDbCircle
 10
1808.883561682309
 20
-4347.572774840673
 30
0.0
 40
0.6813471949530258
100
AcDbArc
 50
156.7941273154564
 51
207.5593620771179
  0
SPLINE
  5
147C50
330
18
100
AcDbEntity
  8
姿図
100
AcDbSpline
210
0.0
220
0.0
230
1.0
 70
     8
 71
     3
 72
     8
 73
     4
 74
     0
 42
0.0000000001
 43
0.0000000001
 40
24.0
 40
24.0
 40
24.0
 40
24.0
 40
25.0
 40
25.0
 40
25.0
 40
25.0
 10
1810.366268048283
 20
-4346.045832978146
 30
0.0
 10
1810.490851244898
 20
-4346.26394555627
 30
0.0
 10
1811.051512423284
 20
-4347.323013108353
 30
0.0
 10
1811.051512423284
 20
-4347.323013108353
 30
0.0
  0
SPLINE
  5
147C51
330
18
100
AcDbEntity
  8
姿図
100
AcDbSpline
210
0.0
220
0.0
230
1.0
 70
     8
 71
     3
 72
     8
 73
     4
 74
     0
 42
0.0000000001
 43
0.0000000001
 40
23.0
 40
23.0
 40
23.0
 40
23.0
 40
24.0
 40
24.0
 40
24.0
 40
24.0
 10
1809.743352065212
 20
-4346.139435946894
 30
0.0
 10
1810.179356459743
 20
-4345.859068564083
 30
0.0
 10
1810.24168485167
 20
-4345.827867574501
 30
0.0
 10
1810.366268048283
 20
-4346.045832978146
 30
0.0
  0
SPLINE
  5
147C52
330
18
100
AcDbEntity
  8
姿図
100
AcDbSpline
210
0.0
220
0.0
230
1.0
 70
     8
 71
     3
 72
     8
 73
     4
 74
     0
 42
0.0000000001
 43
0.0000000001
 40
22.0
 40
22.0
 40
22.0
 40
22.0
 40
23.0
 40
23.0
 40
23.0
 40
23.0
 10
1808.684698439865
 20
-4346.983224382288
 30
0.0
 10
1808.684698439865
 20
-4346.983224382288
 30
0.0
 10
1809.307200496201
 20
-4346.419803329708
 30
0.0
 10
1809.743352065212
 20
-4346.139435946894
 30
0.0
  0
ARC
  5
147C53
330
18
100
AcDbEntity
  8
姿図
100
AcDbCircle
 10
1804.275841091474
 20
-4349.019703190434
 30
0.0
 40
4.933183360478366
100
AcDbArc
 50
327.3274661667571
 51
328.4791224773528
  0
ARC
  5
147C54
330
18
100
AcDbEntity
  8
姿図
100
AcDbCircle
 10
1811.078487424411
 20
-4352.176111184458
 30
0.0
 40
1.995854029087521
100
AcDbArc
 50
126.7373714880099
 51
154.075228362764
  0
ARC
  5
147C55
330
18
100
AcDbEntity
  8
姿図
100
AcDbCircle
 10
1810.839956924305
 20
-4351.974481326363
 30
0.0
 40
1.529861478451046
100
AcDbArc
 50
130.0785474406348
 51
149.8174236720006
  0
LINE
  5
147C56
330
18
100
AcDbEntity
  8
姿図
100
AcDbLine
 10
1809.292487218663
 20
-4350.27755568911
 30
0.0
 11
1809.984582233621
 21
-4349.812173374145
 31
0.0
  0
ARC
  5
147C57
330
18
100
AcDbEntity
  8
姿図
100
AcDbCircle
 10
1808.653994811932
 20
-4349.9557865481
 30
0.0
 40
0.7149880653262121
100
AcDbArc
 50
333.2541164958648
 51
25.00167590418855
  0
LINE
  5
147C58
330
18
100
AcDbEntity
  8
姿図
100
AcDbLine
 10
1808.481131860584
 20
-4351.598816917154
 30
0.0
 11
1809.292487218663
 21
-4350.27755568911
 31
0.0
  0
LINE
  5
147C59
330
18
100
AcDbEntity
  8
姿図
100
AcDbLine
 10
1809.818588599472
 20
-4351.082308509691
 30
0.0
 11
1810.22155603351
 21
-4347.998918600949
 31
0.0
  0
LINE
  5
147C5A
330
18
100
AcDbEntity
  8
姿図
100
AcDbLine
 10
1809.353795499415
 20
-4349.809202335587
 30
0.0
 11
1810.047643792639
 21
-4349.32964461803
 31
0.0
  0
LINE
  5
147C5B
330
18
100
AcDbEntity
  8
姿図
100
AcDbLine
 10
1808.279525620703
 20
-4347.888011951989
 30
0.0
 11
1809.3019852245
 21
-4349.653600580889
 31
0.0
  0
ARC
  5
147C5C
330
18
100
AcDbEntity
  8
姿図
100
AcDbCircle
 10
1837.062174247134
 20
-4357.100256367353
 30
0.0
 40
11.91442289675602
100
AcDbArc
 50
54.97594631035354
 51
68.39505492552437
  0
ARC
  5
147C5D
330
18
100
AcDbEntity
  8
姿図
100
AcDbCircle
 10
1827.551916034687
 20
-4388.314774778662
 30
0.0
 40
44.85170208336209
100
AcDbArc
 50
82.26642964453981
 51
95.15078153009344
  0
ARC
  5
147C5E
330
18
100
AcDbEntity
  8
姿図
100
AcDbCircle
 10
1829.433637918097
 20
-4374.483563918241
 30
0.0
 40
30.89307555794776
100
AcDbArc
 50
67.11157932921191
 51
82.27270771509649
  0
ARC
  5
147C5F
330
18
100
AcDbEntity
  8
姿図
100
AcDbCircle
 10
1844.973682132781
 20
-4346.342354388418
 30
0.0
 40
0.4767084649455859
100
AcDbArc
 50
119.0435180761887
 51
159.4188376883484
  0
SPLINE
  5
147C60
330
18
100
AcDbEntity
  8
姿図
100
AcDbSpline
210
0.0
220
0.0
230
1.0
 70
     8
 71
     3
 72
     8
 73
     4
 74
     0
 42
0.0000000001
 43
0.0000000001
 40
131.0
 40
131.0
 40
131.0
 40
131.0
 40
132.0
 40
132.0
 40
132.0
 40
132.0
 10
1846.77502657693
 20
-4347.732599683873
 30
0.0
 10
1846.581492136826
 20
-4348.200467353145
 30
0.0
 10
1846.000594467554
 20
-4349.249085517208
 30
0.0
 10
1846.000594467554
 20
-4349.249085517208
 30
0.0
  0
SPLINE
  5
147C61
330
18
100
AcDbEntity
  8
姿図
100
AcDbSpline
210
0.0
220
0.0
230
1.0
 70
     8
 71
     3
 72
     8
 73
     4
 74
     0
 42
0.0000000001
 43
0.0000000001
 40
130.0
 40
130.0
 40
130.0
 40
130.0
 40
131.0
 40
131.0
 40
131.0
 40
131.0
 10
1846.629765365993
 20
-4346.974209592729
 30
0.0
 10
1846.839488998805
 20
-4347.135659996374
 30
0.0
 10
1846.968708191513
 20
-4347.264584840125
 30
0.0
 10
1846.77502657693
 20
-4347.732599683873
 30
0.0
  0
SPLINE
  5
147C62
330
18
100
AcDbEntity
  8
姿図
100
AcDbSpline
210
0.0
220
0.0
230
1.0
 70
     8
 71
     3
 72
     8
 73
     4
 74
     0
 42
0.0000000001
 43
0.0000000001
 40
129.0
 40
129.0
 40
129.0
 40
129.0
 40
130.0
 40
130.0
 40
130.0
 40
130.0
 10
1845.016438725368
 20
-4345.893360217728
 30
0.0
 10
1845.177889129012
 20
-4345.974011832312
 30
0.0
 10
1846.420041733179
 20
-4346.812906363562
 30
0.0
 10
1846.629765365993
 20
-4346.974209592729
 30
0.0
  0
SPLINE
  5
147C63
330
18
100
AcDbEntity
  8
姿図
100
AcDbSpline
210
0.0
220
0.0
230
1.0
 70
     8
 71
     3
 72
     8
 73
     4
 74
     0
 42
0.0000000001
 43
0.0000000001
 40
128.0
 40
128.0
 40
128.0
 40
128.0
 40
129.0
 40
129.0
 40
129.0
 40
129.0
 10
1844.74225267068
 20
-4345.925591428666
 30
0.0
 10
1844.74225267068
 20
-4345.925591428666
 30
0.0
 10
1844.8551354962
 20
-4345.812561428665
 30
0.0
 10
1845.016438725368
 20
-4345.893360217728
 30
0.0
  0
LINE
  5
147C64
330
18
100
AcDbEntity
  8
姿図
100
AcDbLine
 10
1845.016438725368
 20
-4345.893360217728
 30
0.0
 11
1844.045547116753
 21
-4347.656862621819
 31
0.0
  0
LINE
  5
147C65
330
18
100
AcDbEntity
  8
姿図
100
AcDbLine
 10
1844.527399507653
 20
-4346.174775215906
 30
0.0
 11
1843.799891402323
 21
-4347.53009265822
 31
0.0
  0
ARC
  5
147C66
330
18
100
AcDbEntity
  8
姿図
100
AcDbCircle
 10
1844.150160029749
 20
-4352.058081914677
 30
0.0
 40
1.601659530506788
100
AcDbArc
 50
36.42191274695742
 51
46.24047802658618
  0
ARC
  5
147C67
330
18
100
AcDbEntity
  8
姿図
100
AcDbCircle
 10
1844.179343522526
 20
-4352.132250722017
 30
0.0
 40
1.753694878231653
100
AcDbArc
 50
32.20728722474482
 51
52.69836353275047
  0
LINE
  5
147C68
330
18
100
AcDbEntity
  8
姿図
100
AcDbLine
 10
1845.766981393941
 20
-4350.238298357235
 30
0.0
 11
1846.964679937348
 21
-4351.767842753247
 31
0.0
  0
LINE
  5
147C69
330
18
100
AcDbEntity
  8
姿図
100
AcDbLine
 10
1848.11471449541
 20
-4350.874676166049
 30
0.0
 11
1848.095375311039
 21
-4352.334687923508
 31
0.0
  0
LINE
  5
147C6A
330
18
100
AcDbEntity
  8
姿図
100
AcDbLine
 10
1845.729424280607
 20
-4350.161405221992
 30
0.0
 11
1845.155960298491
 21
-4349.844069684618
 31
0.0
  0
ARC
  5
147C6B
330
18
100
AcDbEntity
  8
姿図
100
AcDbCircle
 10
1846.16317239371
 20
-4349.997167133671
 30
0.0
 40
0.4638012238845369
100
AcDbArc
 50
158.2947226870743
 51
211.3256838175632
  0
LINE
  5
147C6C
330
18
100
AcDbEntity
  8
姿図
100
AcDbLine
 10
1848.11471449541
 20
-4350.874676166049
 30
0.0
 11
1851.927740698877
 21
-4353.372244581299
 31
0.0
  0
LINE
  5
147C6D
330
18
100
AcDbEntity
  8
姿図
100
AcDbLine
 10
1847.194473842555
 20
-4350.975442157833
 30
0.0
 11
1848.11471449541
 21
-4350.874676166049
 31
0.0
  0
SPLINE
  5
147C6E
330
18
100
AcDbEntity
  8
姿図
100
AcDbSpline
210
0.0
220
0.0
230
1.0
 70
     8
 71
     3
 72
     8
 73
     4
 74
     0
 42
0.0000000001
 43
0.0000000001
 40
133.0
 40
133.0
 40
133.0
 40
133.0
 40
134.0
 40
134.0
 40
134.0
 40
134.0
 10
1847.081591017035
 20
-4350.959252965125
 30
0.0
 10
1847.146053438908
 20
-4351.039904579709
 30
0.0
 10
1847.194473842555
 20
-4350.975442157833
 30
0.0
 10
1847.194473842555
 20
-4350.975442157833
 30
0.0
  0
LINE
  5
147C6F
330
18
100
AcDbEntity
  8
姿図
100
AcDbLine
 10
1845.27139041213
 20
-4351.040949892408
 30
0.0
 11
1844.994941878584
 21
-4348.174490111303
 31
0.0
  0
LINE
  5
147C70
330
18
100
AcDbEntity
  8
姿図
100
AcDbLine
 10
1845.732255366958
 20
-4349.82563844414
 30
0.0
 11
1845.107970506202
 21
-4349.346469615141
 31
0.0
  0
LINE
  5
147C71
330
18
100
AcDbEntity
  8
姿図
100
AcDbLine
 10
1846.000594467554
 20
-4349.249085517208
 30
0.0
 11
1845.732255366958
 21
-4349.82563844414
 31
0.0
  0
SPLINE
  5
147C72
330
18
100
AcDbEntity
  8
姿図
100
AcDbSpline
210
0.0
220
0.0
230
1.0
 70
     8
 71
     3
 72
     8
 73
     4
 74
     0
 42
0.0000000001
 43
0.0000000001
 40
132.0
 40
132.0
 40
132.0
 40
132.0
 40
133.0
 40
133.0
 40
133.0
 40
133.0
 10
1846.000594467554
 20
-4349.249085517208
 30
0.0
 10
1846.000594467554
 20
-4349.249085517208
 30
0.0
 10
1846.66199657693
 20
-4349.829836011999
 30
0.0
 10
1847.081591017035
 20
-4350.959252965125
 30
0.0
  0
LINE
  5
147C73
330
18
100
AcDbEntity
  8
姿図
100
AcDbLine
 10
1807.169211018685
 20
-4350.874676166049
 30
0.0
 11
1807.188051716645
 21
-4352.297054691085
 31
0.0
  0
LINE
  5
147C74
330
18
100
AcDbEntity
  8
姿図
100
AcDbLine
 10
1807.169211018685
 20
-4350.874676166049
 30
0.0
 11
1803.216775056271
 21
-4353.463559298833
 31
0.0
  0
LINE
  5
147C75
330
18
100
AcDbEntity
  8
姿図
100
AcDbLine
 10
1808.08945167154
 20
-4350.975442157833
 30
0.0
 11
1807.169211018685
 21
-4350.874676166049
 31
0.0
  0
SPLINE
  5
147C76
330
18
100
AcDbEntity
  8
姿図
100
AcDbSpline
210
0.0
220
0.0
230
1.0
 70
     8
 71
     3
 72
     8
 73
     4
 74
     0
 42
0.0000000001
 43
0.0000000001
 40
132.2808036309329
 40
132.2808036309329
 40
132.2808036309329
 40
132.2808036309329
 40
133.0
 40
133.0
 40
133.0
 40
133.0
 10
1809.146873500806
 20
-4349.385752839469
 30
0.0
 10
1808.930949517846
 20
-4349.618501935278
 30
0.0
 10
1808.504105294865
 20
-4350.146980393274
 30
0.0
 10
1808.20233449706
 20
-4350.959252965125
 30
0.0
  0
SPLINE
  5
147C77
330
18
100
AcDbEntity
  8
姿図
100
AcDbSpline
210
0.0
220
0.0
230
1.0
 70
     8
 71
     3
 72
     8
 73
     4
 74
     0
 42
0.0000000001
 43
0.0000000001
 40
133.0
 40
133.0
 40
133.0
 40
133.0
 40
134.0
 40
134.0
 40
134.0
 40
134.0
 10
1808.20233449706
 20
-4350.959252965125
 30
0.0
 10
1808.137872075185
 20
-4351.039904579709
 30
0.0
 10
1808.08945167154
 20
-4350.975442157833
 30
0.0
 10
1808.08945167154
 20
-4350.975442157833
 30
0.0
  0
ELLIPSE
  5
147C78
330
18
100
AcDbEntity
  8
姿図
100
AcDbEllipse
 10
1827.649144196896
 20
-4371.11927668941
 30
0.0
 11
25.16729616729826
 21
0.0
 31
0.0
210
0.0
220
0.0
230
1.0
 40
0.4353578139121608
 41
0.0
 42
6.283185307179585
  0
ELLIPSE
  5
147C79
330
18
100
AcDbEntity
  8
姿図
100
AcDbEllipse
 10
1827.649144196896
 20
-4367.215368474963
 30
0.0
 11
25.16729616729826
 21
0.0
 31
0.0
210
0.0
220
0.0
230
1.0
 40
0.4353578139121608
 41
3.430182674761785
 42
3.654760014940498
  0
ELLIPSE
  5
147C7A
330
18
100
AcDbEntity
  8
姿図
100
AcDbEllipse
 10
1827.649144196896
 20
-4367.215368474963
 30
0.0
 11
25.16729616729826
 21
0.0
 31
0.0
210
0.0
220
0.0
230
1.0
 40
0.4353578139121608
 41
3.891409807002059
 42
4.1768344607692
  0
ELLIPSE
  5
147C7B
330
18
100
AcDbEntity
  8
姿図
100
AcDbEllipse
 10
1827.649144196896
 20
-4367.215368474963
 30
0.0
 11
25.16729616729826
 21
0.0
 31
0.0
210
0.0
220
0.0
230
1.0
 40
0.4353578139121608
 41
4.329600751246138
 42
4.635042359883844
  0
ELLIPSE
  5
147C7C
330
18
100
AcDbEntity
  8
姿図
100
AcDbEllipse
 10
1827.649144196896
 20
-4367.215368474963
 30
0.0
 11
25.16729616729826
 21
0.0
 31
0.0
210
0.0
220
0.0
230
1.0
 40
0.4353578139121608
 41
4.789735600885534
 42
5.095177209523238
  0
ELLIPSE
  5
147C7D
330
18
100
AcDbEntity
  8
姿図
100
AcDbEllipse
 10
1827.649144196896
 20
-4367.215368474963
 30
0.0
 11
25.16729616729826
 21
0.0
 31
0.0
210
0.0
220
0.0
230
1.0
 40
0.4353578139121608
 41
5.247943500000343
 42
5.533368153767316
  0
ELLIPSE
  5
147C7E
330
18
100
AcDbEntity
  8
姿図
100
AcDbEllipse
 10
1827.649144196896
 20
-4367.215368474963
 30
0.0
 11
25.16729616729826
 21
0.0
 31
0.0
210
0.0
220
0.0
230
1.0
 40
0.4353578139121608
 41
5.77001794582888
 42
5.994595286008098
  0
ELLIPSE
  5
147C7F
330
18
100
AcDbEntity
  8
姿図
100
AcDbEllipse
 10
1827.649144196896
 20
-4367.215368474963
 30
0.0
 11
19.99538315184036
 21
0.0
 31
0.0
210
0.0
220
0.0
230
-1.0
 40
0.3684551029263017
 41
5.542264346187126
 42
10.16569892176183
  0
LINE
  5
147C80
330
18
100
AcDbEntity
  8
姿図
100
AcDbLine
 10
1827.649144196896
 20
-4382.076055730885
 30
0.0
 11
1825.704479238324
 21
-4378.139389388933
 31
0.0
  0
LINE
  5
147C81
330
18
100
AcDbEntity
  8
姿図
100
AcDbLine
 10
1825.704479238324
 20
-4378.139389388933
 30
0.0
 11
1827.649144196896
 21
-4374.582769432225
 31
0.0
  0
LINE
  5
147C82
330
18
100
AcDbEntity
  8
姿図
100
AcDbLine
 10
1816.482029374611
 20
-4380.938389201902
 30
0.0
 11
1814.805820030726
 21
-4376.638042647088
 31
0.0
  0
LINE
  5
147C83
330
18
100
AcDbEntity
  8
姿図
100
AcDbLine
 10
1814.805820030726
 20
-4376.638042647088
 30
0.0
 11
1819.92136691021
 21
-4374.010312008453
 31
0.0
  0
LINE
  5
147C84
330
18
100
AcDbEntity
  8
姿図
100
AcDbLine
 10
1819.92136691021
 20
-4374.010312008453
 30
0.0
 11
1816.482029374611
 21
-4380.938389201902
 31
0.0
  0
LINE
  5
147C85
330
18
100
AcDbEntity
  8
姿図
100
AcDbLine
 10
1806.772883362628
 20
-4377.238718682133
 30
0.0
 11
1805.723549328501
 21
-4372.594479615079
 31
0.0
  0
LINE
  5
147C86
330
18
100
AcDbEntity
  8
姿図
100
AcDbLine
 10
1805.723549328501
 20
-4372.594479615079
 30
0.0
 11
1812.001562459229
 21
-4371.802131858033
 31
0.0
  0
LINE
  5
147C87
330
18
100
AcDbEntity
  8
姿図
100
AcDbLine
 10
1812.001562459229
 20
-4371.802131858033
 30
0.0
 11
1806.772883362628
 21
-4377.238718682133
 31
0.0
  0
LINE
  5
147C88
330
18
100
AcDbEntity
  8
姿図
100
AcDbLine
 10
1802.481848029598
 20
-4371.11927668941
 30
0.0
 11
1807.653761045054
 21
-4367.215368474963
 31
0.0
  0
LINE
  5
147C89
330
18
100
AcDbEntity
  8
姿図
100
AcDbLine
 10
1807.653761045054
 20
-4367.215368474963
 30
0.0
 11
1804.133543966818
 21
-4367.215368474963
 31
0.0
  0
LINE
  5
147C8A
330
18
100
AcDbEntity
  8
姿図
100
AcDbLine
 10
1827.649144196896
 20
-4382.076055730885
 30
0.0
 11
1829.593809155467
 21
-4378.139389388933
 31
0.0
  0
LINE
  5
147C8B
330
18
100
AcDbEntity
  8
姿図
100
AcDbLine
 10
1829.593809155467
 20
-4378.139389388933
 30
0.0
 11
1827.649144196896
 21
-4374.582769432225
 31
0.0
  0
LINE
  5
147C8C
330
18
100
AcDbEntity
  8
姿図
100
AcDbLine
 10
1838.816259019181
 20
-4380.938389201902
 30
0.0
 11
1840.492468363065
 21
-4376.638042647088
 31
0.0
  0
LINE
  5
147C8D
330
18
100
AcDbEntity
  8
姿図
100
AcDbLine
 10
1840.492468363065
 20
-4376.638042647088
 30
0.0
 11
1835.376921483581
 21
-4374.010312008453
 31
0.0
  0
LINE
  5
147C8E
330
18
100
AcDbEntity
  8
姿図
100
AcDbLine
 10
1835.376921483581
 20
-4374.010312008453
 30
0.0
 11
1838.816259019181
 21
-4380.938389201902
 31
0.0
  0
LINE
  5
147C8F
330
18
100
AcDbEntity
  8
姿図
100
AcDbLine
 10
1848.525405031163
 20
-4377.238718682133
 30
0.0
 11
1849.57473906529
 21
-4372.594479615079
 31
0.0
  0
LINE
  5
147C90
330
18
100
AcDbEntity
  8
姿図
100
AcDbLine
 10
1849.57473906529
 20
-4372.594479615079
 30
0.0
 11
1843.296725934561
 21
-4371.802131858033
 31
0.0
  0
LINE
  5
147C91
330
18
100
AcDbEntity
  8
姿図
100
AcDbLine
 10
1843.296725934561
 20
-4371.802131858033
 30
0.0
 11
1848.525405031163
 21
-4377.238718682133
 31
0.0
  0
LINE
  5
147C92
330
18
100
AcDbEntity
  8
姿図
100
AcDbLine
 10
1852.816440364193
 20
-4371.11927668941
 30
0.0
 11
1847.644527348735
 21
-4367.215368474963
 31
0.0
  0
LINE
  5
147C93
330
18
100
AcDbEntity
  8
姿図
100
AcDbLine
 10
1847.644527348735
 20
-4367.215368474963
 30
0.0
 11
1851.164744426973
 21
-4367.215368474963
 31
0.0
  0
LINE
  5
147C94
330
18
100
AcDbEntity
  8
姿図
100
AcDbLine
 10
1827.649144195568
 20
-4374.582769432225
 30
0.0
 11
1827.649144195331
 21
-4382.076055730885
 31
0.0
  0
ELLIPSE
  5
147C95
330
18
100
AcDbEntity
  8
姿図
100
AcDbEllipse
 10
1827.649144196896
 20
-4366.904489110704
 30
0.0
 11
19.99538315184036
 21
0.0
 31
0.0
210
0.0
220
0.0
230
-1.0
 40
0.3684551029263017
 41
6.304285179084702
 42
9.403678088864262
  0
LINE
  5
147C96
330
18
100
AcDbEntity
  8
姿図
100
AcDbLine
 10
1840.790508658751
 20
-4338.87036310999
 30
0.0
 11
1840.345358319002
 21
-4331.651371681156
 31
0.0
  0
LINE
  5
147C97
330
18
100
AcDbEntity
  8
姿図
100
AcDbLine
 10
1840.345358319002
 20
-4331.651371681156
 30
0.0
 11
1845.461070768913
 21
-4331.551568943079
 31
0.0
  0
LINE
  5
147C98
330
18
100
AcDbEntity
  8
姿図
100
AcDbLine
 10
1845.461070768913
 20
-4331.551568943079
 30
0.0
 11
1844.849795768125
 21
-4332.267768708947
 31
0.0
  0
LINE
  5
147C99
330
18
100
AcDbEntity
  8
姿図
100
AcDbLine
 10
1844.849795768125
 20
-4332.267768708947
 30
0.0
 11
1840.345358319002
 21
-4331.651371681156
 31
0.0
  0
LINE
  5
147C9A
330
18
100
AcDbEntity
  8
姿図
100
AcDbLine
 10
1844.849795768125
 20
-4332.267768708947
 30
0.0
 11
1845.572039495622
 21
-4339.259131412492
 31
0.0
  0
LINE
  5
147C9B
330
18
100
AcDbEntity
  8
姿図
100
AcDbLine
 10
1845.572039495622
 20
-4339.259131412492
 30
0.0
 11
1842.040593700975
 21
-4337.030692190885
 31
0.0
  0
LINE
  5
147C9C
330
18
100
AcDbEntity
  8
姿図
100
AcDbLine
 10
1842.040593700975
 20
-4337.030692190885
 30
0.0
 11
1840.790508658751
 21
-4338.87036310999
 31
0.0
  0
LINE
  5
147C9D
330
18
100
AcDbEntity
  8
姿図
100
AcDbLine
 10
1840.810559114479
 20
-4339.482005362593
 30
0.0
 11
1842.040593700975
 21
-4337.030692190885
 31
0.0
  0
LINE
  5
147C9E
330
18
100
AcDbEntity
  8
姿図
100
AcDbLine
 10
1845.572039495622
 20
-4339.259131412492
 30
0.0
 11
1844.842075565457
 21
-4340.008520123906
 31
0.0
  0
LINE
  5
147C9F
330
18
100
AcDbEntity
  8
姿図
100
AcDbLine
 10
1844.842075565457
 20
-4340.008520123906
 30
0.0
 11
1841.546777694091
 21
-4338.014808975374
 31
0.0
  0
ARC
  5
147CA0
330
18
100
AcDbEntity
  8
姿図
100
AcDbCircle
 10
1839.971036321705
 20
-4343.141337229901
 30
0.0
 40
4.178554211528678
100
AcDbArc
 50
7.996323837423441
 51
75.66240874418716
  0
ELLIPSE
  5
147CA1
330
18
100
AcDbEntity
  8
姿図
100
AcDbEllipse
 10
1843.129465155516
 20
-4344.48250001553
 30
0.0
 11
0.0
 21
1.90130905266451
 31
0.0
210
0.0
220
0.0
230
1.0
 40
0.9623071241746059
 41
0.0
 42
6.283185307179585
  0
LINE
  5
147F1C
330
18
100
AcDbEntity
  8
姿図
100
AcDbLine
 10
1810.031421582002
 20
-4368.379580482307
 30
0.0
 11
1822.442784226858
 21
-4361.213876918291
 31
0.0
  0
LINE
  5
147F1D
330
18
100
AcDbEntity
  8
姿図
100
AcDbLine
 10
1810.900485712216
 20
-4369.164758848572
 30
0.0
 11
1824.822319561727
 21
-4361.126984327944
 31
0.0
  0
LINE
  5
147F1E
330
18
100
AcDbEntity
  8
姿図
100
AcDbLine
 10
1817.685379312939
 20
-4372.011214316287
 30
0.0
 11
1835.46427874998
 21
-4361.746561940416
 31
0.0
  0
LINE
  5
147F1F
330
18
100
AcDbEntity
  8
姿図
100
AcDbLine
 10
1819.242955789647
 20
-4372.398879893963
 30
0.0
 11
1837.306741577238
 21
-4361.969748306913
 31
0.0
  0
LINE
  5
147F20
330
18
100
AcDbEntity
  8
姿図
100
AcDbLine
 10
1829.931695164301
 20
-4373.057480185314
 30
0.0
 11
1844.274878372094
 21
-4364.77643949926
 31
0.0
  0
LINE
  5
147F21
330
18
100
AcDbEntity
  8
姿図
100
AcDbLine
 10
1832.140664264312
 20
-4373.069064056578
 30
0.0
 11
1845.299579474437
 21
-4365.47176081777
 31
0.0
  0
SPLINE
  5
1485C4
330
18
100
AcDbEntity
  8
姿図
100
AcDbSpline
210
0.0
220
0.0
230
1.0
 70
     8
 71
     3
 72
     8
 73
     4
 74
     0
 42
0.0000000001
 43
0.0000000001
 40
36.0
 40
36.0
 40
36.0
 40
36.0
 40
37.0
 40
37.0
 40
37.0
 40
37.0
 10
1858.930176627502
 20
-4334.798880362593
 30
0.0
 10
1856.226465690001
 20
-4338.342023266239
 30
0.0
 10
1854.175324739481
 20
-4340.735055492802
 30
0.0
 10
1853.367312044169
 20
-4341.387625479782
 30
0.0
  0
SPLINE
  5
1485C5
330
18
100
AcDbEntity
  8
姿図
100
AcDbSpline
210
0.0
220
0.0
230
1.0
 70
     8
 71
     3
 72
    12
 73
     8
 74
     6
 42
0.0000000001
 43
0.0000000001
 44
0.0000000001
 40
0.0
 40
0.0
 40
0.0
 40
0.0
 40
2.813366467462535
 40
4.182083402193891
 40
4.98302939848911
 40
5.478405391480984
 40
6.224154116148334
 40
6.224154116148334
 40
6.224154116148334
 40
6.224154116148334
 10
1852.825016472267
 20
-4336.642109116117
 30
0.0
 10
1853.018452503797
 20
-4337.568866458256
 30
0.0
 10
1853.30599613745
 20
-4338.946495907975
 30
0.0
 10
1853.091144074515
 20
-4340.611258527008
 30
0.0
 10
1852.806196965351
 20
-4341.461006533117
 30
0.0
 10
1852.413089354193
 20
-4342.027981703477
 30
0.0
 10
1852.07841973523
 20
-4342.276319899323
 30
0.0
 10
1851.877328388024
 20
-4342.425537693639
 30
0.0
 11
1852.825016472267
 21
-4336.642109116117
 31
0.0
 11
1853.193593519174
 21
-4339.431227586304
 31
0.0
 11
1853.011572627462
 21
-4340.7877873684
 31
0.0
 11
1852.731172107373
 21
-4341.538047348217
 31
0.0
 11
1852.446033791202
 21
-4341.943131925909
 31
0.0
 11
1851.877328388024
 21
-4342.425537693639
 31
0.0
  0
LINE
  5
1485C6
330
18
100
AcDbEntity
  8
姿図
100
AcDbLine
 10
1854.854674138276
 20
-4337.50529876655
 30
0.0
 11
1853.194731856142
 21
-4339.278223634454
 31
0.0
  0
LINE
  5
1485C7
330
18
100
AcDbEntity
  8
姿図
100
AcDbLine
 10
1854.803610005973
 20
-4336.833801044865
 30
0.0
 11
1853.157936323994
 21
-4338.584385480382
 31
0.0
  0
LINE
  5
1485C8
330
18
100
AcDbEntity
  8
姿図
100
AcDbLine
 10
1854.73268526317
 20
-4336.298783455588
 30
0.0
 11
1853.069356699665
 21
-4337.909483365606
 31
0.0
  0
SPLINE
  5
1485C9
330
18
100
AcDbEntity
  8
姿図
100
AcDbSpline
210
0.0
220
0.0
230
1.0
 70
     8
 71
     3
 72
     8
 73
     4
 74
     0
 42
0.0000000001
 43
0.0000000001
 40
0.0
 40
0.0
 40
0.0
 40
0.0
 40
1.0
 40
1.0
 40
1.0
 40
1.0
 10
1854.618327297168
 20
-4340.120476862679
 30
0.0
 10
1856.024914310952
 20
-4334.073546299221
 30
0.0
 10
1851.031330598853
 20
-4328.303049470666
 30
0.0
 10
1849.055843945207
 20
-4326.186382804
 30
0.0
  0
SPLINE
  5
1485CA
330
18
100
AcDbEntity
  8
姿図
100
AcDbSpline
210
0.0
220
0.0
230
1.0
 70
     8
 71
     3
 72
     8
 73
     4
 74
     0
 42
0.0000000001
 43
0.0000000001
 40
0.0
 40
0.0
 40
0.0
 40
0.0
 40
1.0
 40
1.0
 40
1.0
 40
1.0
 10
1846.887087434792
 20
-4329.410268708948
 30
0.0
 10
1849.215420768125
 20
-4331.350408682906
 30
0.0
 10
1851.499725781148
 20
-4336.192490388635
 30
0.0
 10
1851.403355100429
 20
-4338.076243461051
 30
0.0
  0
LINE
  5
1485CB
330
18
100
AcDbEntity
  8
姿図
100
AcDbLine
 10
1854.759680319628
 20
-4339.378533952323
 30
0.0
 11
1852.433831834624
 21
-4342.118647188522
 31
0.0
  0
SPLINE
  5
1485CC
330
18
100
AcDbEntity
  8
姿図
100
AcDbSpline
210
0.0
220
0.0
230
1.0
 70
     8
 71
     3
 72
     8
 73
     4
 74
     0
 42
0.0000000001
 43
0.0000000001
 40
0.0
 40
0.0
 40
0.0
 40
0.0
 40
1.0
 40
1.0
 40
1.0
 40
1.0
 10
1847.556395825384
 20
-4341.717127020764
 30
0.0
 10
1849.19582932067
 20
-4342.020940893816
 30
0.0
 10
1851.993463921843
 20
-4341.644591081168
 30
0.0
 10
1851.403355100429
 20
-4338.076243461051
 30
0.0
  0
SPLINE
  5
1485CD
330
18
100
AcDbEntity
  8
姿図
100
AcDbSpline
210
0.0
220
0.0
230
1.0
 70
     8
 71
     3
 72
     8
 73
     4
 74
     0
 42
0.0000000001
 43
0.0000000001
 40
37.0
 40
37.0
 40
37.0
 40
37.0
 40
38.0
 40
38.0
 40
38.0
 40
38.0
 10
1853.367312044169
 20
-4341.387625479782
 30
0.0
 10
1851.514606775954
 20
-4343.134807824767
 30
0.0
 10
1849.632279350646
 20
-4343.036333711689
 30
0.0
 10
1847.962990755104
 20
-4342.727698721969
 30
0.0
  0
LINE
  5
1485CE
330
18
100
AcDbEntity
  8
姿図
100
AcDbLine
 10
1854.83346456433
 20
-4338.733154098497
 30
0.0
 11
1852.974957574912
 21
-4340.92268606247
 31
0.0
  0
LINE
  5
1485CF
330
18
100
AcDbEntity
  8
姿図
100
AcDbLine
 10
1854.839074120438
 20
-4338.082131003798
 30
0.0
 11
1853.146963402169
 21
-4340.07562929319
 31
0.0
  0
LINE
  5
1485D0
330
18
100
AcDbEntity
  8
姿図
100
AcDbLine
 10
1861.43834394521
 20
-4301.227389477178
 30
0.0
 11
1860.151759638558
 21
-4303.101139776126
 31
0.0
  0
SPLINE
  5
1485D1
330
18
100
AcDbEntity
  8
姿図
100
AcDbSpline
210
0.0
220
0.0
230
1.0
 70
     8
 71
     3
 72
     8
 73
     4
 74
     0
 42
0.0000000001
 43
0.0000000001
 40
0.0
 40
0.0
 40
0.0
 40
0.0
 40
1.0
 40
1.0
 40
1.0
 40
1.0
 10
1865.380635611875
 20
-4304.534681143844
 30
0.0
 10
1866.650635611877
 20
-4302.84134781051
 30
0.0
 10
1863.44917727854
 20
-4298.925514477176
 30
0.0
 10
1861.43834394521
 20
-4301.227389477178
 30
0.0
  0
LINE
  5
1485D2
330
18
100
AcDbEntity
  8
姿図
100
AcDbLine
 10
1855.217276410149
 20
-4320.092431699014
 30
0.0
 11
1857.198886910404
 21
-4315.850898238577
 31
0.0
  0
ELLIPSE
  5
1485D3
330
18
100
AcDbEntity
  8
姿図
100
AcDbEllipse
 10
1857.332604766219
 20
-4311.99008762386
 30
0.0
 11
-0.7457942708333336
 21
0.6259049479166669
 31
0.0
210
0.0
220
0.0
230
1.0
 40
0.7351581471724163
 41
0.0
 42
6.283185307179585
  0
LINE
  5
1485D4
330
18
100
AcDbEntity
  8
姿図
100
AcDbLine
 10
1865.380635611875
 20
-4304.534681143844
 30
0.0
 11
1864.163293875776
 21
-4306.381682398617
 31
0.0
  0
SPLINE
  5
1485D5
330
18
100
AcDbEntity
  8
姿図
100
AcDbSpline
210
0.0
220
0.0
230
1.0
 70
     8
 71
     3
 72
     8
 73
     4
 74
     0
 42
0.0000000001
 43
0.0000000001
 40
0.0
 40
0.0
 40
0.0
 40
0.0
 40
1.0
 40
1.0
 40
1.0
 40
1.0
 10
1831.566885611877
 20
-4314.297806143843
 30
0.0
 10
1832.334177278542
 20
-4313.477597810511
 30
0.0
 10
1833.895218945208
 20
-4312.101764477177
 30
0.0
 10
1836.488135611875
 20
-4311.784264477177
 30
0.0
  0
SPLINE
  5
1485D6
330
18
100
AcDbEntity
  8
姿図
100
AcDbSpline
210
0.0
220
0.0
230
1.0
 70
     8
 71
     3
 72
     8
 73
     4
 74
     0
 42
0.0000000001
 43
0.0000000001
 40
0.0
 40
0.0
 40
0.0
 40
0.0
 40
1.0
 40
1.0
 40
1.0
 40
1.0
 10
1832.810427278544
 20
-4312.76322281051
 30
0.0
 10
1833.68355227854
 20
-4312.075306143845
 30
0.0
 10
1834.741885611875
 20
-4311.440306143842
 30
0.0
 10
1836.885010611877
 20
-4310.911139477178
 30
0.0
  0
SPLINE
  5
1485D7
330
18
100
AcDbEntity
  8
姿図
100
AcDbSpline
210
0.0
220
0.0
230
1.0
 70
     8
 71
     3
 72
     8
 73
     4
 74
     0
 42
0.0000000001
 43
0.0000000001
 40
0.0106763948050698
 40
0.0106763948050698
 40
0.0106763948050698
 40
0.0106763948050698
 40
1.0
 40
1.0
 40
1.0
 40
1.0
 10
1849.254671002462
 20
-4315.490875643253
 30
0.0
 10
1847.182042842483
 20
-4313.917455947438
 30
0.0
 10
1841.278316842778
 20
-4311.025164719274
 30
0.0
 10
1836.488135611875
 20
-4311.784264477177
 30
0.0
  0
SPLINE
  5
1485D8
330
18
100
AcDbEntity
  8
姿図
100
AcDbSpline
210
0.0
220
0.0
230
1.0
 70
     8
 71
     3
 72
     8
 73
     4
 74
     0
 42
0.0000000001
 43
0.0000000001
 40
0.0
 40
0.0
 40
0.0
 40
0.0
 40
0.9548759970193254
 40
0.9548759970193254
 40
0.9548759970193254
 40
0.9548759970193254
 10
1836.885010611877
 20
-4310.911139477178
 30
0.0
 10
1843.984314717214
 20
-4310.607966348124
 30
0.0
 10
1848.068069407196
 20
-4313.513337797011
 30
0.0
 10
1849.850384668944
 20
-4314.582412301868
 30
0.0
  0
LINE
  5
1485D9
330
18
100
AcDbEntity
  8
姿図
100
AcDbLine
 10
1854.61021056203
 20
-4335.642189061286
 30
0.0
 11
1852.952542593208
 21
-4337.264567732381
 31
0.0
  0
LINE
  5
1485DA
330
18
100
AcDbEntity
  8
姿図
100
AcDbLine
 10
1854.474494464272
 20
-4335.077211792818
 30
0.0
 11
1852.825794595106
 21
-4336.623266399906
 31
0.0
  0
LINE
  5
1485DB
330
18
100
AcDbEntity
  8
姿図
100
AcDbLine
 10
1854.273544816884
 20
-4334.392506210106
 30
0.0
 11
1852.597467208805
 21
-4335.828333516198
 31
0.0
  0
LINE
  5
1485DC
330
18
100
AcDbEntity
  8
姿図
100
AcDbLine
 10
1854.040285770614
 20
-4333.725096280701
 30
0.0
 11
1852.371272180129
 21
-4335.200309657227
 31
0.0
  0
LINE
  5
1485DD
330
18
100
AcDbEntity
  8
姿図
100
AcDbLine
 10
1853.7749451363
 20
-4333.066585631085
 30
0.0
 11
1852.07436075542
 21
-4334.505230504409
 31
0.0
  0
SPLINE
  5
1485DE
330
18
100
AcDbEntity
  8
姿図
100
AcDbSpline
210
0.0
220
0.0
230
1.0
 70
     8
 71
     3
 72
     8
 73
     4
 74
     0
 42
0.0000000001
 43
0.0000000001
 40
35.0
 40
35.0
 40
35.0
 40
35.0
 40
36.0
 40
36.0
 40
36.0
 40
36.0
 10
1860.538760611875
 20
-4327.385792797489
 30
0.0
 10
1860.825874869686
 20
-4328.707469229782
 30
0.0
 10
1861.69610598948
 20
-4331.784284008427
 30
0.0
 10
1858.930176627502
 20
-4334.798880362593
 30
0.0
  0
SPLINE
  5
1485DF
330
18
100
AcDbEntity
  8
姿図
100
AcDbSpline
210
0.0
220
0.0
230
1.0
 70
     8
 71
     3
 72
     8
 73
     4
 74
     0
 42
0.0000000001
 43
0.0000000001
 40
0.3748330610719267
 40
0.3748330610719267
 40
0.3748330610719267
 40
0.3748330610719267
 40
0.9335741083362055
 40
0.9335741083362055
 40
0.9335741083362055
 40
0.9335741083362055
 10
1852.825016472267
 20
-4336.642109116117
 30
0.0
 10
1852.040566504566
 20
-4333.243844843582
 30
0.0
 10
1849.075275015995
 20
-4329.777222314616
 30
0.0
 10
1847.625917537647
 20
-4328.161189732947
 30
0.0
  0
LINE
  5
1485E0
330
18
100
AcDbEntity
  8
姿図
100
AcDbLine
 10
1849.524566468234
 20
-4326.697584894558
 30
0.0
 11
1848.008170217952
 21
-4328.591780669768
 31
0.0
  0
LINE
  5
1485E1
330
18
100
AcDbEntity
  8
姿図
100
AcDbLine
 10
1851.525759760007
 20
-4329.167398059156
 30
0.0
 11
1849.898600977886
 21
-4330.92316422701
 31
0.0
  0
LINE
  5
1485E2
330
18
100
AcDbEntity
  8
姿図
100
AcDbLine
 10
1851.154921180318
 20
-4328.634591023283
 30
0.0
 11
1849.480727658221
 21
-4330.370788713061
 31
0.0
  0
LINE
  5
1485E3
330
18
100
AcDbEntity
  8
姿図
100
AcDbLine
 10
1850.666844491807
 20
-4328.039555227697
 30
0.0
 11
1849.033537095263
 21
-4329.806036379974
 31
0.0
  0
LINE
  5
1485E4
330
18
100
AcDbEntity
  8
姿図
100
AcDbLine
 10
1850.122789530447
 20
-4327.381220454572
 30
0.0
 11
1848.536608662655
 21
-4329.205195928976
 31
0.0
  0
LINE
  5
1485E5
330
18
100
AcDbEntity
  8
姿図
100
AcDbLine
 10
1852.416300053423
 20
-4330.491692672204
 30
0.0
 11
1850.725432555222
 21
-4332.107347631823
 31
0.0
  0
LINE
  5
1485E6
330
18
100
AcDbEntity
  8
姿図
100
AcDbLine
 10
1851.951473109686
 20
-4329.776849367711
 30
0.0
 11
1850.295118137698
 21
-4331.473802237941
 31
0.0
  0
LINE
  5
1485E7
330
18
100
AcDbEntity
  8
姿図
100
AcDbLine
 10
1853.537717576866
 20
-4332.539011317291
 30
0.0
 11
1851.814094577339
 21
-4333.968416757136
 31
0.0
  0
LINE
  5
1485E8
330
18
100
AcDbEntity
  8
姿図
100
AcDbLine
 10
1853.178548494656
 20
-4331.817533336612
 30
0.0
 11
1851.468230758752
 21
-4333.3234787732
 31
0.0
  0
LINE
  5
1485E9
330
18
100
AcDbEntity
  8
姿図
100
AcDbLine
 10
1852.821469891025
 20
-4331.167984457531
 30
0.0
 11
1851.15109993449
 21
-4332.781241442291
 31
0.0
  0
SPLINE
  5
1485EA
330
18
100
AcDbEntity
  8
姿図
100
AcDbSpline
210
0.0
220
0.0
230
1.0
 70
     8
 71
     3
 72
     8
 73
     4
 74
     0
 42
0.0000000001
 43
0.0000000001
 40
0.0
 40
0.0
 40
0.0
 40
0.0
 40
0.986699542059012
 40
0.986699542059012
 40
0.986699542059012
 40
0.986699542059012
 10
1860.538760611875
 20
-4327.385792797489
 30
0.0
 10
1860.051508656863
 20
-4325.366929893895
 30
0.0
 10
1858.465063425938
 20
-4322.180249601045
 30
0.0
 10
1855.571871407803
 20
-4319.333439683549
 30
0.0
  0
SPLINE
  5
1485EB
330
18
100
AcDbEntity
  8
姿図
100
AcDbSpline
210
0.0
220
0.0
230
1.0
 70
     8
 71
     3
 72
     8
 73
     4
 74
     0
 42
0.0000000001
 43
0.0000000001
 40
0.0
 40
0.0
 40
0.0
 40
0.0
 40
1.0
 40
1.0
 40
1.0
 40
1.0
 10
1859.69209394521
 20
-4333.810826977177
 30
0.0
 10
1861.689698111877
 20
-4329.207076977177
 30
0.0
 10
1858.064906445208
 20
-4322.777701977178
 30
0.0
 10
1855.141260611876
 20
-4320.555201977177
 30
0.0
  0
SPLINE
  5
1485EC
330
18
100
AcDbEntity
  8
姿図
100
AcDbSpline
210
0.0
220
0.0
230
1.0
 70
    24
 71
     3
 72
     8
 73
     4
 74
     0
 42
0.0000000001
 43
0.0000000001
 40
0.0
 40
0.0
 40
0.0
 40
0.0
 40
1.0
 40
1.0
 40
1.0
 40
1.0
 10
1864.894087164321
 20
-4306.447785100177
 30
0.0
 10
1864.894087164321
 20
-4306.447785100177
 30
0.0
 10
1866.204568120913
 20
-4303.905254433142
 30
0.0
 10
1866.204568120913
 20
-4303.905254433142
 30
0.0
  0
SPLINE
  5
1485ED
330
18
100
AcDbEntity
  8
姿図
100
AcDbSpline
210
0.0
220
0.0
230
1.0
 70
     8
 71
     3
 72
     8
 73
     4
 74
     0
 42
0.0000000001
 43
0.0000000001
 40
1.0
 40
1.0
 40
1.0
 40
1.0
 40
2.0
 40
2.0
 40
2.0
 40
2.0
 10
1866.204568120913
 20
-4303.905254433142
 30
0.0
 10
1866.204568120913
 20
-4303.905254433142
 30
0.0
 10
1866.23353974141
 20
-4303.724243255262
 30
0.0
 10
1866.155092269233
 20
-4303.621062052217
 30
0.0
  0
SPLINE
  5
1485EE
330
18
100
AcDbEntity
  8
姿図
100
AcDbSpline
210
-0.0000000026078672
220
0.0000000018316479
230
-1.0
 70
     8
 71
     3
 72
     8
 73
     4
 74
     0
 42
0.0000000001
 43
0.0000000001
 40
1.471451898813355
 40
1.471451898813355
 40
1.471451898813355
 40
1.471451898813355
 40
1.773254205883106
 40
1.773254205883106
 40
1.773254205883106
 40
1.773254205883106
 10
1848.809996092728
 20
-4300.263672464029
 30
0.0000000000000018
 10
1850.118783644557
 20
-4298.397695279617
 30
0.000000000000003
 10
1851.573029659059
 20
-4296.326248230206
 30
0.0000000000000049
 10
1852.822626935194
 20
-4294.550940772809
 30
0.000000000000008
  0
SPLINE
  5
1485EF
330
18
100
AcDbEntity
  8
姿図
100
AcDbSpline
210
0.0
220
0.0
230
1.0
 70
     8
 71
     3
 72
     8
 73
     4
 74
     0
 42
0.0000000001
 43
0.0000000001
 40
0.0
 40
0.0
 40
0.0
 40
0.0
 40
1.0
 40
1.0
 40
1.0
 40
1.0
 10
1870.938747359898
 20
-4307.033384278358
 30
0.0
 10
1870.938747359898
 20
-4307.033384278358
 30
0.0
 10
1871.439858746984
 20
-4307.384249455068
 30
0.0
 10
1871.323955392774
 20
-4307.680698708958
 30
0.0
  0
SPLINE
  5
1485F0
330
18
100
AcDbEntity
  8
姿図
100
AcDbSpline
210
0.0
220
0.0
230
1.0
 70
     8
 71
     3
 72
     8
 73
     4
 74
     0
 42
0.0000000001
 43
0.0000000001
 40
1.0
 40
1.0
 40
1.0
 40
1.0
 40
1.88888372913265
 40
1.88888372913265
 40
1.88888372913265
 40
1.88888372913265
 10
1871.323955392774
 20
-4307.680698708958
 30
0.0
 10
1871.323955392774
 20
-4307.680698708958
 30
0.0
 10
1866.351775620162
 20
-4315.271767124666
 30
0.0
 10
1863.09745621205
 20
-4320.06413822472
 30
0.0
  0
SPLINE
  5
1485F1
330
18
100
AcDbEntity
  8
姿図
100
AcDbSpline
210
0.0
220
0.0
230
1.0
 70
     8
 71
     3
 72
    11
 73
     7
 74
     0
 42
0.0000000001
 43
0.0000000001
 40
0.0
 40
0.0
 40
0.0
 40
0.0
 40
1.0
 40
1.0
 40
1.0
 40
1.788176320105198
 40
1.788176320105198
 40
1.788176320105198
 40
1.788176320105198
 10
1871.372628014298
 20
-4304.566534953424
 30
0.0
 10
1871.372628014298
 20
-4304.566534953424
 30
0.0
 10
1871.850088446068
 20
-4304.71140992813
 30
0.0
 10
1871.434479121366
 20
-4305.407362728122
 30
0.0
 10
1871.106905693225
 20
-4305.955896244985
 30
0.0
 10
1864.760645211718
 20
-4315.934896570007
 30
0.0
 10
1860.304379079513
 20
-4326.577723590334
 30
0.0
  0
SPLINE
  5
1485F2
330
18
100
AcDbEntity
  8
姿図
100
AcDbSpline
210
0.0
220
0.0
230
1.0
 70
    24
 71
     3
 72
     8
 73
     4
 74
     0
 42
0.0000000001
 43
0.0000000001
 40
0.0
 40
0.0
 40
0.0
 40
0.0
 40
1.0
 40
1.0
 40
1.0
 40
1.0
 10
1869.539398185727
 20
-4304.096873381584
 30
0.0
 10
1869.539398185727
 20
-4304.096873381584
 30
0.0
 10
1871.643852950809
 20
-4304.606054784032
 30
0.0
 10
1871.643852950809
 20
-4304.606054784032
 30
0.0
  0
SPLINE
  5
1485F3
330
18
100
AcDbEntity
  8
姿図
100
AcDbSpline
210
0.0
220
0.0
230
1.0
 70
     8
 71
     3
 72
     8
 73
     4
 74
     0
 42
0.0000000001
 43
0.0000000001
 40
1.0
 40
1.0
 40
1.0
 40
1.0
 40
2.0
 40
2.0
 40
2.0
 40
2.0
 10
1871.643852950809
 20
-4304.606054784032
 30
0.0
 10
1871.643852950809
 20
-4304.606054784032
 30
0.0
 10
1872.172117303062
 20
-4304.77650936185
 30
0.0
 10
1871.938246646067
 20
-4305.241002349196
 30
0.0
  0
SPLINE
  5
1485F4
330
18
100
AcDbEntity
  8
姿図
100
AcDbSpline
210
0.0
220
0.0
230
1.0
 70
     8
 71
     3
 72
     8
 73
     4
 74
     0
 42
0.0000000001
 43
0.0000000001
 40
2.0
 40
2.0
 40
2.0
 40
2.0
 40
2.733284138265211
 40
2.733284138265211
 40
2.733284138265211
 40
2.733284138265211
 10
1871.938246646067
 20
-4305.241002349196
 30
0.0
 10
1871.938246646067
 20
-4305.241002349196
 30
0.0
 10
1865.772189536314
 20
-4314.821854898785
 30
0.0
 10
1860.538760611875
 20
-4327.385792797489
 30
0.0
  0
SPLINE
  5
1485F5
330
18
100
AcDbEntity
  8
姿図
100
AcDbSpline
210
0.0
220
0.0
230
1.0
 70
     8
 71
     3
 72
    11
 73
     7
 74
     0
 42
0.0000000001
 43
0.0000000001
 40
0.0
 40
0.0
 40
0.0
 40
0.0
 40
1.0
 40
1.0
 40
1.0
 40
1.768789991941922
 40
1.768789991941922
 40
1.768789991941922
 40
1.768789991941922
 10
1870.515238126616
 20
-4301.45105151903
 30
0.0
 10
1870.515238126616
 20
-4301.45105151903
 30
0.0
 10
1871.005792913642
 20
-4301.244680722984
 30
0.0
 10
1870.214694673838
 20
-4302.367180041779
 30
0.0
 10
1869.606506264434
 20
-4303.230146284032
 30
0.0
 10
1863.897548714032
 20
-4311.170890245416
 30
0.0
 10
1858.576355622645
 20
-4323.043871997623
 30
0.0
  0
SPLINE
  5
1485F6
330
18
100
AcDbEntity
  8
姿図
100
AcDbSpline
210
0.0
220
0.0
230
1.0
 70
     8
 71
     3
 72
     8
 73
     4
 74
     0
 42
0.0000000001
 43
0.0000000001
 40
0.0
 40
0.0
 40
0.0
 40
0.0
 40
1.0
 40
1.0
 40
1.0
 40
1.0
 10
1868.105689375474
 20
-4298.717037204347
 30
0.0
 10
1868.105689375474
 20
-4298.717037204347
 30
0.0
 10
1868.702690472099
 20
-4298.564261767193
 30
0.0
 10
1868.403229794867
 20
-4299.09277141271
 30
0.0
  0
SPLINE
  5
1485F7
330
18
100
AcDbEntity
  8
姿図
100
AcDbSpline
210
0.0
220
0.0
230
1.0
 70
     8
 71
     3
 72
     8
 73
     4
 74
     0
 42
0.0000000001
 43
0.0000000001
 40
1.0
 40
1.0
 40
1.0
 40
1.0
 40
1.309625444955235
 40
1.309625444955235
 40
1.309625444955235
 40
1.309625444955235
 10
1868.403229794867
 20
-4299.09277141271
 30
0.0
 10
1868.310509149433
 20
-4299.256411446866
 30
0.0
 10
1867.451612382218
 20
-4300.584780099663
 30
0.0
 10
1865.656274467801
 20
-4303.360037046954
 30
0.0
  0
SPLINE
  5
1485F8
330
18
100
AcDbEntity
  8
姿図
100
AcDbSpline
210
0.0
220
0.0
230
1.0
 70
     8
 71
     3
 72
     8
 73
     4
 74
     0
 42
0.0000000001
 43
0.0000000001
 40
1.612607606405297
 40
1.612607606405297
 40
1.612607606405297
 40
1.612607606405297
 40
1.648289524194878
 40
1.648289524194878
 40
1.648289524194878
 40
1.648289524194878
 10
1857.536219636509
 20
-4315.927953489826
 30
0.0
 10
1857.099328047861
 20
-4316.605246500619
 30
0.0
 10
1856.647787071794
 20
-4317.30542218952
 30
0.0
 10
1856.181336116902
 20
-4318.028912403207
 30
0.0
  0
SPLINE
  5
1485F9
330
18
100
AcDbEntity
  8
姿図
100
AcDbSpline
210
0.0
220
0.0
230
1.0
 70
    24
 71
     3
 72
     8
 73
     4
 74
     0
 42
0.0000000001
 43
0.0000000001
 40
0.0
 40
0.0
 40
0.0
 40
0.0
 40
1.0
 40
1.0
 40
1.0
 40
1.0
 10
1867.296565099234
 20
-4301.739439147504
 30
0.0
 10
1867.296565099234
 20
-4301.739439147504
 30
0.0
 10
1870.515238126616
 20
-4301.45105151903
 30
0.0
 10
1870.515238126616
 20
-4301.45105151903
 30
0.0
  0
SPLINE
  5
1485FA
330
18
100
AcDbEntity
  8
姿図
100
AcDbSpline
210
0.0
220
0.0
230
1.0
 70
     8
 71
     3
 72
    11
 73
     7
 74
     0
 42
0.0000000001
 43
0.0000000001
 40
1.0
 40
1.0
 40
1.0
 40
1.0
 40
2.0
 40
2.0
 40
2.0
 40
2.814388548252563
 40
2.814388548252563
 40
2.814388548252563
 40
2.814388548252563
 10
1870.515238126616
 20
-4301.45105151903
 30
0.0
 10
1870.515238126616
 20
-4301.45105151903
 30
0.0
 10
1871.302242167534
 20
-4301.360584077191
 30
0.0
 10
1870.926998545685
 20
-4301.916136695415
 30
0.0
 10
1870.621404437246
 20
-4302.368572385647
 30
0.0
 10
1863.440583313608
 20
-4312.997975860738
 30
0.0
 10
1858.96734871186
 20
-4323.686932081421
 30
0.0
  0
SPLINE
  5
1485FB
330
18
100
AcDbEntity
  8
姿図
100
AcDbSpline
210
0.0
220
0.0
230
1.0
 70
     8
 71
     3
 72
     8
 73
     4
 74
     0
 42
0.0000000001
 43
0.0000000001
 40
1.0
 40
1.0
 40
1.0
 40
1.0
 40
1.201957035102942
 40
1.201957035102942
 40
1.201957035102942
 40
1.201957035102942
 10
1864.392621045376
 20
-4301.020283336628
 30
0.0
 10
1864.161096701129
 20
-4300.662103593707
 30
0.0
 10
1863.895724247384
 20
-4300.376554363424
 30
0.0
 10
1863.619618512828
 20
-4300.14890810947
 30
0.0
  0
SPLINE
  5
1485FC
330
18
100
AcDbEntity
  8
姿図
100
AcDbSpline
210
0.0
220
0.0
230
1.0
 70
     8
 71
     3
 72
     8
 73
     4
 74
     0
 42
0.0000000001
 43
0.0000000001
 40
1.371408514633379
 40
1.371408514633379
 40
1.371408514633379
 40
1.371408514633379
 40
2.0
 40
2.0
 40
2.0
 40
2.0
 10
1862.915606292889
 20
-4299.68948198646
 30
0.0
 10
1862.050815461771
 20
-4299.251093107967
 30
0.0
 10
1861.269930940092
 20
-4299.253937344958
 30
0.0
 10
1861.269930940092
 20
-4299.253937344958
 30
0.0
  0
SPLINE
  5
1485FD
330
18
100
AcDbEntity
  8
姿図
100
AcDbSpline
210
0.0
220
0.0
230
1.0
 70
    24
 71
     3
 72
     8
 73
     4
 74
     0
 42
0.0000000001
 43
0.0000000001
 40
2.0
 40
2.0
 40
2.0
 40
2.0
 40
3.0
 40
3.0
 40
3.0
 40
3.0
 10
1861.269930940092
 20
-4299.253937344958
 30
0.0
 10
1861.269930940092
 20
-4299.253937344958
 30
0.0
 10
1859.414162135035
 20
-4301.974522762757
 30
0.0
 10
1859.414162135035
 20
-4301.974522762757
 30
0.0
  0
SPLINE
  5
1485FE
330
18
100
AcDbEntity
  8
姿図
100
AcDbSpline
210
0.0
220
0.0
230
1.0
 70
    24
 71
     3
 72
     8
 73
     4
 74
     0
 42
0.0000000001
 43
0.0000000001
 40
0.1253663450285614
 40
0.1253663450285614
 40
0.1253663450285614
 40
0.1253663450285614
 40
1.0
 40
1.0
 40
1.0
 40
1.0
 10
1864.0366654892
 20
-4300.551137743616
 30
0.0
 10
1864.925341358883
 20
-4300.142380575632
 30
0.0
 10
1868.469657297393
 20
-4298.512129777892
 30
0.0
 10
1868.469657297393
 20
-4298.512129777892
 30
0.0
  0
SPLINE
  5
1485FF
330
18
100
AcDbEntity
  8
姿図
100
AcDbSpline
210
0.0
220
0.0
230
1.0
 70
     8
 71
     3
 72
    11
 73
     7
 74
     0
 42
0.0000000001
 43
0.0000000001
 40
1.0
 40
1.0
 40
1.0
 40
1.0
 40
2.0
 40
2.0
 40
2.0
 40
2.466205817988146
 40
2.466205817988146
 40
2.466205817988146
 40
2.466205817988146
 10
1868.469657297393
 20
-4298.512129777892
 30
0.0
 10
1868.469657297393
 20
-4298.512129777892
 30
0.0
 10
1869.582192205164
 20
-4298.100360968881
 30
0.0
 10
1868.945679667879
 20
-4299.171811073926
 30
0.0
 10
1868.648933819779
 20
-4299.671327346583
 30
0.0
 10
1867.004014425078
 20
-4302.289818106804
 30
0.0
 10
1864.332337663551
 20
-4306.526585159942
 30
0.0
  0
SPLINE
  5
148600
330
18
100
AcDbEntity
  8
姿図
100
AcDbSpline
210
0.0
220
0.0
230
1.0
 70
     8
 71
     3
 72
     8
 73
     4
 74
     0
 42
0.0000000001
 43
0.0000000001
 40
2.751548371221979
 40
2.751548371221979
 40
2.751548371221979
 40
2.751548371221979
 40
2.782200575022114
 40
2.782200575022114
 40
2.782200575022114
 40
2.782200575022114
 10
1858.346514374442
 20
-4316.009820261696
 30
0.0
 10
1858.096136540609
 20
-4316.406291387578
 30
0.0
 10
1857.842170613194
 20
-4316.808433297846
 30
0.0
 10
1856.022931631618
 20
-4319.790836721005
 30
0.0
  0
SPLINE
  5
148601
330
18
100
AcDbEntity
  8
姿図
100
AcDbSpline
210
0.0
220
0.0
230
1.0
 70
    24
 71
     3
 72
     8
 73
     4
 74
     0
 42
0.0000000001
 43
0.0000000001
 40
1.593919470979719
 40
1.593919470979719
 40
1.593919470979719
 40
1.593919470979719
 40
2.0
 40
2.0
 40
2.0
 40
2.0
 10
1862.262765327752
 20
-4300.629250397782
 30
0.0
 10
1864.225935012879
 20
-4297.803256082672
 30
0.0
 10
1865.54372886286
 20
-4295.906284080333
 30
0.0
 10
1865.54372886286
 20
-4295.906284080333
 30
0.0
  0
SPLINE
  5
148602
330
18
100
AcDbEntity
  8
姿図
100
AcDbSpline
210
0.0
220
0.0
230
1.0
 70
     8
 71
     3
 72
     8
 73
     4
 74
     0
 42
0.0000000001
 43
0.0000000001
 40
2.0
 40
2.0
 40
2.0
 40
2.0
 40
3.0
 40
3.0
 40
3.0
 40
3.0
 10
1865.54372886286
 20
-4295.906284080333
 30
0.0
 10
1865.54372886286
 20
-4295.906284080333
 30
0.0
 10
1865.978675097511
 20
-4295.659784438586
 30
0.0
 10
1866.059025770699
 20
-4296.165734340443
 30
0.0
  0
SPLINE
  5
148603
330
18
100
AcDbEntity
  8
姿図
100
AcDbSpline
210
0.0
220
0.0
230
1.0
 70
     8
 71
     3
 72
     8
 73
     4
 74
     0
 42
0.0000000001
 43
0.0000000001
 40
3.0
 40
3.0
 40
3.0
 40
3.0
 40
3.386391109152339
 40
3.386391109152339
 40
3.386391109152339
 40
3.386391109152339
 10
1866.059025770699
 20
-4296.165734340443
 30
0.0
 10
1866.073972286169
 20
-4296.260554734138
 30
0.0
 10
1864.949696685795
 20
-4298.061382818839
 30
0.0
 10
1863.324926977324
 20
-4300.581085037311
 30
0.0
  0
SPLINE
  5
148604
330
18
100
AcDbEntity
  8
姿図
100
AcDbSpline
210
0.0
220
0.0
230
1.0
 70
     8
 71
     3
 72
     8
 73
     4
 74
     0
 42
0.0000000001
 43
0.0000000001
 40
1.170835818589571
 40
1.170835818589571
 40
1.170835818589571
 40
1.170835818589571
 40
1.260682760381689
 40
1.260682760381689
 40
1.260682760381689
 40
1.260682760381689
 10
1857.254320117489
 20
-4302.282370735421
 30
0.0
 10
1858.448417210782
 20
-4300.519648670458
 30
0.0
 10
1860.206433027053
 20
-4297.921889174562
 30
0.0
 10
1862.791241589786
 20
-4294.098322069895
 30
0.0
  0
SPLINE
  5
148605
330
18
100
AcDbEntity
  8
姿図
100
AcDbSpline
210
0.0
220
0.0
230
1.0
 70
    24
 71
     3
 72
     8
 73
     4
 74
     0
 42
0.0000000001
 43
0.0000000001
 40
1.505104155280973
 40
1.505104155280973
 40
1.505104155280973
 40
1.505104155280973
 40
2.0
 40
2.0
 40
2.0
 40
2.0
 10
1856.474268781618
 20
-4302.144776604756
 30
0.0
 10
1860.202444256061
 20
-4296.851051713897
 30
0.0
 10
1862.175393424179
 20
-4294.049614337564
 30
0.0
 10
1862.175393424179
 20
-4294.049614337564
 30
0.0
  0
SPLINE
  5
148606
330
18
100
AcDbEntity
  8
姿図
100
AcDbSpline
210
0.0
220
0.0
230
1.0
 70
     8
 71
     3
 72
     8
 73
     4
 74
     0
 42
0.0000000001
 43
0.0000000001
 40
2.0
 40
2.0
 40
2.0
 40
2.0
 40
3.0
 40
3.0
 40
3.0
 40
3.0
 10
1862.175393424179
 20
-4294.049614337564
 30
0.0
 10
1862.175393424179
 20
-4294.049614337564
 30
0.0
 10
1862.851679475276
 20
-4293.483395126811
 30
0.0
 10
1863.003554043949
 20
-4294.07766824045
 30
0.0
  0
SPLINE
  5
148607
330
18
100
AcDbEntity
  8
姿図
100
AcDbSpline
210
0.0
220
0.0
230
1.0
 70
    24
 71
     3
 72
     8
 73
     4
 74
     0
 42
0.0000000001
 43
0.0000000001
 40
3.0
 40
3.0
 40
3.0
 40
3.0
 40
4.0
 40
4.0
 40
4.0
 40
4.0
 10
1863.003554043949
 20
-4294.07766824045
 30
0.0
 10
1863.003554043949
 20
-4294.07766824045
 30
0.0
 10
1861.83796041622
 20
-4299.282173085684
 30
0.0
 10
1861.83796041622
 20
-4299.282173085684
 30
0.0
  0
SPLINE
  5
148608
330
18
100
AcDbEntity
  8
姿図
100
AcDbSpline
210
0.0
220
0.0
230
1.0
 70
    24
 71
     3
 72
     8
 73
     4
 74
     0
 42
0.0000000001
 43
0.0000000001
 40
1.351290308159436
 40
1.351290308159436
 40
1.351290308159436
 40
1.351290308159436
 40
1.428242292534494
 40
1.428242292534494
 40
1.428242292534494
 40
1.428242292534494
 10
1853.186995547945
 20
-4301.457282624012
 30
0.0
 10
1853.470879938139
 20
-4301.055635961971
 30
0.0
 10
1853.769019880894
 20
-4300.633820191317
 30
0.0
 10
1854.074038634019
 20
-4300.202272109488
 30
0.0
  0
SPLINE
  5
148609
330
18
100
AcDbEntity
  8
姿図
100
AcDbSpline
210
0.0
220
0.0
230
1.0
 70
    24
 71
     3
 72
     8
 73
     4
 74
     0
 42
0.0000000001
 43
0.0000000001
 40
1.615278216396081
 40
1.615278216396081
 40
1.615278216396081
 40
1.615278216396081
 40
2.0
 40
2.0
 40
2.0
 40
2.0
 10
1854.074038634019
 20
-4300.202272109488
 30
0.0
 10
1857.788369897393
 20
-4294.94714429984
 30
0.0
 10
1858.986402657971
 20
-4293.252137896107
 30
0.0
 10
1858.986402657971
 20
-4293.252137896107
 30
0.0
  0
SPLINE
  5
14860A
330
18
100
AcDbEntity
  8
姿図
100
AcDbSpline
210
0.0
220
0.0
230
1.0
 70
     8
 71
     3
 72
     8
 73
     4
 74
     0
 42
0.0000000001
 43
0.0000000001
 40
2.0
 40
2.0
 40
2.0
 40
2.0
 40
3.0
 40
3.0
 40
3.0
 40
3.0
 10
1858.986402657971
 20
-4293.252137896107
 30
0.0
 10
1858.986402657971
 20
-4293.252137896107
 30
0.0
 10
1859.245188883679
 20
-4292.866147377176
 30
0.0
 10
1859.578455224275
 20
-4294.003597853654
 30
0.0
  0
SPLINE
  5
14860B
330
18
100
AcDbEntity
  8
姿図
100
AcDbSpline
210
0.0
220
0.0
230
1.0
 70
    24
 71
     3
 72
     8
 73
     4
 74
     0
 42
0.0000000001
 43
0.0000000001
 40
1.350323050295564
 40
1.350323050295564
 40
1.350323050295564
 40
1.350323050295564
 40
1.445359962748387
 40
1.445359962748387
 40
1.445359962748387
 40
1.445359962748387
 10
1852.701575829971
 20
-4301.340799773948
 30
0.0
 10
1853.060182856956
 20
-4300.831472760211
 30
0.0
 10
1853.441202877479
 20
-4300.290312730921
 30
0.0
 10
1853.83040483118
 20
-4299.737531960032
 30
0.0
  0
SPLINE
  5
14860C
330
18
100
AcDbEntity
  8
姿図
100
AcDbSpline
210
0.0
220
0.0
230
1.0
 70
    24
 71
     3
 72
     8
 73
     4
 74
     0
 42
0.0000000001
 43
0.0000000001
 40
1.629831745831646
 40
1.629831745831646
 40
1.629831745831646
 40
1.629831745831646
 40
2.0
 40
2.0
 40
2.0
 40
2.0
 10
1853.83040483118
 20
-4299.737531960032
 30
0.0
 10
1857.516010038673
 20
-4294.502893057586
 30
0.0
 10
1858.651880093938
 20
-4292.889624884606
 30
0.0
 10
1858.651880093938
 20
-4292.889624884606
 30
0.0
  0
SPLINE
  5
14860D
330
18
100
AcDbEntity
  8
姿図
100
AcDbSpline
210
0.0
220
0.0
230
1.0
 70
     8
 71
     3
 72
    11
 73
     7
 74
     0
 42
0.0000000001
 43
0.0000000001
 40
2.0
 40
2.0
 40
2.0
 40
2.0
 40
3.0
 40
3.0
 40
3.0
 40
4.0
 40
4.0
 40
4.0
 40
4.0
 10
1858.651880093938
 20
-4292.889624884606
 30
0.0
 10
1858.651880093938
 20
-4292.889624884606
 30
0.0
 10
1859.129822722265
 20
-4292.645062326759
 30
0.0
 10
1859.296483390681
 20
-4293.149739179117
 30
0.0
 10
1859.463144059098
 20
-4293.654416031481
 30
0.0
 10
1860.3474416187
 20
-4296.460482767565
 30
0.0
 10
1860.3474416187
 20
-4296.460482767565
 30
0.0
  0
SPLINE
  5
14860E
330
18
100
AcDbEntity
  8
姿図
100
AcDbSpline
210
0.0
220
0.0
230
1.0
 70
    24
 71
     3
 72
     8
 73
     4
 74
     0
 42
0.0000000001
 43
0.0000000001
 40
1.393866661974843
 40
1.393866661974843
 40
1.393866661974843
 40
1.393866661974843
 40
1.573101002211188
 40
1.573101002211188
 40
1.573101002211188
 40
1.573101002211188
 10
1850.608171115273
 20
-4300.793390008103
 30
0.0
 10
1851.304323290084
 20
-4299.80132880017
 30
0.0
 10
1852.055945678148
 20
-4298.730219003781
 30
0.0
 10
1852.769362086285
 20
-4297.713555163272
 30
0.0
  0
SPLINE
  5
14860F
330
18
100
AcDbEntity
  8
姿図
100
AcDbSpline
210
0.0
220
0.0
230
1.0
 70
    24
 71
     3
 72
     8
 73
     4
 74
     0
 42
0.0000000001
 43
0.0000000001
 40
1.799348189808346
 40
1.799348189808346
 40
1.799348189808346
 40
1.799348189808346
 40
2.0
 40
2.0
 40
2.0
 40
2.0
 10
1852.769362086285
 20
-4297.713555163272
 30
0.0
 10
1855.623533792672
 20
-4293.64617861379
 30
0.0
 10
1855.951041660346
 20
-4293.179459033541
 30
0.0
 10
1855.951041660346
 20
-4293.179459033541
 30
0.0
  0
SPLINE
  5
148610
330
18
100
AcDbEntity
  8
姿図
100
AcDbSpline
210
0.0
220
0.0
230
1.0
 70
     8
 71
     3
 72
     8
 73
     4
 74
     0
 42
0.0000000001
 43
0.0000000001
 40
2.0
 40
2.0
 40
2.0
 40
2.0
 40
3.0
 40
3.0
 40
3.0
 40
3.0
 10
1855.951041660346
 20
-4293.179459033541
 30
0.0
 10
1855.951041660346
 20
-4293.179459033541
 30
0.0
 10
1856.235542789951
 20
-4293.127864237041
 30
0.0
 10
1856.388626975775
 20
-4293.72274638885
 30
0.0
  0
SPLINE
  5
148611
330
18
100
AcDbEntity
  8
姿図
100
AcDbSpline
210
0.0
220
0.0
230
1.0
 70
    24
 71
     3
 72
     8
 73
     4
 74
     0
 42
0.0000000001
 43
0.0000000001
 40
1.391994967145552
 40
1.391994967145552
 40
1.391994967145552
 40
1.391994967145552
 40
1.583667207078013
 40
1.583667207078013
 40
1.583667207078013
 40
1.583667207078013
 10
1850.273249602382
 20
-4300.698939040514
 30
0.0
 10
1851.022232715337
 20
-4299.633855088417
 30
0.0
 10
1851.83627186052
 20
-4298.476258855713
 30
0.0
 10
1852.599914682709
 20
-4297.390328210568
 30
0.0
  0
SPLINE
  5
148612
330
18
100
AcDbEntity
  8
姿図
100
AcDbSpline
210
0.0
220
0.0
230
1.0
 70
    24
 71
     3
 72
     8
 73
     4
 74
     0
 42
0.0000000001
 43
0.0000000001
 40
1.815455566821609
 40
1.815455566821609
 40
1.815455566821609
 40
1.815455566821609
 40
2.0
 40
2.0
 40
2.0
 40
2.0
 10
1852.599914682709
 20
-4297.390328210568
 30
0.0
 10
1855.400383239357
 20
-4293.407949881254
 30
0.0
 10
1855.679571430577
 20
-4293.010933103516
 30
0.0
 10
1855.679571430577
 20
-4293.010933103516
 30
0.0
  0
SPLINE
  5
148613
330
18
100
AcDbEntity
  8
姿図
100
AcDbSpline
210
0.0
220
0.0
230
1.0
 70
     8
 71
     3
 72
     8
 73
     4
 74
     0
 42
0.0000000001
 43
0.0000000001
 40
2.0
 40
2.0
 40
2.0
 40
2.0
 40
3.0
 40
3.0
 40
3.0
 40
3.0
 10
1855.679571430577
 20
-4293.010933103516
 30
0.0
 10
1855.679571430577
 20
-4293.010933103516
 30
0.0
 10
1856.017113877146
 20
-4292.726004842817
 30
0.0
 10
1856.196441700486
 20
-4293.140776685225
 30
0.0
  0
SPLINE
  5
148614
330
18
100
AcDbEntity
  8
姿図
100
AcDbSpline
210
0.0
220
0.0
230
1.0
 70
    24
 71
     3
 72
     8
 73
     4
 74
     0
 42
0.0000000001
 43
0.0000000001
 40
3.0
 40
3.0
 40
3.0
 40
3.0
 40
4.0
 40
4.0
 40
4.0
 40
4.0
 10
1856.196441700486
 20
-4293.140776685225
 30
0.0
 10
1856.196441700486
 20
-4293.140776685225
 30
0.0
 10
1857.015204236086
 20
-4295.882763307724
 30
0.0
 10
1857.015204236086
 20
-4295.882763307724
 30
0.0
  0
SPLINE
  5
148615
330
18
100
AcDbEntity
  8
姿図
100
AcDbSpline
210
0.0
220
0.0
230
1.0
 70
    24
 71
     3
 72
     8
 73
     4
 74
     0
 42
0.0000000001
 43
0.0000000001
 40
1.477316060400323
 40
1.477316060400323
 40
1.477316060400323
 40
1.477316060400323
 40
1.790999460430504
 40
1.790999460430504
 40
1.790999460430504
 40
1.790999460430504
 10
1848.581392549097
 20
-4300.192314709112
 30
0.0
 10
1849.946236888229
 20
-4298.245553360906
 30
0.0
 10
1851.4510170672
 20
-4296.099192925515
 30
0.0
 10
1852.690199967779
 20
-4294.331670208801
 30
0.0
  0
ELLIPSE
  5
148616
330
18
100
AcDbEntity
  8
姿図
100
AcDbEllipse
 10
1856.552747101985
 20
-4307.220283103982
 30
0.0
 11
8.946570577400736
 21
-4.744703701203169
 31
0.0
210
0.0
220
0.0
230
1.0
 40
0.589675754012904
 41
2.589251650966877
 42
2.665769938206601
  0
ELLIPSE
  5
148617
330
18
100
AcDbEntity
  8
姿図
100
AcDbEllipse
 10
1856.552747101985
 20
-4307.220283103982
 30
0.0
 11
8.946570577400736
 21
-4.744703701203169
 31
0.0
210
0.0
220
0.0
230
1.0
 40
0.589675754012904
 41
6.965981119172361
 42
7.147828363455014
  0
ELLIPSE
  5
148618
330
18
100
AcDbEntity
  8
姿図
100
AcDbEllipse
 10
1856.552747101985
 20
-4307.220283103982
 30
0.0
 11
8.946570577400736
 21
-4.744703701203169
 31
0.0
210
0.0
220
0.0
230
1.0
 40
0.589675754012904
 41
7.723477700805621
 42
7.896541804765815
  0
ELLIPSE
  5
148619
330
18
100
AcDbEntity
  8
姿図
100
AcDbEllipse
 10
1856.552747101985
 20
-4307.220283103982
 30
0.0
 11
8.946570577400736
 21
-4.744703701203169
 31
0.0
210
0.0
220
0.0
230
1.0
 40
0.589675754012904
 41
8.489247713282603
 42
8.607693964296711
  0
ARC
  5
14861A
330
18
100
AcDbEntity
  8
姿図
100
AcDbCircle
 10
1852.478251844679
 20
-4299.537487516754
 30
0.0
 40
0.5891071285579998
100
AcDbArc
 50
176.6035262431334
 51
269.2179010900513
  0
ARC
  5
14861B
330
18
100
AcDbEntity
  8
姿図
100
AcDbCircle
 10
1859.290118190453
 20
-4301.12139726747
 30
0.0
 40
0.7044793750256743
100
AcDbArc
 50
178.6996333805673
 51
242.7355601294624
  0
ARC
  5
14861C
330
18
100
AcDbEntity
  8
姿図
100
AcDbCircle
 10
1865.737922793916
 20
-4307.148579596627
 30
0.0
 40
0.63968954389853
100
AcDbArc
 50
221.5153020366417
 51
291.9422318175897
  0
LINE
  5
14861D
330
18
100
AcDbEntity
  8
姿図
100
AcDbLine
 10
1853.196200761988
 20
-4294.385867309814
 30
0.0000000000000074
 11
1853.95332107514
 21
-4295.465730173148
 31
0.0000000000000003
  0
ARC
  5
14861E
330
18
100
AcDbEntity
  8
姿図
100
AcDbCircle
 10
1852.915441718356
 20
-4294.61793201588
 30
-0.0000000000000142
 40
0.3642522043636391
100
AcDbArc
 50
30.49478329114204
 51
128.1970235673045
  0
ARC
  5
14861F
330
18
100
AcDbEntity
  8
姿図
100
AcDbCircle
 10
1853.067038898036
 20
-4294.761479882175
 30
0.0000000000000271
 40
0.3225894048985802
100
AcDbArc
 50
39.97839485110996
 51
150.4619100593187
  0
LINE
  5
148620
330
18
100
AcDbEntity
  8
姿図
100
AcDbLine
 10
1858.967397630402
 20
-4301.74761019448
 30
0.0
 11
1858.432213235174
 21
-4302.47184953381
 31
0.0
  0
ARC
  5
148621
330
18
100
AcDbEntity
  8
姿図
100
AcDbCircle
 10
1851.922470121775
 20
-4315.789357406123
 30
0.0000000000000086
 40
15.70992260825765
100
AcDbArc
 50
70.10507181513959
 51
78.98271778318717
  0
ARC
  5
148622
330
18
100
AcDbEntity
  8
姿図
100
AcDbCircle
 10
1855.10095348261
 20
-4299.798953369863
 30
0.0000000000000086
 40
0.5966443679784727
100
AcDbArc
 50
188.0617757773393
 51
252.8196158441416
  0
LINE
  5
148623
330
18
100
AcDbEntity
  8
姿図
100
AcDbLine
 10
1854.763398523924
 20
-4300.290930149509
 30
0.0000000000000086
 11
1853.783064553285
 21
-4301.595001024722
 31
0.0000000000000075
  0
LINE
  5
148624
330
18
100
AcDbEntity
  8
姿図
100
AcDbLine
 10
1852.322421315763
 20
-4300.105610791383
 30
0.0
 11
1851.590652683422
 21
-4301.059472155976
 31
0.0
  0
LINE
  5
148625
330
18
100
AcDbEntity
  8
姿図
100
AcDbLine
 10
1865.408423318848
 20
-4307.696879522307
 30
0.0
 11
1856.488578175769
 21
-4320.293367129052
 31
0.0
  0
ARC
  5
148626
330
18
100
AcDbEntity
  8
姿図
100
AcDbCircle
 10
1879.082462374114
 20
-4344.435143423801
 30
0.0000000000000084
 40
54.37145505000529
100
AcDbArc
 50
125.0955168657119
 51
142.2118279621571
  0
ARC
  5
148627
330
18
100
AcDbEntity
  8
姿図
100
AcDbCircle
 10
1868.283336173583
 20
-4237.476519074014
 30
0.0000000000000084
 40
65.73764222061708
100
AcDbArc
 50
251.8650335897541
 51
261.6937835389554
  0
TEXT
  5
14A9D0
330
18
100
AcDbEntity
  8
文字
100
AcDbText
 10
1759.10597432574
 20
-4403.152321169426
 30
0.0
 40
9.75
  1
MOD-P1652DR/CE/WC・NC
 41
0.8
100
AcDbText
  0
ENDSEC
  0
SECTION
  2
OBJECTS
  0
DICTIONARY
  5
C
330
0
100
AcDbDictionary
281
     1
  3
ACAD_COLOR
350
14A9BE
  3
ACAD_GROUP
350
D
  3
ACAD_IMAGE_VARS
350
1418FE
  3
ACAD_LAYOUT
350
617
  3
ACAD_MATERIAL
350
14A994
  3
ACAD_MLEADERSTYLE
350
14A9C1
  3
ACAD_MLINESTYLE
350
E
  3
ACAD_PLOTSETTINGS
350
618
  3
ACAD_PLOTSTYLENAME
350
615
  3
ACAD_SCALELIST
350
A36
  3
ACAD_TABLESTYLE
350
14A9BF
  3
ACAD_VISUALSTYLE
350
14A9AD
  3
AcadDim
350
AB4
  3
ACDB_RECOMPOSE_DATA
350
14A9D6
  3
AcDbVariableDictionary
350
6DE
  3
APPDATA
350
1418FC
  3
DWGPROPS
350
14A9D7
  0
DICTIONARY
  5
8BF
330
2
100
AcDbDictionary
280
     1
281
     1
  3
ACAD_LAYERSTATES
360
8C0
  0
DICTIONARY
  5
A60
330
F
100
AcDbDictionary
280
     1
281
     1
  3
ADSK_XREC_LAYER_RECONCILED
360
A61
  0
DICTIONARY
  5
A66
330
34
100
AcDbDictionary
280
     1
281
     1
  3
ADSK_XREC_LAYER_RECONCILED
360
A67
  0
DICTIONARY
  5
A6E
330
2F4
100
AcDbDictionary
280
     1
281
     1
  3
ADSK_XREC_LAYER_RECONCILED
360
A6F
  0
DICTIONARY
  5
A72
330
305
100
AcDbDictionary
280
     1
281
     1
  3
ADSK_XREC_LAYER_RECONCILED
360
A73
  0
DICTIONARY
  5
143F
330
18
100
AcDbDictionary
280
     1
281
     1
  3
ACAD_SORTENTS
360
1440
  0
DICTIONARY
  5
14A9BE
102
{ACAD_REACTORS
330
C
102
}
330
C
100
AcDbDictionary
281
     1
  0
DICTIONARY
  5
D
102
{ACAD_REACTORS
330
C
102
}
330
C
100
AcDbDictionary
281
     1
  0
RASTERVARIABLES
  5
1418FE
102
{ACAD_REACTORS
330
C
102
}
330
C
100
AcDbRasterVariables
 90
        0
 70
     1
 71
     1
 72
     0
  0
DICTIONARY
  5
617
102
{ACAD_REACTORS
330
C
102
}
330
C
100
AcDbDictionary
281
     1
  3
Model
350
619
  3
ﾚｲｱｳﾄ1
350
61A
  0
DICTIONARY
  5
14A994
102
{ACAD_REACTORS
330
C
102
}
330
C
100
AcDbDictionary
281
     1
  3
ByBlock
350
14A99D
  3
ByLayer
350
14A995
  3
Global
350
14A9A5
  0
DICTIONARY
  5
14A9C1
102
{ACAD_REACTORS
330
C
102
}
330
C
100
AcDbDictionary
281
     1
  3
Standard
350
14A9C2
  0
DICTIONARY
  5
E
102
{ACAD_REACTORS
330
C
102
}
330
C
100
AcDbDictionary
281
     1
  3
STANDARD
350
1B
  0
DICTIONARY
  5
618
102
{ACAD_REACTORS
330
C
102
}
330
C
100
AcDbDictionary
281
     1
  0
ACDBDICTIONARYWDFLT
  5
615
102
{ACAD_REACTORS
330
C
102
}
330
C
100
AcDbDictionary
281
     1
  3
Normal
350
616
100
AcDbDictionaryWithDefault
340
616
  0
DICTIONARY
  5
A36
102
{ACAD_REACTORS
330
C
102
}
330
C
100
AcDbDictionary
281
     1
  3
A0
350
A37
  3
A1
350
A38
  3
A2
350
A39
  3
A3
350
A3A
  3
A4
350
A3B
  3
A5
350
A3C
  3
A6
350
A3D
  3
A7
350
A3E
  3
A8
350
A3F
  3
A9
350
A40
  3
B0
350
A41
  3
B1
350
A42
  3
B2
350
A43
  3
B3
350
A44
  3
B4
350
A45
  3
B5
350
A46
  3
B6
350
A47
  3
B7
350
A48
  3
B8
350
A49
  3
B9
350
A4A
  3
C0
350
A4B
  3
C1
350
A4C
  3
C2
350
A4D
  3
C3
350
A4E
  3
C4
350
A4F
  3
C5
350
A50
  3
C6
350
A51
  3
C7
350
A52
  3
C8
350
A53
  3
C9
350
A54
  3
D0
350
A55
  3
D1
350
A56
  3
D2
350
A57
  0
DICTIONARY
  5
14A9BF
102
{ACAD_REACTORS
330
C
102
}
330
C
100
AcDbDictionary
281
     1
  3
Standard
350
14A9C0
  0
DICTIONARY
  5
14A9AD
102
{ACAD_REACTORS
330
C
102
}
330
C
100
AcDbDictionary
281
     1
  3
2dWireframe
350
14A9B3
  3
3D Hidden
350
14A9B5
  3
3dWireframe
350
14A9B4
  3
Basic
350
14A9B2
  3
Brighten
350
14A9B9
  3
ColorChange
350
14A9BD
  3
Conceptual
350
14A9B6
  3
Dim
350
14A9B8
  3
Facepattern
350
14A9BC
  3
Flat
350
14A9AE
  3
FlatWithEdges
350
14A9AF
  3
Gouraud
350
14A9B0
  3
GouraudWithEdges
350
14A9B1
  3
Linepattern
350
14A9BB
  3
Realistic
350
14A9B7
  3
Thicken
350
14A9BA
  0
XRECORD
  5
AB4
102
{ACAD_REACTORS
330
C
102
}
330
C
100
AcDbXrecord
280
     1
 90
   990106
  3
OPEN
 60
     0
 61
     0
 62
     1
 63
     3
 64
     1
 65
     0
 66
     0
 67
     3
 68
     1
 69
     0
 70
     0
 71
     0
 72
     0
 40
0.0
170
     2
  0
XRECORD
  5
14A9D6
102
{ACAD_REACTORS
330
C
102
}
330
C
100
AcDbXrecord
280
     1
 90
        1
330
14A9C0
  0
DICTIONARY
  5
6DE
102
{ACAD_REACTORS
330
C
102
}
330
C
100
AcDbDictionary
281
     1
  3
CANNOSCALE
350
14A9D3
  3
CMLEADERSTYLE
350
14A9D2
  3
CTABLESTYLE
350
14A9D1
  3
DIMASSOC
350
6DF
  3
INDEXCTL
350
A93
  3
PROJECTNAME
350
6E0
  3
SORTENTS
350
A92
  0
DICTIONARY
  5
1418FC
102
{ACAD_REACTORS
330
C
102
}
330
C
100
AcDbDictionary
281
     1
  0
XRECORD
  5
14A9D7
102
{ACAD_REACTORS
330
C
102
}
330
C
100
AcDbXrecord
280
     1
  1
DWGPROPS COOKIE
  2

  3

  4

  6

  7

  8
SPAX
  9

300
=
301
=
302
=
303
=
304
=
305
=
306
=
307
=
308
=
309
=
 40
49.56609223379629
 41
2448636.61962963
 42
2457455.740734526
  1

 90
        0
  0
DICTIONARY
  5
8C0
102
{ACAD_REACTORS
330
8BF
102
}
330
8BF
100
AcDbDictionary
281
     1
  0
XRECORD
  5
A61
102
{ACAD_REACTORS
330
A60
102
}
330
A60
100
AcDbXrecord
280
     1
290
     1
  0
XRECORD
  5
A67
102
{ACAD_REACTORS
330
A66
102
}
330
A66
100
AcDbXrecord
280
     1
290
     1
  0
XRECORD
  5
A6F
102
{ACAD_REACTORS
330
A6E
102
}
330
A6E
100
AcDbXrecord
280
     1
290
     1
  0
XRECORD
  5
A73
102
{ACAD_REACTORS
330
A72
102
}
330
A72
100
AcDbXrecord
280
     1
290
     1
  0
SORTENTSTABLE
  5
1440
102
{ACAD_REACTORS
330
143F
102
}
330
143F
100
AcDbSortentsTable
330
18
331
F6D78
  5
F6D78
331
F6D77
  5
F6D77
331
D0CC6
  5
D0CC6
  0
LAYOUT
  5
619
102
{ACAD_XDICTIONARY
360
14A9D8
102
}
102
{ACAD_REACTORS
330
617
102
}
330
617
100
AcDbPlotSettings
  1

  2
JUST PDF 3
  4
A4
  6

 40
3.174999952316283
 41
3.174999952316283
 42
3.175003051757812
 43
3.17498779296875
 44
209.8886566162109
 45
297.0530090332031
 46
14.27171755861507
 47
9.855173074625641
 48
1777.062402268507
 49
-5031.430719632625
140
2302.048057753227
141
-4218.452694216625
142
1.0
143
3.0
 70
 11940
 72
     1
 73
     0
 74
     4
  7
spax form.ctb
 75
     0
147
0.7573896279798037
148
-1777.062402268507
149
5031.430719632625
100
AcDbLayout
  1
Model
 70
     1
 71
     0
 10
0.0
 20
0.0
 11
12.0
 21
9.0
 12
0.0
 22
0.0
 32
0.0
 14
1199.999997530543
 24
-5031.430719632625
 34
-0.0000000000000142
 15
2302.048059196761
 25
-4218.452694216625
 35
0.0000000000000271
146
0.0
 13
0.0
 23
0.0
 33
0.0
 16
1.0
 26
0.0
 36
0.0
 17
0.0
 27
1.0
 37
0.0
 76
     0
330
18
331
A0C
1001
ACAD_PSEXT
1000
JUST PDF 3
1000
JUST PDF 3
1000
JUST PDF 3 Port:
1000

1070
     0
  0
LAYOUT
  5
61A
102
{ACAD_XDICTIONARY
360
14A9DA
102
}
102
{ACAD_REACTORS
330
617
102
}
330
617
100
AcDbPlotSettings
  1

  2
Canon LASER SHOT LBP-750
  4

  6

 40
0.0
 41
0.0
 42
0.0
 43
0.0
 44
0.0
 45
0.0
 46
0.0
 47
0.0
 48
0.0
 49
0.0
140
0.0
141
0.0
142
1.0
143
1.0
 70
   688
 72
     0
 73
     0
 74
     5
  7
spax form.ctb
 75
    16
147
1.0
148
0.0
149
0.0
100
AcDbLayout
  1
ﾚｲｱｳﾄ1
 70
     0
 71
     1
 10
0.0
 20
0.0
 11
0.0
 21
0.0
 12
0.0
 22
0.0
 32
0.0
 14
1.000000000000000E+20
 24
1.000000000000000E+20
 34
1.000000000000000E+20
 15
-1.000000000000000E+20
 25
-1.000000000000000E+20
 35
-1.000000000000000E+20
146
0.0
 13
0.0
 23
0.0
 33
0.0
 16
1.0
 26
0.0
 36
0.0
 17
0.0
 27
1.0
 37
0.0
 76
     0
330
15
  0
MATERIAL
  5
14A99D
102
{ACAD_XDICTIONARY
360
14A99E
102
}
102
{ACAD_REACTORS
330
14A994
102
}
330
14A994
100
AcDbMaterial
  1
ByBlock
 72
     0
 43
0.0208333333333333
 43
0.0
 43
0.0
 43
0.0
 43
0.0
 43
0.0208333333333333
 43
0.0
 43
0.0
 43
0.0
 43
0.0
 43
1.0
 43
0.0
 43
0.0
 43
0.0
 43
0.0
 43
1.0
 77
     0
 47
0.0208333333333333
 47
0.0
 47
0.0
 47
0.0
 47
0.0
 47
0.0208333333333333
 47
0.0
 47
0.0
 47
0.0
 47
0.0
 47
1.0
 47
0.0
 47
0.0
 47
0.0
 47
0.0
 47
1.0
171
     0
 49
0.0208333333333333
 49
0.0
 49
0.0
 49
0.0
 49
0.0
 49
0.0208333333333333
 49
0.0
 49
0.0
 49
0.0
 49
0.0
 49
1.0
 49
0.0
 49
0.0
 49
0.0
 49
0.0
 49
1.0
175
     0
142
0.0208333333333333
142
0.0
142
0.0
142
0.0
142
0.0
142
0.0208333333333333
142
0.0
142
0.0
142
0.0
142
0.0
142
1.0
142
0.0
142
0.0
142
0.0
142
0.0
142
1.0
179
     0
144
0.0208333333333333
144
0.0
144
0.0
144
0.0
144
0.0
144
0.0208333333333333
144
0.0
144
0.0
144
0.0
144
0.0
144
1.0
144
0.0
144
0.0
144
0.0
144
0.0
144
1.0
147
0.0208333333333333
147
0.0
147
0.0
147
0.0
147
0.0
147
0.0208333333333333
147
0.0
147
0.0
147
0.0
147
0.0
147
1.0
147
0.0
147
0.0
147
0.0
147
0.0
147
1.0
  0
MATERIAL
  5
14A995
102
{ACAD_XDICTIONARY
360
14A996
102
}
102
{ACAD_REACTORS
330
14A994
102
}
330
14A994
100
AcDbMaterial
  1
ByLayer
 72
     0
 43
0.0208333333333333
 43
0.0
 43
0.0
 43
0.0
 43
0.0
 43
0.0208333333333333
 43
0.0
 43
0.0
 43
0.0
 43
0.0
 43
1.0
 43
0.0
 43
0.0
 43
0.0
 43
0.0
 43
1.0
 77
     0
 47
0.0208333333333333
 47
0.0
 47
0.0
 47
0.0
 47
0.0
 47
0.0208333333333333
 47
0.0
 47
0.0
 47
0.0
 47
0.0
 47
1.0
 47
0.0
 47
0.0
 47
0.0
 47
0.0
 47
1.0
171
     0
 49
0.0208333333333333
 49
0.0
 49
0.0
 49
0.0
 49
0.0
 49
0.0208333333333333
 49
0.0
 49
0.0
 49
0.0
 49
0.0
 49
1.0
 49
0.0
 49
0.0
 49
0.0
 49
0.0
 49
1.0
175
     0
142
0.0208333333333333
142
0.0
142
0.0
142
0.0
142
0.0
142
0.0208333333333333
142
0.0
142
0.0
142
0.0
142
0.0
142
1.0
142
0.0
142
0.0
142
0.0
142
0.0
142
1.0
179
     0
144
0.0208333333333333
144
0.0
144
0.0
144
0.0
144
0.0
144
0.0208333333333333
144
0.0
144
0.0
144
0.0
144
0.0
144
1.0
144
0.0
144
0.0
144
0.0
144
0.0
144
1.0
147
0.0208333333333333
147
0.0
147
0.0
147
0.0
147
0.0
147
0.0208333333333333
147
0.0
147
0.0
147
0.0
147
0.0
147
1.0
147
0.0
147
0.0
147
0.0
147
0.0
147
1.0
  0
MATERIAL
  5
14A9A5
102
{ACAD_XDICTIONARY
360
14A9A6
102
}
102
{ACAD_REACTORS
330
14A994
102
}
330
14A994
100
AcDbMaterial
  1
Global
 72
     0
 43
0.0208333333333333
 43
0.0
 43
0.0
 43
0.0
 43
0.0
 43
0.0208333333333333
 43
0.0
 43
0.0
 43
0.0
 43
0.0
 43
1.0
 43
0.0
 43
0.0
 43
0.0
 43
0.0
 43
1.0
 77
     0
 47
0.0208333333333333
 47
0.0
 47
0.0
 47
0.0
 47
0.0
 47
0.0208333333333333
 47
0.0
 47
0.0
 47
0.0
 47
0.0
 47
1.0
 47
0.0
 47
0.0
 47
0.0
 47
0.0
 47
1.0
171
     0
 49
0.0208333333333333
 49
0.0
 49
0.0
 49
0.0
 49
0.0
 49
0.0208333333333333
 49
0.0
 49
0.0
 49
0.0
 49
0.0
 49
1.0
 49
0.0
 49
0.0
 49
0.0
 49
0.0
 49
1.0
175
     0
142
0.0208333333333333
142
0.0
142
0.0
142
0.0
142
0.0
142
0.0208333333333333
142
0.0
142
0.0
142
0.0
142
0.0
142
1.0
142
0.0
142
0.0
142
0.0
142
0.0
142
1.0
179
     0
144
0.0208333333333333
144
0.0
144
0.0
144
0.0
144
0.0
144
0.0208333333333333
144
0.0
144
0.0
144
0.0
144
0.0
144
1.0
144
0.0
144
0.0
144
0.0
144
0.0
144
1.0
147
0.0208333333333333
147
0.0
147
0.0
147
0.0
147
0.0
147
0.0208333333333333
147
0.0
147
0.0
147
0.0
147
0.0
147
1.0
147
0.0
147
0.0
147
0.0
147
0.0
147
1.0
  0
MLEADERSTYLE
  5
14A9C2
102
{ACAD_REACTORS
330
14A9C1
102
}
330
14A9C1
100
AcDbMLeaderStyle
170
     2
171
     1
172
     0
 90
        2
 40
0.0
 41
0.0
173
     1
 91
-1056964608
340
12
 92
       -2
290
     1
 42
0.09
291
     1
 43
0.36
  3
Standard
 44
0.18
300

342
10
174
     1
178
     6
175
     1
176
     0
 93
-1056964608
 45
0.18
292
     0
297
     0
 46
0.18
 94
-1056964608
 47
1.0
 49
1.0
140
1.0
293
     1
141
0.0
294
     1
177
     0
142
1.0
295
     0
296
     0
143
0.125
1001
ACAD_MLEADERVER
1070
     2
  0
MLINESTYLE
  5
1B
102
{ACAD_REACTORS
330
E
102
}
330
E
100
AcDbMlineStyle
  2
STANDARD
 70
     0
  3

 62
     0
 51
90.0
 52
90.0
 71
     2
 49
0.5
 62
   256
  6
BYLAYER
 49
-0.5
 62
   256
  6
BYLAYER
  0
ACDBPLACEHOLDER
  5
616
102
{ACAD_REACTORS
330
615
102
}
330
615
  0
SCALE
  5
A37
102
{ACAD_REACTORS
330
A36
102
}
330
A36
100
AcDbScale
 70
     0
300
1:1
140
1.0
141
1.0
290
     1
  0
SCALE
  5
A38
102
{ACAD_REACTORS
330
A36
102
}
330
A36
100
AcDbScale
 70
     0
300
1:2
140
1.0
141
2.0
290
     0
  0
SCALE
  5
A39
102
{ACAD_REACTORS
330
A36
102
}
330
A36
100
AcDbScale
 70
     0
300
1:4
140
1.0
141
4.0
290
     0
  0
SCALE
  5
A3A
102
{ACAD_REACTORS
330
A36
102
}
330
A36
100
AcDbScale
 70
     0
300
1:5
140
1.0
141
5.0
290
     0
  0
SCALE
  5
A3B
102
{ACAD_REACTORS
330
A36
102
}
330
A36
100
AcDbScale
 70
     0
300
1:8
140
1.0
141
8.0
290
     0
  0
SCALE
  5
A3C
102
{ACAD_REACTORS
330
A36
102
}
330
A36
100
AcDbScale
 70
     0
300
1:10
140
1.0
141
10.0
290
     0
  0
SCALE
  5
A3D
102
{ACAD_REACTORS
330
A36
102
}
330
A36
100
AcDbScale
 70
     0
300
1:16
140
1.0
141
16.0
290
     0
  0
SCALE
  5
A3E
102
{ACAD_REACTORS
330
A36
102
}
330
A36
100
AcDbScale
 70
     0
300
1:20
140
1.0
141
20.0
290
     0
  0
SCALE
  5
A3F
102
{ACAD_REACTORS
330
A36
102
}
330
A36
100
AcDbScale
 70
     0
300
1:30
140
1.0
141
30.0
290
     0
  0
SCALE
  5
A40
102
{ACAD_REACTORS
330
A36
102
}
330
A36
100
AcDbScale
 70
     0
300
1:40
140
1.0
141
40.0
290
     0
  0
SCALE
  5
A41
102
{ACAD_REACTORS
330
A36
102
}
330
A36
100
AcDbScale
 70
     0
300
1:50
140
1.0
141
50.0
290
     0
  0
SCALE
  5
A42
102
{ACAD_REACTORS
330
A36
102
}
330
A36
100
AcDbScale
 70
     0
300
1:100
140
1.0
141
100.0
290
     0
  0
SCALE
  5
A43
102
{ACAD_REACTORS
330
A36
102
}
330
A36
100
AcDbScale
 70
     0
300
2:1
140
2.0
141
1.0
290
     0
  0
SCALE
  5
A44
102
{ACAD_REACTORS
330
A36
102
}
330
A36
100
AcDbScale
 70
     0
300
4:1
140
4.0
141
1.0
290
     0
  0
SCALE
  5
A45
102
{ACAD_REACTORS
330
A36
102
}
330
A36
100
AcDbScale
 70
     0
300
8:1
140
8.0
141
1.0
290
     0
  0
SCALE
  5
A46
102
{ACAD_REACTORS
330
A36
102
}
330
A36
100
AcDbScale
 70
     0
300
10:1
140
10.0
141
1.0
290
     0
  0
SCALE
  5
A47
102
{ACAD_REACTORS
330
A36
102
}
330
A36
100
AcDbScale
 70
     0
300
100:1
140
100.0
141
1.0
290
     0
  0
SCALE
  5
A48
102
{ACAD_REACTORS
330
A36
102
}
330
A36
100
AcDbScale
 70
     0
300
1/128" = 1'-0"
140
0.0078125
141
12.0
290
     0
  0
SCALE
  5
A49
102
{ACAD_REACTORS
330
A36
102
}
330
A36
100
AcDbScale
 70
     0
300
1/64" = 1'-0"
140
0.015625
141
12.0
290
     0
  0
SCALE
  5
A4A
102
{ACAD_REACTORS
330
A36
102
}
330
A36
100
AcDbScale
 70
     0
300
1/32" = 1'-0"
140
0.03125
141
12.0
290
     0
  0
SCALE
  5
A4B
102
{ACAD_REACTORS
330
A36
102
}
330
A36
100
AcDbScale
 70
     0
300
1/16" = 1'-0"
140
0.0625
141
12.0
290
     0
  0
SCALE
  5
A4C
102
{ACAD_REACTORS
330
A36
102
}
330
A36
100
AcDbScale
 70
     0
300
3/32" = 1'-0"
140
0.09375
141
12.0
290
     0
  0
SCALE
  5
A4D
102
{ACAD_REACTORS
330
A36
102
}
330
A36
100
AcDbScale
 70
     0
300
1/8" = 1'-0"
140
0.125
141
12.0
290
     0
  0
SCALE
  5
A4E
102
{ACAD_REACTORS
330
A36
102
}
330
A36
100
AcDbScale
 70
     0
300
3/16" = 1'-0"
140
0.1875
141
12.0
290
     0
  0
SCALE
  5
A4F
102
{ACAD_REACTORS
330
A36
102
}
330
A36
100
AcDbScale
 70
     0
300
1/4" = 1'-0"
140
0.25
141
12.0
290
     0
  0
SCALE
  5
A50
102
{ACAD_REACTORS
330
A36
102
}
330
A36
100
AcDbScale
 70
     0
300
3/8" = 1'-0"
140
0.375
141
12.0
290
     0
  0
SCALE
  5
A51
102
{ACAD_REACTORS
330
A36
102
}
330
A36
100
AcDbScale
 70
     0
300
1/2" = 1'-0"
140
0.5
141
12.0
290
     0
  0
SCALE
  5
A52
102
{ACAD_REACTORS
330
A36
102
}
330
A36
100
AcDbScale
 70
     0
300
3/4" = 1'-0"
140
0.75
141
12.0
290
     0
  0
SCALE
  5
A53
102
{ACAD_REACTORS
330
A36
102
}
330
A36
100
AcDbScale
 70
     0
300
1" = 1'-0"
140
1.0
141
12.0
290
     0
  0
SCALE
  5
A54
102
{ACAD_REACTORS
330
A36
102
}
330
A36
100
AcDbScale
 70
     0
300
1-1/2" = 1'-0"
140
1.5
141
12.0
290
     0
  0
SCALE
  5
A55
102
{ACAD_REACTORS
330
A36
102
}
330
A36
100
AcDbScale
 70
     0
300
3" = 1'-0"
140
3.0
141
12.0
290
     0
  0
SCALE
  5
A56
102
{ACAD_REACTORS
330
A36
102
}
330
A36
100
AcDbScale
 70
     0
300
6" = 1'-0"
140
6.0
141
12.0
290
     0
  0
SCALE
  5
A57
102
{ACAD_REACTORS
330
A36
102
}
330
A36
100
AcDbScale
 70
     0
300
1'-0" = 1'-0"
140
12.0
141
12.0
290
     0
  0
TABLESTYLE
  5
14A9C0
102
{ACAD_XDICTIONARY
360
14A9D4
102
}
102
{ACAD_REACTORS
330
14A9BF
102
}
330
14A9BF
100
AcDbTableStyle
  3
Standard
 70
     0
 71
     0
 40
0.06
 41
0.06
280
     0
281
     0
  7
STANDARD
140
0.18
170
     2
 62
     0
 63
     7
283
     0
274
    -2
284
     1
 64
     0
275
    -2
285
     1
 65
     0
276
    -2
286
     1
 66
     0
277
    -2
287
     1
 67
     0
278
    -2
288
     1
 68
     0
279
    -2
289
     1
 69
     0
  7
STANDARD
140
0.25
170
     5
 62
     0
 63
     7
283
     0
274
    -2
284
     1
 64
     0
275
    -2
285
     1
 65
     0
276
    -2
286
     1
 66
     0
277
    -2
287
     1
 67
     0
278
    -2
288
     1
 68
     0
279
    -2
289
     1
 69
     0
  7
STANDARD
140
0.18
170
     5
 62
     0
 63
     7
283
     0
274
    -2
284
     1
 64
     0
275
    -2
285
     1
 65
     0
276
    -2
286
     1
 66
     0
277
    -2
287
     1
 67
     0
278
    -2
288
     1
 68
     0
279
    -2
289
     1
 69
     0
  0
VISUALSTYLE
  5
14A9B3
102
{ACAD_REACTORS
330
14A9AD
102
}
330
14A9AD
100
AcDbVisualStyle
  2
2dWireframe
 70
     4
 71
     0
 72
     2
 73
     0
 90
        0
 40
-0.6
 41
-30.0
 62
     5
 63
     7
 74
     1
 91
        4
 64
     7
 65
   257
 75
     1
175
     1
 42
1.0
 92
        0
 66
   257
 43
1.0
 76
     1
 77
     6
 78
     2
 67
     7
 79
     5
170
     0
171
     0
290
     0
174
     0
 93
        1
 44
0.0
173
     0
291
     0
 45
0.0
1001
ACAD
1000
AcDbSavedByObjectVersion
1070
     0
  0
VISUALSTYLE
  5
14A9B5
102
{ACAD_REACTORS
330
14A9AD
102
}
330
14A9AD
100
AcDbVisualStyle
  2
3D Hidden
 70
     6
 71
     1
 72
     2
 73
     2
 90
        0
 40
-0.6
 41
-30.0
 62
     5
 63
     7
 74
     2
 91
        2
 64
     7
 65
   257
 75
     2
175
     1
 42
40.0
 92
        0
 66
   257
 43
1.0
 76
     1
 77
     6
 78
     2
 67
     7
 79
     3
170
     0
171
     0
290
     0
174
     0
 93
        1
 44
0.0
173
     0
291
     0
 45
0.0
1001
ACAD
1000
AcDbSavedByObjectVersion
1070
     0
  0
VISUALSTYLE
  5
14A9B4
102
{ACAD_REACTORS
330
14A9AD
102
}
330
14A9AD
100
AcDbVisualStyle
  2
3dWireframe
 70
     5
 71
     0
 72
     2
 73
     0
 90
        0
 40
-0.6
 41
-30.0
 62
     5
 63
     7
 74
     1
 91
        4
 64
     7
 65
   257
 75
     1
175
     1
 42
1.0
 92
        0
 66
   257
 43
1.0
 76
     1
 77
     6
 78
     2
 67
     7
 79
     5
170
     0
171
     0
290
     0
174
     0
 93
        1
 44
0.0
173
     0
291
     0
 45
0.0
1001
ACAD
1000
AcDbSavedByObjectVersion
1070
     0
  0
VISUALSTYLE
  5
14A9B2
102
{ACAD_REACTORS
330
14A9AD
102
}
330
14A9AD
100
AcDbVisualStyle
  2
Basic
 70
     7
 71
     1
 72
     0
 73
     1
 90
        0
 40
-0.6
 41
-30.0
 62
     5
 63
     7
 74
     0
 91
        4
 64
     7
 65
   257
 75
     1
175
     1
 42
1.0
 92
        8
 66
     7
 43
1.0
 76
     1
 77
     6
 78
     2
 67
     7
 79
     5
170
     0
171
     0
290
     0
174
     0
 93
        1
 44
0.0
173
     0
291
     1
 45
0.0
1001
ACAD
1000
AcDbSavedByObjectVersion
1070
     0
  0
VISUALSTYLE
  5
14A9B9
102
{ACAD_REACTORS
330
14A9AD
102
}
330
14A9AD
100
AcDbVisualStyle
  2
Brighten
 70
    12
 71
     2
 72
     2
 73
     0
 90
        0
 40
-0.6
 41
-30.0
 62
     5
 63
     7
 74
     1
 91
        4
 64
     7
 65
   257
 75
     1
175
     1
 42
1.0
 92
        8
 66
     7
 43
1.0
 76
     1
 77
     6
 78
     2
 67
     7
 79
     5
170
     0
171
     0
290
     0
174
     0
 93
        1
 44
50.0
173
     0
291
     1
 45
0.0
1001
ACAD
1000
AcDbSavedByObjectVersion
1070
     0
  0
VISUALSTYLE
  5
14A9BD
102
{ACAD_REACTORS
330
14A9AD
102
}
330
14A9AD
100
AcDbVisualStyle
  2
ColorChange
 70
    16
 71
     2
 72
     2
 73
     3
 90
        0
 40
-0.6
 41
-30.0
 62
     5
 63
     8
 74
     1
 91
        4
 64
     7
 65
   257
 75
     1
175
     1
 42
1.0
 92
        8
 66
     8
 43
1.0
 76
     1
 77
     6
 78
     2
 67
     7
 79
     5
170
     0
171
     0
290
     0
174
     0
 93
        1
 44
0.0
173
     0
291
     1
 45
0.0
1001
ACAD
1000
AcDbSavedByObjectVersion
1070
     0
  0
VISUALSTYLE
  5
14A9B6
102
{ACAD_REACTORS
330
14A9AD
102
}
330
14A9AD
100
AcDbVisualStyle
  2
Conceptual
 70
     9
 71
     3
 72
     2
 73
     0
 90
        0
 40
-0.6
 41
-30.0
 62
     5
 63
     7
 74
     2
 91
        2
 64
     7
 65
   257
 75
     1
175
     1
 42
40.0
 92
        8
 66
     7
 43
1.0
 76
     1
 77
     6
 78
     2
 67
     7
 79
     3
170
     0
171
     0
290
     0
174
     0
 93
        1
 44
0.0
173
     0
291
     0
 45
0.0
1001
ACAD
1000
AcDbSavedByObjectVersion
1070
     0
  0
VISUALSTYLE
  5
14A9B8
102
{ACAD_REACTORS
330
14A9AD
102
}
330
14A9AD
100
AcDbVisualStyle
  2
Dim
 70
    11
 71
     2
 72
     2
 73
     0
 90
        0
 40
-0.6
 41
-30.0
 62
     5
 63
     7
 74
     1
 91
        4
 64
     7
 65
   257
 75
     1
175
     1
 42
1.0
 92
        8
 66
     7
 43
1.0
 76
     1
 77
     6
 78
     2
 67
     7
 79
     5
170
     0
171
     0
290
     0
174
     0
 93
        1
 44
-50.0
173
     0
291
     1
 45
0.0
1001
ACAD
1000
AcDbSavedByObjectVersion
1070
     0
  0
VISUALSTYLE
  5
14A9BC
102
{ACAD_REACTORS
330
14A9AD
102
}
330
14A9AD
100
AcDbVisualStyle
  2
Facepattern
 70
    15
 71
     2
 72
     2
 73
     0
 90
        0
 40
-0.6
 41
-30.0
 62
     5
 63
     7
 74
     1
 91
        4
 64
     7
 65
   257
 75
     1
175
     1
 42
1.0
 92
        8
 66
     7
 43
1.0
 76
     1
 77
     6
 78
     2
 67
     7
 79
     5
170
     0
171
     0
290
     0
174
     0
 93
        1
 44
0.0
173
     0
291
     1
 45
0.0
1001
ACAD
1000
AcDbSavedByObjectVersion
1070
     0
  0
VISUALSTYLE
  5
14A9AE
102
{ACAD_REACTORS
330
14A9AD
102
}
330
14A9AD
100
AcDbVisualStyle
  2
Flat
 70
     0
 71
     2
 72
     1
 73
     1
 90
        2
 40
-0.6
 41
30.0
 62
     5
 63
     7
 74
     0
 91
        4
 64
     7
 65
   257
 75
     1
175
     1
 42
1.0
 92
        8
 66
     7
 43
1.0
 76
     1
 77
     6
 78
     2
 67
     7
 79
     5
170
     0
171
     0
290
     0
174
     0
 93
       13
 44
0.0
173
     0
291
     1
 45
0.0
1001
ACAD
1000
AcDbSavedByObjectVersion
1070
     0
  0
VISUALSTYLE
  5
14A9AF
102
{ACAD_REACTORS
330
14A9AD
102
}
330
14A9AD
100
AcDbVisualStyle
  2
FlatWithEdges
 70
     1
 71
     2
 72
     1
 73
     1
 90
        2
 40
-0.6
 41
30.0
 62
     5
 63
     7
 74
     1
 91
        4
 64
     7
 65
   257
 75
     1
175
     1
 42
1.0
 92
        0
 66
   257
 43
1.0
 76
     1
 77
     6
 78
     2
 67
     7
 79
     5
170
     0
171
     0
290
     0
174
     0
 93
       13
 44
0.0
173
     0
291
     1
 45
0.0
1001
ACAD
1000
AcDbSavedByObjectVersion
1070
     0
  0
VISUALSTYLE
  5
14A9B0
102
{ACAD_REACTORS
330
14A9AD
102
}
330
14A9AD
100
AcDbVisualStyle
  2
Gouraud
 70
     2
 71
     2
 72
     2
 73
     1
 90
        2
 40
-0.6
 41
30.0
 62
     5
 63
     7
 74
     0
 91
        4
 64
     7
 65
   257
 75
     1
175
     1
 42
1.0
 92
        0
 66
     7
 43
1.0
 76
     1
 77
     6
 78
     2
 67
     7
 79
     5
170
     0
171
     0
290
     0
174
     0
 93
       13
 44
0.0
173
     0
291
     1
 45
0.0
1001
ACAD
1000
AcDbSavedByObjectVersion
1070
     0
  0
VISUALSTYLE
  5
14A9B1
102
{ACAD_REACTORS
330
14A9AD
102
}
330
14A9AD
100
AcDbVisualStyle
  2
GouraudWithEdges
 70
     3
 71
     2
 72
     2
 73
     1
 90
        2
 40
-0.6
 41
30.0
 62
     5
 63
     7
 74
     1
 91
        4
 64
     7
 65
   257
 75
     1
175
     1
 42
1.0
 92
        0
 66
   257
 43
1.0
 76
     1
 77
     6
 78
     2
 67
     7
 79
     5
170
     0
171
     0
290
     0
174
     0
 93
       13
 44
0.0
173
     0
291
     1
 45
0.0
1001
ACAD
1000
AcDbSavedByObjectVersion
1070
     0
  0
VISUALSTYLE
  5
14A9BB
102
{ACAD_REACTORS
330
14A9AD
102
}
330
14A9AD
100
AcDbVisualStyle
  2
Linepattern
 70
    14
 71
     2
 72
     2
 73
     0
 90
        0
 40
-0.6
 41
-30.0
 62
     5
 63
     7
 74
     1
 91
        4
 64
     7
 65
   257
 75
     7
175
     7
 42
1.0
 92
        8
 66
     7
 43
1.0
 76
     1
 77
     6
 78
     2
 67
     7
 79
     5
170
     0
171
     0
290
     0
174
     0
 93
        1
 44
0.0
173
     0
291
     1
 45
0.0
1001
ACAD
1000
AcDbSavedByObjectVersion
1070
     0
  0
VISUALSTYLE
  5
14A9B7
102
{ACAD_REACTORS
330
14A9AD
102
}
330
14A9AD
100
AcDbVisualStyle
  2
Realistic
 70
     8
 71
     2
 72
     2
 73
     0
 90
        0
 40
-0.6
 41
-30.0
 62
     5
 63
     7
 74
     1
 91
        0
 64
     7
 65
   257
 75
     1
175
     1
 42
1.0
 92
        8
 66
     8
 43
1.0
 76
     1
 77
     6
 78
     2
 67
     7
 79
     5
170
     0
171
     0
290
     0
174
     0
 93
       13
 44
0.0
173
     0
291
     0
 45
0.0
1001
ACAD
1000
AcDbSavedByObjectVersion
1070
     0
  0
VISUALSTYLE
  5
14A9BA
102
{ACAD_REACTORS
330
14A9AD
102
}
330
14A9AD
100
AcDbVisualStyle
  2
Thicken
 70
    13
 71
     2
 72
     2
 73
     0
 90
        0
 40
-0.6
 41
-30.0
 62
     5
 63
     7
 74
     1
 91
        4
 64
     7
 65
   257
 75
     1
175
     1
 42
1.0
 92
       12
 66
     7
 43
1.0
 76
     1
 77
     6
 78
     2
 67
     7
 79
     5
170
     0
171
     0
290
     0
174
     0
 93
        1
 44
0.0
173
     0
291
     1
 45
0.0
1001
ACAD
1000
AcDbSavedByObjectVersion
1070
     0
  0
DICTIONARYVAR
  5
14A9D3
102
{ACAD_REACTORS
330
6DE
102
}
330
6DE
100
DictionaryVariables
280
     0
  1
1:1
  0
DICTIONARYVAR
  5
14A9D2
102
{ACAD_REACTORS
330
6DE
102
}
330
6DE
100
DictionaryVariables
280
     0
  1
STANDARD
  0
DICTIONARYVAR
  5
14A9D1
102
{ACAD_REACTORS
330
6DE
102
}
330
6DE
100
DictionaryVariables
280
     0
  1
STANDARD
  0
DICTIONARYVAR
  5
6DF
102
{ACAD_REACTORS
330
6DE
102
}
330
6DE
100
DictionaryVariables
280
     0
  1
1
  0
DICTIONARYVAR
  5
A93
102
{ACAD_REACTORS
330
6DE
102
}
330
6DE
100
DictionaryVariables
280
     0
  1
0
  0
DICTIONARYVAR
  5
6E0
102
{ACAD_REACTORS
330
6DE
102
}
330
6DE
100
DictionaryVariables
280
     0
  1

  0
DICTIONARYVAR
  5
A92
102
{ACAD_REACTORS
330
6DE
102
}
330
6DE
100
DictionaryVariables
280
     0
  1
127
  0
DICTIONARY
  5
14A9D8
330
619
100
AcDbDictionary
280
     1
281
     1
  3
ACAD_XREC_ROUNDTRIP
360
14A9D9
  0
DICTIONARY
  5
14A9DA
330
61A
100
AcDbDictionary
280
     1
281
     1
  3
ACAD_XREC_ROUNDTRIP
360
14A9DB
  0
DICTIONARY
  5
14A99E
330
14A99D
100
AcDbDictionary
280
     1
281
     1
  3
ACAD_XREC_ROUNDTRIP
360
14A9DD
  3
BUMPTILE
360
14A9A0
  3
DIFFUSETILE
360
14A99F
  3
OPACITYTILE
360
14A9A3
  3
REFLECTIONTILE
360
14A9A2
  3
REFRACTIONTILE
360
14A9A4
  3
SPECULARTILE
360
14A9A1
  0
DICTIONARY
  5
14A996
330
14A995
100
AcDbDictionary
280
     1
281
     1
  3
ACAD_XREC_ROUNDTRIP
360
14A9DC
  3
BUMPTILE
360
14A998
  3
DIFFUSETILE
360
14A997
  3
OPACITYTILE
360
14A99B
  3
REFLECTIONTILE
360
14A99A
  3
REFRACTIONTILE
360
14A99C
  3
SPECULARTILE
360
14A999
  0
DICTIONARY
  5
14A9A6
330
14A9A5
100
AcDbDictionary
280
     1
281
     1
  3
ACAD_XREC_ROUNDTRIP
360
14A9DE
  3
BUMPTILE
360
14A9A8
  3
DIFFUSETILE
360
14A9A7
  3
OPACITYTILE
360
14A9AB
  3
REFLECTIONTILE
360
14A9AA
  3
REFRACTIONTILE
360
14A9AC
  3
SPECULARTILE
360
14A9A9
  0
DICTIONARY
  5
14A9D4
330
14A9C0
100
AcDbDictionary
280
     1
281
     1
  3
ACAD_ROUNDTRIP_2008_TABLESTYLE_CELLSTYLEMAP
360
14A9D5
  3
ACAD_XREC_ROUNDTRIP
360
14A9DF
  0
XRECORD
  5
14A9D9
102
{ACAD_REACTORS
330
14A9D8
102
}
330
14A9D8
100
AcDbXrecord
280
     1
102
SHADEPLOT
 70
     0
102
SHADEPLOTRESLEVEL
 70
     2
102
SHADEPLOTCUSTOMDPI
 70
   300
  0
XRECORD
  5
14A9DB
102
{ACAD_REACTORS
330
14A9DA
102
}
330
14A9DA
100
AcDbXrecord
280
     1
102
SHADEPLOT
 70
     0
102
SHADEPLOTRESLEVEL
 70
     2
102
SHADEPLOTCUSTOMDPI
 70
   300
  0
XRECORD
  5
14A9DD
102
{ACAD_REACTORS
330
14A99E
102
}
330
14A99E
100
AcDbXrecord
280
     1
102
MATERIAL
148
0.0
149
0.0
149
0.0
 93
        0
 94
      127
282
     0
 72
     0
 77
     0
171
     0
175
     0
179
     0
273
     0
  0
XRECORD
  5
14A9A0
102
{ACAD_REACTORS
330
14A99E
102
}
330
14A99E
100
AcDbXrecord
280
     1
270
     1
271
     1
  0
XRECORD
  5
14A99F
102
{ACAD_REACTORS
330
14A99E
102
}
330
14A99E
100
AcDbXrecord
280
     1
270
     1
271
     1
  0
XRECORD
  5
14A9A3
102
{ACAD_REACTORS
330
14A99E
102
}
330
14A99E
100
AcDbXrecord
280
     1
270
     1
271
     1
  0
XRECORD
  5
14A9A2
102
{ACAD_REACTORS
330
14A99E
102
}
330
14A99E
100
AcDbXrecord
280
     1
270
     1
271
     1
  0
XRECORD
  5
14A9A4
102
{ACAD_REACTORS
330
14A99E
102
}
330
14A99E
100
AcDbXrecord
280
     1
270
     1
271
     1
  0
XRECORD
  5
14A9A1
102
{ACAD_REACTORS
330
14A99E
102
}
330
14A99E
100
AcDbXrecord
280
     1
270
     1
271
     1
  0
XRECORD
  5
14A9DC
102
{ACAD_REACTORS
330
14A996
102
}
330
14A996
100
AcDbXrecord
280
     1
102
MATERIAL
148
0.0
149
0.0
149
0.0
 93
        0
 94
      127
282
     0
 72
     0
 77
     0
171
     0
175
     0
179
     0
273
     0
  0
XRECORD
  5
14A998
102
{ACAD_REACTORS
330
14A996
102
}
330
14A996
100
AcDbXrecord
280
     1
270
     1
271
     1
  0
XRECORD
  5
14A997
102
{ACAD_REACTORS
330
14A996
102
}
330
14A996
100
AcDbXrecord
280
     1
270
     1
271
     1
  0
XRECORD
  5
14A99B
102
{ACAD_REACTORS
330
14A996
102
}
330
14A996
100
AcDbXrecord
280
     1
270
     1
271
     1
  0
XRECORD
  5
14A99A
102
{ACAD_REACTORS
330
14A996
102
}
330
14A996
100
AcDbXrecord
280
     1
270
     1
271
     1
  0
XRECORD
  5
14A99C
102
{ACAD_REACTORS
330
14A996
102
}
330
14A996
100
AcDbXrecord
280
     1
270
     1
271
     1
  0
XRECORD
  5
14A999
102
{ACAD_REACTORS
330
14A996
102
}
330
14A996
100
AcDbXrecord
280
     1
270
     1
271
     1
  0
XRECORD
  5
14A9DE
102
{ACAD_REACTORS
330
14A9A6
102
}
330
14A9A6
100
AcDbXrecord
280
     1
102
MATERIAL
148
0.0
149
0.0
149
0.0
 93
        0
 94
      127
282
     0
 72
     0
 77
     0
171
     0
175
     0
179
     0
273
     0
  0
XRECORD
  5
14A9A8
102
{ACAD_REACTORS
330
14A9A6
102
}
330
14A9A6
100
AcDbXrecord
280
     1
270
     1
271
     1
  0
XRECORD
  5
14A9A7
102
{ACAD_REACTORS
330
14A9A6
102
}
330
14A9A6
100
AcDbXrecord
280
     1
270
     1
271
     1
  0
XRECORD
  5
14A9AB
102
{ACAD_REACTORS
330
14A9A6
102
}
330
14A9A6
100
AcDbXrecord
280
     1
270
     1
271
     1
  0
XRECORD
  5
14A9AA
102
{ACAD_REACTORS
330
14A9A6
102
}
330
14A9A6
100
AcDbXrecord
280
     1
270
     1
271
     1
  0
XRECORD
  5
14A9AC
102
{ACAD_REACTORS
330
14A9A6
102
}
330
14A9A6
100
AcDbXrecord
280
     1
270
     1
271
     1
  0
XRECORD
  5
14A9A9
102
{ACAD_REACTORS
330
14A9A6
102
}
330
14A9A6
100
AcDbXrecord
280
     1
270
     1
271
     1
  0
CELLSTYLEMAP
  5
14A9D5
102
{ACAD_REACTORS
330
14A9D4
102
}
330
14A9D4
100
AcDbCellStyleMap
 90
        3
300
CELLSTYLE
  1
TABLEFORMAT_BEGIN
 90
        5
170
     1
 91
        0
 92
    32768
 62
   257
 93
        1
300
CONTENTFORMAT
  1
CONTENTFORMAT_BEGIN
 90
        0
 91
        0
 92
      512
 93
        0
300

 40
0.0
140
1.0
 94
        5
 62
     0
340
10
144
0.25
309
CONTENTFORMAT_END
171
     0
 94
        0
309
TABLEFORMAT_END
  1
CELLSTYLE_BEGIN
 90
        1
 91
        1
300
_TITLE
309
CELLSTYLE_END
300
CELLSTYLE
  1
TABLEFORMAT_BEGIN
 90
        5
170
     1
 91
        0
 92
        0
 62
   257
 93
        1
300
CONTENTFORMAT
  1
CONTENTFORMAT_BEGIN
 90
        0
 91
        0
 92
      512
 93
        0
300

 40
0.0
140
1.0
 94
        5
 62
     0
340
10
144
0.18
309
CONTENTFORMAT_END
171
     0
 94
        0
309
TABLEFORMAT_END
  1
CELLSTYLE_BEGIN
 90
        2
 91
        1
300
_HEADER
309
CELLSTYLE_END
300
CELLSTYLE
  1
TABLEFORMAT_BEGIN
 90
        5
170
     1
 91
        0
 92
        0
 62
   257
 93
        1
300
CONTENTFORMAT
  1
CONTENTFORMAT_BEGIN
 90
        0
 91
        0
 92
      512
 93
        0
300

 40
0.0
140
1.0
 94
        2
 62
     0
340
10
144
0.18
309
CONTENTFORMAT_END
171
     0
 94
        0
309
TABLEFORMAT_END
  1
CELLSTYLE_BEGIN
 90
        3
 91
        2
300
_DATA
309
CELLSTYLE_END
  0
XRECORD
  5
14A9DF
102
{ACAD_REACTORS
330
14A9D4
102
}
330
14A9D4
100
AcDbXrecord
280
     1
102
ACAD_ROUNDTRIP_PRE2007_TABLESTYLE
 90
      512
 91
        0
  1

 92
      512
 93
        0
  2

 94
      512
 95
        0
  3

  0
ENDSEC
  0
EOF
