  0
SECTION
  2
HEADER
  9
$ACADVER
  1
AC1015
  9
$ACADMAINTVER
 70
    20
  9
$DWGCODEPAGE
  3
ANSI_932
  9
$INSBASE
 10
0.0
 20
0.0
 30
0.0
  9
$EXTMIN
 10
1750.456438059685
 20
-3612.639011794986
 30
-0.0000000000000241
  9
$EXTMAX
 10
1880.655097239446
 20
-3494.433232967184
 30
0.000000000000037
  9
$LIMMIN
 10
0.0
 20
0.0
  9
$LIMMAX
 10
420.0
 20
297.0
  9
$ORTHOMODE
 70
     1
  9
$REGENMODE
 70
     1
  9
$FILLMODE
 70
     1
  9
$QTEXTMODE
 70
     0
  9
$MIRRTEXT
 70
     1
  9
$LTSCALE
 40
5.0
  9
$ATTMODE
 70
     0
  9
$TEXTSIZE
 40
53.44730959687513
  9
$TRACEWID
 40
1.0
  9
$TEXTSTYLE
  7
STANDARD
  9
$CLAYER
  8
0
  9
$CELTYPE
  6
BYLAYER
  9
$CECOLOR
 62
   256
  9
$CELTSCALE
 40
1.0
  9
$DISPSILH
 70
     0
  9
$DIMSCALE
 40
1.0
  9
$DIMASZ
 40
2.5
  9
$DIMEXO
 40
1.5
  9
$DIMDLI
 40
0.38
  9
$DIMRND
 40
0.0
  9
$DIMDLE
 40
0.0
  9
$DIMEXE
 40
1.0
  9
$DIMTP
 40
0.0
  9
$DIMTM
 40
0.0
  9
$DIMTXT
 40
2.500000000000003
  9
$DIMCEN
 40
0.0
  9
$DIMTSZ
 40
0.0
  9
$DIMTOL
 70
     0
  9
$DIMLIM
 70
     0
  9
$DIMTIH
 70
     0
  9
$DIMTOH
 70
     0
  9
$DIMSE1
 70
     0
  9
$DIMSE2
 70
     0
  9
$DIMTAD
 70
     3
  9
$DIMZIN
 70
     8
  9
$DIMBLK
  1

  9
$DIMASO
 70
     1
  9
$DIMSHO
 70
     0
  9
$DIMPOST
  1

  9
$DIMAPOST
  1

  9
$DIMALT
 70
     0
  9
$DIMALTD
 70
     0
  9
$DIMALTF
 40
25.4
  9
$DIMLFAC
 40
1.0
  9
$DIMTOFL
 70
     1
  9
$DIMTVP
 40
0.0
  9
$DIMTIX
 70
     0
  9
$DIMSOXD
 70
     0
  9
$DIMSAH
 70
     1
  9
$DIMBLK1
  1
OPEN
  9
$DIMBLK2
  1
OPEN
  9
$DIMSTYLE
  2
STANDARD
  9
$DIMCLRD
 70
     8
  9
$DIMCLRE
 70
     8
  9
$DIMCLRT
 70
   256
  9
$DIMTFAC
 40
1.0
  9
$DIMGAP
 40
1.0
  9
$DIMJUST
 70
     0
  9
$DIMSD1
 70
     0
  9
$DIMSD2
 70
     0
  9
$DIMTOLJ
 70
     1
  9
$DIMTZIN
 70
     0
  9
$DIMALTZ
 70
     0
  9
$DIMALTTZ
 70
     0
  9
$DIMUPT
 70
     0
  9
$DIMDEC
 70
     2
  9
$DIMTDEC
 70
     2
  9
$DIMALTU
 70
     2
  9
$DIMALTTD
 70
     0
  9
$DIMTXSTY
  7
STANDARD
  9
$DIMAUNIT
 70
     0
  9
$DIMADEC
 70
     2
  9
$DIMALTRND
 40
0.0
  9
$DIMAZIN
 70
     2
  9
$DIMDSEP
 70
    46
  9
$DIMATFIT
 70
     1
  9
$DIMFRAC
 70
     0
  9
$DIMLDRBLK
  1
OPEN
  9
$DIMLUNIT
 70
     2
  9
$DIMLWD
 70
    -2
  9
$DIMLWE
 70
    -2
  9
$DIMTMOVE
 70
     0
  9
$LUNITS
 70
     2
  9
$LUPREC
 70
     2
  9
$SKETCHINC
 40
0.1
  9
$FILLETRAD
 40
0.33
  9
$AUNITS
 70
     0
  9
$AUPREC
 70
     1
  9
$MENU
  1
FM
  9
$ELEVATION
 40
0.0
  9
$PELEVATION
 40
0.0
  9
$THICKNESS
 40
0.0
  9
$LIMCHECK
 70
     0
  9
$CHAMFERA
 40
0.0
  9
$CHAMFERB
 40
0.0
  9
$CHAMFERC
 40
0.0
  9
$CHAMFERD
 40
0.0
  9
$SKPOLY
 70
     0
  9
$TDCREATE
 40
2448636.619629630
  9
$TDUCREATE
 40
2448636.244629629
  9
$TDUPDATE
 40
2457455.740287419
  9
$TDUUPDATE
 40
2457455.365287419
  9
$TDINDWG
 40
49.3422091088
  9
$TDUSRTIMER
 40
2457455.357524167
  9
$USRTIMER
 70
     1
  9
$ANGBASE
 50
0.0
  9
$ANGDIR
 70
     0
  9
$PDMODE
 70
     3
  9
$PDSIZE
 40
0.0
  9
$PLINEWID
 40
0.0
  9
$SPLFRAME
 70
     0
  9
$SPLINETYPE
 70
     6
  9
$SPLINESEGS
 70
     8
  9
$HANDSEED
  5
15C577
  9
$SURFTAB1
 70
     6
  9
$SURFTAB2
 70
     6
  9
$SURFTYPE
 70
     6
  9
$SURFU
 70
     6
  9
$SURFV
 70
     6
  9
$UCSBASE
  2

  9
$UCSNAME
  2

  9
$UCSORG
 10
0.0
 20
0.0
 30
0.0
  9
$UCSXDIR
 10
1.0
 20
0.0
 30
0.0
  9
$UCSYDIR
 10
0.0
 20
1.0
 30
0.0
  9
$UCSORTHOREF
  2

  9
$UCSORTHOVIEW
 70
     0
  9
$UCSORGTOP
 10
0.0
 20
0.0
 30
0.0
  9
$UCSORGBOTTOM
 10
0.0
 20
0.0
 30
0.0
  9
$UCSORGLEFT
 10
0.0
 20
0.0
 30
0.0
  9
$UCSORGRIGHT
 10
0.0
 20
0.0
 30
0.0
  9
$UCSORGFRONT
 10
0.0
 20
0.0
 30
0.0
  9
$UCSORGBACK
 10
0.0
 20
0.0
 30
0.0
  9
$PUCSBASE
  2

  9
$PUCSNAME
  2

  9
$PUCSORG
 10
0.0
 20
0.0
 30
0.0
  9
$PUCSXDIR
 10
1.0
 20
0.0
 30
0.0
  9
$PUCSYDIR
 10
0.0
 20
1.0
 30
0.0
  9
$PUCSORTHOREF
  2

  9
$PUCSORTHOVIEW
 70
     0
  9
$PUCSORGTOP
 10
0.0
 20
0.0
 30
0.0
  9
$PUCSORGBOTTOM
 10
0.0
 20
0.0
 30
0.0
  9
$PUCSORGLEFT
 10
0.0
 20
0.0
 30
0.0
  9
$PUCSORGRIGHT
 10
0.0
 20
0.0
 30
0.0
  9
$PUCSORGFRONT
 10
0.0
 20
0.0
 30
0.0
  9
$PUCSORGBACK
 10
0.0
 20
0.0
 30
0.0
  9
$USERI1
 70
     0
  9
$USERI2
 70
     0
  9
$USERI3
 70
     0
  9
$USERI4
 70
     0
  9
$USERI5
 70
     0
  9
$USERR1
 40
0.0
  9
$USERR2
 40
0.0
  9
$USERR3
 40
0.0
  9
$USERR4
 40
0.0
  9
$USERR5
 40
0.0
  9
$WORLDVIEW
 70
     0
  9
$SHADEDGE
 70
     3
  9
$SHADEDIF
 70
    70
  9
$TILEMODE
 70
     1
  9
$MAXACTVP
 70
    16
  9
$PINSBASE
 10
0.0
 20
0.0
 30
0.0
  9
$PLIMCHECK
 70
     0
  9
$PEXTMIN
 10
1.000000000000000E+20
 20
1.000000000000000E+20
 30
1.000000000000000E+20
  9
$PEXTMAX
 10
-1.000000000000000E+20
 20
-1.000000000000000E+20
 30
-1.000000000000000E+20
  9
$PLIMMIN
 10
0.0
 20
0.0
  9
$PLIMMAX
 10
0.0
 20
0.0
  9
$UNITMODE
 70
     0
  9
$VISRETAIN
 70
     0
  9
$PLINEGEN
 70
     0
  9
$PSLTSCALE
 70
     0
  9
$TREEDEPTH
 70
  3020
  9
$CMLSTYLE
  2
STANDARD
  9
$CMLJUST
 70
     0
  9
$CMLSCALE
 40
1.0
  9
$PROXYGRAPHICS
 70
     1
  9
$MEASUREMENT
 70
     0
  9
$CELWEIGHT
370
    -1
  9
$ENDCAPS
280
     0
  9
$JOINSTYLE
280
     0
  9
$LWDISPLAY
290
     0
  9
$INSUNITS
 70
     0
  9
$HYPERLINKBASE
  1

  9
$STYLESHEET
  1
SPAX FORM.CTB
  9
$XEDIT
290
     1
  9
$CEPSNTYPE
380
     0
  9
$PSTYLEMODE
290
     1
  9
$FINGERPRINTGUID
  2
{BBAEEBA6-8B94-11D3-9160-00E0294F7E09}
  9
$VERSIONGUID
  2
{333C339D-6C14-48C1-8200-4AA5443203C0}
  9
$EXTNAMES
290
     1
  9
$PSVPSCALE
 40
0.0
  9
$OLESTARTUP
290
     0
  0
ENDSEC
  0
SECTION
  2
CLASSES
  0
CLASS
  1
LWPOLYLINE
  2
AcDbPolyline
  3
ObjectDBX Classes
 90
        0
280
     0
281
     1
  0
CLASS
  1
ACDBDICTIONARYWDFLT
  2
AcDbDictionaryWithDefault
  3
ObjectDBX Classes
 90
        0
280
     0
281
     0
  0
CLASS
  1
ACDBPLACEHOLDER
  2
AcDbPlaceHolder
  3
ObjectDBX Classes
 90
        0
280
     0
281
     0
  0
CLASS
  1
LAYOUT
  2
AcDbLayout
  3
ObjectDBX Classes
 90
        0
280
     0
281
     0
  0
CLASS
  1
DICTIONARYVAR
  2
AcDbDictionaryVar
  3
ObjectDBX Classes
 90
        0
280
     0
281
     0
  0
CLASS
  1
MATERIAL
  2
AcDbMaterial
  3
ObjectDBX Classes
 90
     1153
280
     0
281
     0
  0
CLASS
  1
VISUALSTYLE
  2
AcDbVisualStyle
  3
ObjectDBX Classes
 90
     4095
280
     0
281
     0
  0
CLASS
  1
TABLESTYLE
  2
AcDbTableStyle
  3
ObjectDBX Classes
 90
     4095
280
     0
281
     0
  0
CLASS
  1
SCALE
  2
AcDbScale
  3
ObjectDBX Classes
 90
     1153
280
     0
281
     0
  0
CLASS
  1
MLEADERSTYLE
  2
AcDbMLeaderStyle
  3
ACDB_MLEADERSTYLE_CLASS
 90
     4095
280
     0
281
     0
  0
CLASS
  1
CELLSTYLEMAP
  2
AcDbCellStyleMap
  3
ObjectDBX Classes
 90
     1152
280
     0
281
     0
  0
CLASS
  1
SORTENTSTABLE
  2
AcDbSortentsTable
  3
ObjectDBX Classes
 90
        0
280
     0
281
     0
  0
CLASS
  1
MULTILEADER
  2
AcDbMLeader
  3
ACDB_MLEADER_CLASS
 90
    33793
280
     0
281
     1
  0
CLASS
  1
DIMASSOC
  2
AcDbDimAssoc
  3
"AcDbDimAssoc|Product Desc:     AcDim ARX App For Dimension|Company:          Autodesk, Inc.|WEB Address:      www.autodesk.com"
 90
    32768
280
     0
281
     0
  0
CLASS
  1
SUN
  2
AcDbSun
  3
SCENEOE
 90
    33921
280
     0
281
     0
  0
CLASS
  1
RASTERVARIABLES
  2
AcDbRasterVariables
  3
ISM
 90
        0
280
     0
281
     0
  0
CLASS
  1
AEC_VARS_DWG_SETUP
  2
AecDbVarsDwgSetup
  3
AecBase60
 90
      129
280
     0
281
     0
  0
ENDSEC
  0
SECTION
  2
TABLES
  0
TABLE
  2
VPORT
  5
8
330
0
100
AcDbSymbolTable
 70
     1
  0
VPORT
  5
A0C
330
8
100
AcDbSymbolTableRecord
100
AcDbViewportTableRecord
  2
*Active
 70
     0
 10
0.0
 20
0.0
 11
1.0
 21
1.0
 12
1815.555767649565
 22
-3553.536122381085
 13
0.0
 23
0.0
 14
1.0
 24
1.0
 15
20.0
 25
20.0
 16
0.0
 26
0.0
 36
1.0
 17
0.0
 27
0.0
 37
0.0
 40
119.0172601469858
 41
1.489117983963344
 42
50.0
 43
0.0
 44
0.0
 50
0.0
 51
0.0
 71
    16
 72
   100
 73
     1
 74
     0
 75
     0
 76
     0
 77
     0
 78
     0
281
     0
 65
     1
110
0.0
120
0.0
130
0.0
111
1.0
121
0.0
131
0.0
112
0.0
122
1.0
132
0.0
 79
     0
146
0.0
  0
ENDTAB
  0
TABLE
  2
LTYPE
  5
5
330
0
100
AcDbSymbolTable
 70
     4
  0
LTYPE
  5
12
330
5
100
AcDbSymbolTableRecord
100
AcDbLinetypeTableRecord
  2
BYBLOCK
 70
     0
  3

 72
    65
 73
     0
 40
0.0
  0
LTYPE
  5
13
330
5
100
AcDbSymbolTableRecord
100
AcDbLinetypeTableRecord
  2
BYLAYER
 70
     0
  3

 72
    65
 73
     0
 40
0.0
  0
LTYPE
  5
14
330
5
100
AcDbSymbolTableRecord
100
AcDbLinetypeTableRecord
  2
CONTINUOUS
 70
     0
  3
Solid line
 72
    65
 73
     0
 40
0.0
  0
ENDTAB
  0
TABLE
  2
LAYER
  5
2
102
{ACAD_XDICTIONARY
360
8BF
102
}
330
0
100
AcDbSymbolTable
 70
    26
  0
LAYER
  5
F
102
{ACAD_XDICTIONARY
360
A60
102
}
330
2
100
AcDbSymbolTableRecord
100
AcDbLayerTableRecord
  2
0
 70
     0
 62
     7
  6
CONTINUOUS
370
    -3
390
616
  0
LAYER
  5
34
102
{ACAD_XDICTIONARY
360
A66
102
}
330
2
100
AcDbSymbolTableRecord
100
AcDbLayerTableRecord
  2
寸法線
 70
     0
 62
     7
  6
CONTINUOUS
370
    -3
390
616
  0
LAYER
  5
36
330
2
100
AcDbSymbolTableRecord
100
AcDbLayerTableRecord
  2
DEFPOINTS
 70
     0
 62
     7
  6
CONTINUOUS
290
     0
370
    -3
390
616
  0
LAYER
  5
2F4
102
{ACAD_XDICTIONARY
360
A6E
102
}
330
2
100
AcDbSymbolTableRecord
100
AcDbLayerTableRecord
  2
文字
 70
     0
 62
     7
  6
CONTINUOUS
370
    -3
390
616
  0
LAYER
  5
305
102
{ACAD_XDICTIONARY
360
A72
102
}
330
2
100
AcDbSymbolTableRecord
100
AcDbLayerTableRecord
  2
姿図
 70
     0
 62
     8
  6
CONTINUOUS
370
    -3
390
616
  0
ENDTAB
  0
TABLE
  2
STYLE
  5
3
330
0
100
AcDbSymbolTable
 70
     4
  0
STYLE
  5
10
330
3
100
AcDbSymbolTableRecord
100
AcDbTextStyleTableRecord
  2
STANDARD
 70
     0
 40
0.0
 41
1.0
 50
0.0
 71
     0
 42
53.44730959687513
  3
MONOTXT
  4
BIGFONT
  0
ENDTAB
  0
TABLE
  2
VIEW
  5
6
330
0
100
AcDbSymbolTable
 70
     0
  0
ENDTAB
  0
TABLE
  2
UCS
  5
7
330
0
100
AcDbSymbolTable
 70
     0
  0
ENDTAB
  0
TABLE
  2
APPID
  5
9
330
0
100
AcDbSymbolTable
 70
    17
  0
APPID
  5
11
330
9
100
AcDbSymbolTableRecord
100
AcDbRegAppTableRecord
  2
ACAD
 70
     0
  0
APPID
  5
8BB
330
9
100
AcDbSymbolTableRecord
100
AcDbRegAppTableRecord
  2
ACAD_PSEXT
 70
     0
  0
APPID
  5
A5A
330
9
100
AcDbSymbolTableRecord
100
AcDbRegAppTableRecord
  2
ACAD_MLEADERVER
 70
     0
  0
APPID
  5
A5E
330
9
100
AcDbSymbolTableRecord
100
AcDbRegAppTableRecord
  2
ACAD_DSTYLE_DIMJAG
 70
     0
  0
APPID
  5
A5F
330
9
100
AcDbSymbolTableRecord
100
AcDbRegAppTableRecord
  2
ACAD_DSTYLE_DIMTALN
 70
     0
  0
APPID
  5
12C0
330
9
100
AcDbSymbolTableRecord
100
AcDbRegAppTableRecord
  2
ACAD_EXEMPT_FROM_CAD_STANDARDS
 70
     0
  0
APPID
  5
1C50
330
9
100
AcDbSymbolTableRecord
100
AcDbRegAppTableRecord
  2
AcAecLayerStandard
 70
     0
  0
APPID
  5
5088
330
9
100
AcDbSymbolTableRecord
100
AcDbRegAppTableRecord
  2
ACAD_DSTYLE_DIMRADIAL_EXTENSION
 70
     0
  0
APPID
  5
14AF3
330
9
100
AcDbSymbolTableRecord
100
AcDbRegAppTableRecord
  2
WACOM_STRING
 70
     0
  0
APPID
  5
14AF4
330
9
100
AcDbSymbolTableRecord
100
AcDbRegAppTableRecord
  2
WACOM_DRSYM_ARROW
 70
     0
  0
APPID
  5
1E1A8
330
9
100
AcDbSymbolTableRecord
100
AcDbRegAppTableRecord
  2
GENIUS_GENODEF_13
 70
     0
  0
APPID
  5
1E1A9
330
9
100
AcDbSymbolTableRecord
100
AcDbRegAppTableRecord
  2
GENIUS_GENREC_14
 70
     0
  0
APPID
  5
1E1AA
330
9
100
AcDbSymbolTableRecord
100
AcDbRegAppTableRecord
  2
GENIUS_GENOBJ-N-REC_13
 70
     0
  0
APPID
  5
27C72
330
9
100
AcDbSymbolTableRecord
100
AcDbRegAppTableRecord
  2
ASK_MEN_XD
 70
     0
  0
APPID
  5
29316
330
9
100
AcDbSymbolTableRecord
100
AcDbRegAppTableRecord
  2
ACAD_DSTYLE_DIMBREAK
 70
     0
  0
APPID
  5
152938
330
9
100
AcDbSymbolTableRecord
100
AcDbRegAppTableRecord
  2
ACAD_SPLINE_DATA
 70
     0
  0
APPID
  5
152939
330
9
100
AcDbSymbolTableRecord
100
AcDbRegAppTableRecord
  2
ACAD_SPLINE_DATA2
 70
     0
  0
ENDTAB
  0
TABLE
  2
DIMSTYLE
  5
A
330
0
100
AcDbSymbolTable
 70
     4
100
AcDbDimStyleTable
 71
     0
  0
DIMSTYLE
105
1CC
330
A
100
AcDbSymbolTableRecord
100
AcDbDimStyleTableRecord
  2
STANDARD
 70
     0
 41
2.5
 42
1.5
 44
1.0
 73
     0
 74
     0
 77
     3
 78
     8
 79
     2
140
2.500000000000003
141
0.0
147
1.0
171
     0
172
     1
173
     1
176
     8
177
     8
178
   256
179
     2
271
     2
272
     2
274
     0
289
     1
340
10
341
608
343
608
344
608
1001
ACAD_DSTYLE_DIMJAG
1070
   388
1040
1.5
1001
ACAD_DSTYLE_DIMTALN
1070
   392
1070
     0
  0
ENDTAB
  0
TABLE
  2
BLOCK_RECORD
  5
1
330
0
100
AcDbSymbolTable
 70
    31
  0
BLOCK_RECORD
  5
18
102
{ACAD_XDICTIONARY
360
143F
102
}
330
1
100
AcDbSymbolTableRecord
100
AcDbBlockTableRecord
  2
*MODEL_SPACE
340
619
  0
BLOCK_RECORD
  5
15
330
1
100
AcDbSymbolTableRecord
100
AcDbBlockTableRecord
  2
*PAPER_SPACE
340
61A
  0
BLOCK_RECORD
  5
608
330
1
100
AcDbSymbolTableRecord
100
AcDbBlockTableRecord
  2
_OPEN
340
0
102
{BLKREFS
331
1558CC
331
1558D0
331
15600C
331
156010
331
1597F6
331
1597F7
331
159801
331
159802
331
15980A
331
15980B
331
159813
331
159814
331
15981E
331
15981F
331
159829
331
15982A
331
15C3AA
331
15C3AB
331
15C3B5
331
15C3B6
331
15C3BE
331
15C3BF
331
15C3C7
331
15C3C8
331
15C3D2
331
15C3D3
331
15C3DD
331
15C3DE
102
}
  0
ENDTAB
  0
ENDSEC
  0
SECTION
  2
BLOCKS
  0
BLOCK
  5
39
330
18
100
AcDbEntity
  8
0
100
AcDbBlockBegin
  2
*MODEL_SPACE
 70
     0
 10
0.0
 20
0.0
 30
0.0
  3
*MODEL_SPACE
  1
*MODEL_SPACE
  0
ENDBLK
  5
3A
330
18
100
AcDbEntity
  8
0
100
AcDbBlockEnd
  0
BLOCK
  5
37
330
15
100
AcDbEntity
 67
     1
  8
0
100
AcDbBlockBegin
  2
*PAPER_SPACE
 70
     0
 10
0.0
 20
0.0
 30
0.0
  3
*PAPER_SPACE
  1
*PAPER_SPACE
  0
ENDBLK
  5
38
330
15
100
AcDbEntity
 67
     1
  8
0
100
AcDbBlockEnd
  0
BLOCK
  5
609
330
608
100
AcDbEntity
  8
0
100
AcDbBlockBegin
  2
_OPEN
 70
     0
 10
0.0
 20
0.0
 30
0.0
  3
_OPEN
  1
_OPEN
  0
LINE
  5
60A
330
608
100
AcDbEntity
  8
0
  6
ByBlock
 62
     0
100
AcDbLine
 10
-1.0
 20
0.1666666666666667
 30
0.0
 11
0.0
 21
0.0
 31
0.0
  0
LINE
  5
60B
330
608
100
AcDbEntity
  8
0
  6
ByBlock
 62
     0
100
AcDbLine
 10
0.0
 20
0.0
 30
0.0
 11
-1.0
 21
-0.1666666666666667
 31
0.0
  0
LINE
  5
60C
330
608
100
AcDbEntity
  8
0
  6
ByBlock
 62
     0
100
AcDbLine
 10
0.0
 20
0.0
 30
0.0
 11
-1.0
 21
0.0
 31
0.0
  0
ENDBLK
  5
60D
330
608
100
AcDbEntity
  8
0
100
AcDbBlockEnd
  0
ENDSEC
  0
SECTION
  2
ENTITIES
  0
MTEXT
  5
D0CC6
330
18
100
AcDbEntity
  8
寸法線
100
AcDbMText
 10
2610.774875364868
 20
-2740.315466585338
 30
0.0
 40
2.500000000000003
 41
0.0
 71
     9
 72
     1
  1
\A1;
 73
     1
 44
1.0
1001
ACAD
1000
MTEXTBEGIN
1070
    73
1070
     1
1070
    44
1040
1.0
1070
    74
1070
     0
1000
MTEXTEND
  0
MTEXT
  5
F6D77
330
18
100
AcDbEntity
  8
文字
100
AcDbMText
 10
5821.057140836062
 20
-2842.341718131324
 30
0.0
 40
2.5
 41
64.39156592258223
 71
     1
 72
     5
  1
   
 73
     1
 44
1.0
1001
ACAD
1000
MTEXTBEGIN
1070
    73
1070
     1
1070
    44
1040
1.0
1070
    74
1070
     0
1000
MTEXTEND
  0
MTEXT
  5
F6D78
330
18
100
AcDbEntity
  8
寸法線
100
AcDbMText
 10
6222.662262480188
 20
-2968.738290481128
 30
0.0
 40
3.000000000000001
 41
0.0
 71
     7
 72
     1
  1
\A1;
 73
     1
 44
1.0
1001
ACAD
1000
MTEXTBEGIN
1070
    73
1070
     1
1070
    44
1040
1.0
1070
    74
1070
     0
1000
MTEXTEND
  0
SPLINE
  5
15B856
330
18
100
AcDbEntity
  8
姿図
100
AcDbSpline
210
0.0
220
0.0
230
1.0
 70
     8
 71
     3
 72
     8
 73
     4
 74
     0
 42
0.0000000001
 43
0.0000000001
 40
0.0
 40
0.0
 40
0.0
 40
0.0
 40
1.0
 40
1.0
 40
1.0
 40
1.0
 10
1804.406650016817
 20
-3534.302667714545
 30
0.0
 10
1809.116233350151
 20
-3533.77350104788
 30
0.0
 10
1814.407900016817
 20
-3535.370052154196
 30
0.0
 10
1823.359601676973
 20
-3541.950366282254
 30
0.0
  0
SPLINE
  5
15B857
330
18
100
AcDbEntity
  8
姿図
100
AcDbSpline
210
0.0
220
0.0
230
1.0
 70
     8
 71
     3
 72
     8
 73
     4
 74
     0
 42
0.0000000001
 43
0.0000000001
 40
0.0
 40
0.0
 40
0.0
 40
0.0
 40
1.0
 40
1.0
 40
1.0
 40
1.0
 10
1823.438046501191
 20
-3541.347198964544
 30
0.0
 10
1817.033372835827
 20
-3536.437030120944
 30
0.0
 10
1805.532369417859
 20
-3530.035124583034
 30
0.0
 10
1799.450156689994
 20
-3535.828569407253
 30
0.0
  0
SPLINE
  5
15B858
330
18
100
AcDbEntity
  8
姿図
100
AcDbSpline
210
0.0
220
0.0
230
1.0
 70
     8
 71
     3
 72
     8
 73
     4
 74
     0
 42
0.0000000001
 43
0.0000000001
 40
6.0
 40
6.0
 40
6.0
 40
6.0
 40
7.0
 40
7.0
 40
7.0
 40
7.0
 10
1801.643407829317
 20
-3533.051271230171
 30
0.0
 10
1803.447948844941
 20
-3530.719837310899
 30
0.0
 10
1806.151349723848
 20
-3527.663796458035
 30
0.0
 10
1808.870770296764
 20
-3524.223799713242
 30
0.0
  0
SPLINE
  5
15B859
330
18
100
AcDbEntity
  8
姿図
100
AcDbSpline
210
0.0
220
0.0
230
1.0
 70
     8
 71
     3
 72
     8
 73
     4
 74
     0
 42
0.0000000001
 43
0.0000000001
 40
3.0
 40
3.0
 40
3.0
 40
3.0
 40
4.0
 40
4.0
 40
4.0
 40
4.0
 10
1797.227760042857
 20
-3548.664168365586
 30
0.0
 10
1797.227760042857
 20
-3548.664168365586
 30
0.0
 10
1798.49982710015
 20
-3544.892615631213
 30
0.0
 10
1798.879235466036
 20
-3544.379158599962
 30
0.0
  0
SPLINE
  5
15B85A
330
18
100
AcDbEntity
  8
姿図
100
AcDbSpline
210
0.0
220
0.0
230
1.0
 70
     8
 71
     3
 72
     8
 73
     4
 74
     0
 42
0.0000000001
 43
0.0000000001
 40
0.0
 40
0.0
 40
0.0
 40
0.0
 40
1.0
 40
1.0
 40
1.0
 40
1.0
 10
1804.406650016817
 20
-3534.302667714545
 30
0.0
 10
1801.511012809786
 20
-3534.302667714545
 30
0.0
 10
1796.998316683483
 20
-3536.683917714545
 30
0.0
 10
1799.167900016817
 20
-3543.404334381212
 30
0.0
  0
SPLINE
  5
15B85B
330
18
100
AcDbEntity
  8
姿図
100
AcDbSpline
210
0.0
220
0.0
230
1.0
 70
     8
 71
     3
 72
     8
 73
     4
 74
     0
 42
0.0000000001
 43
0.0000000001
 40
0.0
 40
0.0
 40
0.0
 40
0.0
 40
1.0
 40
1.0
 40
1.0
 40
1.0
 10
1798.879235466036
 20
-3544.379158599962
 30
0.0
 10
1799.609423454318
 20
-3542.617612376003
 30
0.0
 10
1801.037656689994
 20
-3539.761972727565
 30
0.0
 10
1804.459566683483
 20
-3534.434959381211
 30
0.0
  0
SPLINE
  5
15B85C
330
18
100
AcDbEntity
  8
姿図
100
AcDbSpline
210
0.0
220
0.0
230
1.0
 70
     8
 71
     3
 72
     8
 73
     4
 74
     0
 42
0.0000000001
 43
0.0000000001
 40
4.0
 40
4.0
 40
4.0
 40
4.0
 40
5.0
 40
5.0
 40
5.0
 40
5.0
 10
1798.879235466036
 20
-3544.379158599962
 30
0.0
 10
1798.343660921764
 20
-3542.88384935517
 30
0.0
 10
1797.163164502495
 20
-3539.700787831733
 30
0.0
 10
1798.575584749889
 20
-3537.090921295275
 30
0.0
  0
SPLINE
  5
15B85D
330
18
100
AcDbEntity
  8
姿図
100
AcDbSpline
210
0.0
220
0.0
230
1.0
 70
     8
 71
     3
 72
     8
 73
     4
 74
     0
 42
0.0000000001
 43
0.0000000001
 40
5.0
 40
5.0
 40
5.0
 40
5.0
 40
6.0
 40
6.0
 40
6.0
 40
6.0
 10
1798.575584749889
 20
-3537.090921295275
 30
0.0
 10
1799.624719678273
 20
-3535.230776438503
 30
0.0
 10
1801.146797314993
 20
-3533.610203521837
 30
0.0
 10
1801.643407829317
 20
-3533.051271230171
 30
0.0
  0
SPLINE
  5
15B85E
330
18
100
AcDbEntity
  8
姿図
100
AcDbSpline
210
0.0
220
0.0
230
1.0
 70
     8
 71
     3
 72
     8
 73
     4
 74
     0
 42
0.0000000001
 43
0.0000000001
 40
0.0
 40
0.0
 40
0.0
 40
0.0
 40
1.0
 40
1.0
 40
1.0
 40
1.0
 10
1834.039983350151
 20
-3552.151707428087
 30
0.0
 10
1834.039983350151
 20
-3549.256173573921
 30
0.0
 10
1834.041843701712
 20
-3546.582434967149
 30
0.0
 10
1833.537481722546
 20
-3546.591943430691
 30
0.0
  0
SPLINE
  5
15B85F
330
18
100
AcDbEntity
  8
姿図
100
AcDbSpline
210
0.0
220
0.0
230
1.0
 70
     8
 71
     3
 72
    11
 73
     7
 74
     0
 42
0.0000000001
 43
0.0000000001
 40
39.0
 40
39.0
 40
39.0
 40
39.0
 40
40.0
 40
40.0
 40
40.0
 40
41.0
 40
41.0
 40
41.0
 40
41.0
 10
1834.791978792859
 20
-3546.888979563505
 30
0.0
 10
1834.854197217337
 20
-3547.541549550482
 30
0.0
 10
1834.916415641817
 20
-3551.457382883818
 30
0.0
 10
1834.916415641817
 20
-3551.675044016628
 30
0.0
 10
1834.916415641817
 20
-3551.892498443711
 30
0.0
 10
1834.760972933482
 20
-3552.421044993192
 30
0.0
 10
1834.574524365775
 20
-3552.669505279649
 30
0.0
  0
LINE
  5
15B860
330
18
100
AcDbEntity
  8
姿図
100
AcDbLine
 10
1848.486233350151
 20
-3507.817876047879
 30
0.0
 11
1846.193246696505
 21
-3505.807042714546
 31
0.0
  0
LINE
  5
15B861
330
18
100
AcDbEntity
  8
姿図
100
AcDbLine
 10
1845.805260042858
 20
-3516.602042714545
 30
0.0
 11
1850.109080029837
 21
-3509.687529368191
 31
0.0
  0
LINE
  5
15B862
330
18
100
AcDbEntity
  8
姿図
100
AcDbLine
 10
1844.105105420464
 20
-3504.603085195014
 30
0.0
 11
1839.124117464733
 21
-3512.36912279267
 31
0.0
  0
LINE
  5
15B863
330
18
100
AcDbEntity
  8
姿図
100
AcDbLine
 10
1844.358733350149
 20
-3504.854542714546
 30
0.0
 11
1839.913733350149
 21
-3511.874786041368
 31
0.0
  0
SPLINE
  5
15B864
330
18
100
AcDbEntity
  8
姿図
100
AcDbSpline
210
0.0
220
0.0
230
1.0
 70
     8
 71
     3
 72
     8
 73
     4
 74
     0
 42
0.0000000001
 43
0.0000000001
 40
0.0
 40
0.0
 40
0.0
 40
0.0
 40
1.0
 40
1.0
 40
1.0
 40
1.0
 10
1833.352066683483
 20
-3519.512459381211
 30
0.0
 10
1827.536814404839
 20
-3516.154938222359
 30
0.0
 10
1820.175920036347
 20
-3515.418859120796
 30
0.0
 10
1816.802482536348
 20
-3516.40980638642
 30
0.0
  0
SPLINE
  5
15B865
330
18
100
AcDbEntity
  8
姿図
100
AcDbSpline
210
0.0
220
0.0
230
1.0
 70
     8
 71
     3
 72
     8
 73
     4
 74
     0
 42
0.0000000001
 43
0.0000000001
 40
0.0
 40
0.0
 40
0.0
 40
0.0
 40
1.0
 40
1.0
 40
1.0
 40
1.0
 10
1823.359601676973
 20
-3541.950366282254
 30
0.0
 10
1824.746700472546
 20
-3542.922296620794
 30
0.0
 10
1826.349496696505
 20
-3541.812286855169
 30
0.0
 10
1826.349496696505
 20
-3541.305237701525
 30
0.0
  0
SPLINE
  5
15B866
330
18
100
AcDbEntity
  8
姿図
100
AcDbSpline
210
0.0
220
0.0
230
1.0
 70
     8
 71
     3
 72
     8
 73
     4
 74
     0
 42
0.0000000001
 43
0.0000000001
 40
0.0
 40
0.0
 40
0.0
 40
0.0
 40
1.0
 40
1.0
 40
1.0
 40
1.0
 10
1826.329446240776
 20
-3540.693595448921
 30
0.0
 10
1826.329446240776
 20
-3541.200644602566
 30
0.0
 10
1824.825041943899
 20
-3542.319129303088
 30
0.0
 10
1823.438046501191
 20
-3541.347198964544
 30
0.0
  0
SPLINE
  5
15B867
330
18
100
AcDbEntity
  8
姿図
100
AcDbSpline
210
0.0
220
0.0
230
1.0
 70
     8
 71
     3
 72
     8
 73
     4
 74
     0
 42
0.0000000001
 43
0.0000000001
 40
7.0
 40
7.0
 40
7.0
 40
7.0
 40
8.0
 40
8.0
 40
8.0
 40
8.0
 10
1808.870770296764
 20
-3524.223799713242
 30
0.0
 10
1811.835963981661
 20
-3520.472814198921
 30
0.0
 10
1814.701732210826
 20
-3516.555637278347
 30
0.0
 10
1816.802482536348
 20
-3516.40980638642
 30
0.0
  0
LINE
  5
15B868
330
18
100
AcDbEntity
  8
姿図
100
AcDbLine
 10
1840.972066683484
 20
-3517.748536041369
 30
0.0
 11
1831.000008350939
 21
-3533.374801282011
 31
0.0
  0
SPLINE
  5
15B869
330
18
100
AcDbEntity
  8
姿図
100
AcDbSpline
210
0.0
220
0.0
230
1.0
 70
     8
 71
     3
 72
     8
 73
     4
 74
     0
 42
0.0000000001
 43
0.0000000001
 40
0.0
 40
0.0
 40
0.0
 40
0.0
 40
1.0
 40
1.0
 40
1.0
 40
1.0
 10
1833.962261995983
 20
-3544.988527089545
 30
0.0
 10
1833.662952100151
 20
-3544.657797922879
 30
0.0
 10
1833.444670850151
 20
-3544.459360422878
 30
0.0
 10
1833.25636193088
 20
-3544.353113678087
 30
0.0
  0
SPLINE
  5
15B86A
330
18
100
AcDbEntity
  8
姿図
100
AcDbSpline
210
0.0
220
0.0
230
1.0
 70
     8
 71
     3
 72
     8
 73
     4
 74
     0
 42
0.0000000001
 43
0.0000000001
 40
0.0
 40
0.0
 40
0.0
 40
0.0
 40
1.0
 40
1.0
 40
1.0
 40
1.0
 10
1833.656337516817
 20
-3546.635971751003
 30
0.0
 10
1832.807603792857
 20
-3545.477592844753
 30
0.0
 10
1831.585352816297
 20
-3544.753089264024
 30
0.0
 10
1829.647900016816
 20
-3544.383292714546
 30
0.0
  0
SPLINE
  5
15B86B
330
18
100
AcDbEntity
  8
姿図
100
AcDbSpline
210
0.0
220
0.0
230
1.0
 70
     8
 71
     3
 72
     8
 73
     4
 74
     0
 42
0.0000000001
 43
0.0000000001
 40
0.0
 40
0.0
 40
0.0
 40
0.0
 40
1.0
 40
1.0
 40
1.0
 40
1.0
 10
1833.616650016816
 20
-3546.526417714546
 30
0.0
 10
1832.346650016816
 20
-3539.223917714546
 30
0.0
 10
1831.764566683485
 20
-3535.731417714546
 30
0.0
 10
1830.38873335015
 20
-3534.091001047878
 30
0.0
  0
SPLINE
  5
15B86C
330
18
100
AcDbEntity
  8
姿図
100
AcDbSpline
210
0.0
220
0.0
230
1.0
 70
     8
 71
     3
 72
     8
 73
     4
 74
     0
 42
0.0000000001
 43
0.0000000001
 40
38.0
 40
38.0
 40
38.0
 40
38.0
 40
39.0
 40
39.0
 40
39.0
 40
39.0
 10
1833.95296023817
 20
-3544.962068756211
 30
0.0
 10
1834.574524365775
 20
-3545.676857167669
 30
0.0
 10
1834.729760368378
 20
-3546.236202870796
 30
0.0
 10
1834.791978792859
 20
-3546.888979563505
 30
0.0
  0
LINE
  5
15B86D
330
18
100
AcDbEntity
  8
姿図
100
AcDbLine
 10
1820.436935859705
 20
-3539.208033887477
 30
0.0
 11
1837.585400016816
 21
-3513.056626047878
 31
0.0
  0
ELLIPSE
  5
15B86E
330
18
100
AcDbEntity
  8
姿図
100
AcDbEllipse
 10
1845.53829959364
 20
-3509.767472808946
 30
0.0
 11
-1.391853027343749
 21
1.167835693359374
 31
0.0
210
0.0
220
0.0
230
1.0
 40
0.7351229721554963
 41
0.0
 42
6.283185307179585
  0
ELLIPSE
  5
15B86F
330
18
100
AcDbEntity
  8
姿図
100
AcDbEllipse
 10
1842.929156527232
 20
-3513.842314524441
 30
0.0
 11
-1.353922526041666
 21
1.136158040364583
 31
0.0
210
0.0
220
0.0
230
1.0
 40
0.7417511887598579
 41
0.0
 42
6.283185307179585
  0
SPLINE
  5
15B870
330
18
100
AcDbEntity
  8
姿図
100
AcDbSpline
210
0.0
220
0.0
230
1.0
 70
     8
 71
     3
 72
     8
 73
     4
 74
     0
 42
0.0000000001
 43
0.0000000001
 40
0.0
 40
0.0
 40
0.0
 40
0.0
 40
1.0
 40
1.0
 40
1.0
 40
1.0
 10
1843.910125198408
 20
-3508.932179040519
 30
0.0
 10
1844.395676956223
 20
-3508.448280928539
 30
0.0
 10
1845.329986852055
 20
-3508.527035811352
 30
0.0
 10
1846.047255732263
 20
-3509.128859541821
 30
0.0
  0
SPLINE
  5
15B871
330
18
100
AcDbEntity
  8
姿図
100
AcDbSpline
210
0.0
220
0.0
230
1.0
 70
     8
 71
     3
 72
     8
 73
     4
 74
     0
 42
0.0000000001
 43
0.0000000001
 40
1.0
 40
1.0
 40
1.0
 40
1.0
 40
2.0
 40
2.0
 40
2.0
 40
2.0
 10
1846.047255732263
 20
-3509.128859541821
 30
0.0
 10
1846.776306839034
 20
-3509.740605147289
 30
0.0
 10
1847.012158076013
 20
-3510.667060225414
 30
0.0
 10
1846.592132034348
 20
-3511.227026045726
 30
0.0
  0
SPLINE
  5
15B872
330
18
100
AcDbEntity
  8
姿図
100
AcDbSpline
210
0.0
220
0.0
230
1.0
 70
     8
 71
     3
 72
     8
 73
     4
 74
     0
 42
0.0000000001
 43
0.0000000001
 40
0.0
 40
0.0
 40
0.0
 40
0.0
 40
0.8940086046754551
 40
0.8940086046754551
 40
0.8940086046754551
 40
0.8940086046754551
 10
1845.489923971474
 20
-3517.062367028313
 30
0.0
 10
1844.853767124518
 20
-3518.117564542816
 30
0.0
 10
1843.30572938325
 20
-3517.894691263129
 30
0.0
 10
1842.275468032121
 20
-3517.53251330215
 30
0.0
  0
SPLINE
  5
15B873
330
18
100
AcDbEntity
  8
姿図
100
AcDbSpline
210
0.0
220
0.0
230
1.0
 70
     8
 71
     3
 72
     8
 73
     4
 74
     0
 42
0.0000000001
 43
0.0000000001
 40
0.0
 40
0.0
 40
0.0
 40
0.0
 40
1.0
 40
1.0
 40
1.0
 40
1.0
 10
1842.506650016816
 20
-3517.045219797878
 30
0.0
 10
1841.664324170462
 20
-3516.760792714546
 30
0.0
 10
1841.170504183483
 20
-3517.415636464546
 30
0.0
 10
1840.972066683484
 20
-3517.748536041369
 30
0.0
  0
SPLINE
  5
15B874
330
18
100
AcDbEntity
  8
姿図
100
AcDbSpline
210
0.0
220
0.0
230
1.0
 70
     8
 71
     3
 72
     8
 73
     4
 74
     0
 42
0.0000000001
 43
0.0000000001
 40
0.0
 40
0.0
 40
0.0
 40
0.0
 40
1.0
 40
1.0
 40
1.0
 40
1.0
 10
1845.805260042858
 20
-3516.602042714545
 30
0.0
 10
1845.170260042858
 20
-3518.013119374702
 30
0.0
 10
1843.150951774629
 20
-3517.49263434866
 30
0.0
 10
1842.506650016816
 20
-3517.045219797878
 30
0.0
  0
SPLINE
  5
15B875
330
18
100
AcDbEntity
  8
姿図
100
AcDbSpline
210
0.0
220
0.0
230
1.0
 70
     8
 71
     3
 72
     8
 73
     4
 74
     0
 42
0.0000000001
 43
0.0000000001
 40
0.0
 40
0.0
 40
0.0
 40
0.0
 40
1.0
 40
1.0
 40
1.0
 40
1.0
 10
1837.585400016816
 20
-3513.003709381212
 30
0.0
 10
1837.902900016818
 20
-3512.580376047878
 30
0.0
 10
1838.106091748587
 20
-3512.403952708036
 30
0.0
 10
1838.749566683484
 20
-3512.403952708036
 30
0.0
  0
SPLINE
  5
15B876
330
18
100
AcDbEntity
  8
姿図
100
AcDbSpline
210
0.0
220
0.0
230
1.0
 70
     8
 71
     3
 72
     8
 73
     4
 74
     0
 42
0.0000000001
 43
0.0000000001
 40
0.0
 40
0.0
 40
0.0
 40
0.0
 40
1.0
 40
1.0
 40
1.0
 40
1.0
 10
1839.913733350149
 20
-3511.874786041368
 30
0.0
 10
1839.807900016816
 20
-3512.227529368191
 30
0.0
 10
1839.137760042859
 20
-3512.509786041368
 30
0.0
 10
1838.749566683484
 20
-3512.403952708036
 30
0.0
  0
SPLINE
  5
15B877
330
18
100
AcDbEntity
  8
姿図
100
AcDbSpline
210
0.0
220
0.0
230
1.0
 70
     8
 71
     3
 72
     8
 73
     4
 74
     0
 42
0.0000000001
 43
0.0000000001
 40
0.0
 40
0.0
 40
0.0
 40
0.0
 40
1.0
 40
1.0
 40
1.0
 40
1.0
 10
1842.275468032121
 20
-3517.53251330215
 30
0.0
 10
1841.426199170464
 20
-3517.289959381211
 30
0.0
 10
1840.932379183483
 20
-3517.944803131211
 30
0.0
 10
1840.674099975884
 20
-3518.215525650305
 30
0.0
  0
SPLINE
  5
15B878
330
18
100
AcDbEntity
  8
姿図
100
AcDbSpline
210
0.0
220
0.0
230
1.0
 70
     8
 71
     3
 72
     8
 73
     4
 74
     0
 42
0.0000000001
 43
0.0000000001
 40
0.0
 40
0.0
 40
0.0
 40
0.0
 40
1.0
 40
1.0
 40
1.0
 40
1.0
 10
1844.105105420464
 20
-3504.603085195014
 30
0.0
 10
1844.563578727755
 20
-3503.86245856741
 30
0.0
 10
1845.057398714733
 20
-3504.543967356472
 30
0.0
 10
1845.057398714733
 20
-3504.426971913765
 30
0.0
  0
SPLINE
  5
15B879
330
18
100
AcDbEntity
  8
姿図
100
AcDbSpline
210
0.0
220
0.0
230
1.0
 70
     8
 71
     3
 72
     8
 73
     4
 74
     0
 42
0.0000000001
 43
0.0000000001
 40
0.0
 40
0.0
 40
0.0
 40
0.0
 40
1.0
 40
1.0
 40
1.0
 40
1.0
 10
1844.358733350149
 20
-3504.854542714546
 30
0.0
 10
1844.817413363171
 20
-3504.078362701524
 30
0.0
 10
1845.31123335015
 20
-3504.759871490586
 30
0.0
 10
1845.31123335015
 20
-3504.642876047878
 30
0.0
  0
LINE
  5
15B87A
330
18
100
AcDbEntity
  8
姿図
100
AcDbLine
 10
1846.404913363172
 20
-3505.454196034858
 30
0.0
 11
1845.31123335015
 21
-3504.642876047878
 31
0.0
  0
LINE
  5
15B87B
330
18
100
AcDbEntity
  8
姿図
100
AcDbLine
 10
1846.193246696505
 20
-3505.807042714546
 30
0.0
 11
1846.369566683485
 21
-3505.524786041368
 31
0.0
  0
LINE
  5
15B87C
330
18
100
AcDbEntity
  8
姿図
100
AcDbLine
 10
1848.486233350151
 20
-3507.817876047879
 30
0.0
 11
1848.839080029838
 21
-3507.465029368191
 31
0.0
  0
LINE
  5
15B87D
330
18
100
AcDbEntity
  8
姿図
100
AcDbLine
 10
1850.073733350151
 20
-3508.523362701524
 30
0.0
 11
1848.839080029838
 21
-3507.465029368191
 31
0.0
  0
SPLINE
  5
15B87E
330
18
100
AcDbEntity
  8
姿図
100
AcDbSpline
210
0.0
220
0.0
230
1.0
 70
     8
 71
     3
 72
     8
 73
     4
 74
     0
 42
0.0000000001
 43
0.0000000001
 40
0.0
 40
0.0
 40
0.0
 40
0.0
 40
1.0
 40
1.0
 40
1.0
 40
1.0
 10
1850.073733350151
 20
-3508.558709381212
 30
0.0
 10
1850.112800732963
 20
-3508.558709381212
 30
0.0
 10
1850.461926709524
 20
-3509.158362701524
 30
0.0
 10
1850.109080029837
 20
-3509.722876047878
 30
0.0
  0
ELLIPSE
  5
15B87F
330
18
100
AcDbEntity
  8
姿図
100
AcDbEllipse
 10
1813.249473380483
 20
-3572.01233324709
 30
0.0
 11
32.91569628906247
 21
0.1865312500000003
 31
0.0
210
0.0
220
0.0
230
1.0
 40
0.4502805162895567
 41
0.0
 42
6.283185307179585
  0
SPLINE
  5
15B880
330
18
100
AcDbEntity
  8
姿図
100
AcDbSpline
210
0.0
220
0.0
230
1.0
 70
     8
 71
     3
 72
    11
 73
     7
 74
     0
 42
0.0000000001
 43
0.0000000001
 40
0.0
 40
0.0
 40
0.0
 40
0.0
 40
1.0
 40
1.0
 40
1.0
 40
2.0
 40
2.0
 40
2.0
 40
2.0
 10
1780.33377709142
 20
-3571.58370824709
 30
0.0
 10
1780.28714427892
 20
-3563.39568090334
 30
0.0
 10
1794.941009513297
 20
-3556.678075434589
 30
0.0
 10
1813.062818107046
 20
-3556.575880122089
 30
0.0
 10
1829.922068107046
 20
-3556.480630122089
 30
0.0
 10
1843.843450919545
 20
-3562.14304418459
 30
0.0
 10
1845.740017325796
 20
-3569.52541527834
 30
0.0
  0
ELLIPSE
  5
15B881
330
18
100
AcDbEntity
  8
姿図
100
AcDbEllipse
 10
1813.188081778921
 20
-3572.94250902834
 30
0.0
 11
27.023466796875
 21
0.0
 31
0.0
210
0.0
220
0.0
230
1.0
 40
0.4469778328514387
 41
0.0
 42
6.283185307179585
  0
SPLINE
  5
15B882
330
18
100
AcDbEntity
  8
姿図
100
AcDbSpline
210
0.0
220
0.0
230
1.0
 70
     8
 71
     3
 72
    17
 73
    13
 74
     0
 42
0.0000000001
 43
0.0000000001
 40
0.0
 40
0.0
 40
0.0
 40
0.0
 40
1.0
 40
1.0
 40
1.0
 40
2.0
 40
2.0
 40
2.0
 40
3.0
 40
3.0
 40
3.0
 40
4.0
 40
4.0
 40
4.0
 40
4.0
 10
1785.902181388296
 20
-3563.14713793459
 30
0.0
 10
1785.883577872672
 20
-3562.956637934591
 30
0.0
 10
1785.874152091421
 20
-3562.76514574709
 30
0.0
 10
1785.874152091421
 20
-3562.572661372089
 30
0.0
 10
1785.874152091421
 20
-3555.602544184589
 30
0.0
 10
1798.053997794546
 20
-3549.71093480959
 30
0.0
 10
1813.184113028919
 20
-3549.95302855959
 30
0.0
 10
1833.680970450796
 20
-3550.28094652834
 30
0.0
 10
1839.293775138296
 20
-3557.82355590334
 30
0.0
 10
1840.433798575796
 20
-3560.89834496584
 30
0.0
 10
1840.433798575796
 20
-3560.89834496584
 30
0.0
 10
1840.643646232045
 20
-3562.581591059589
 30
0.0
 10
1840.609911857046
 20
-3563.08115746584
 30
0.0
  0
POLYLINE
  5
15B883
330
18
100
AcDbEntity
  8
姿図
100
AcDb2dPolyline
 66
     1
 10
0.0
 20
0.0
 30
0.0
  0
VERTEX
  5
15B884
330
15B883
100
AcDbEntity
  8
姿図
100
AcDbVertex
100
AcDb2dVertex
 10
1785.877376700797
 20
-3562.142051997091
 30
0.0
  0
VERTEX
  5
15B885
330
15B883
100
AcDbEntity
  8
姿図
100
AcDbVertex
100
AcDb2dVertex
 10
1785.732021232045
 20
-3559.91657543459
 30
0.0
  0
VERTEX
  5
15B886
330
15B883
100
AcDbEntity
  8
姿図
100
AcDbVertex
100
AcDb2dVertex
 10
1785.901437247672
 20
-3547.240884028339
 30
0.0
  0
VERTEX
  5
15B887
330
15B883
100
AcDbEntity
  8
姿図
100
AcDbVertex
100
AcDb2dVertex
 10
1786.675591544545
 20
-3545.160762934592
 30
0.0
  0
VERTEX
  5
15B888
330
15B883
100
AcDbEntity
  8
姿図
100
AcDbVertex
100
AcDb2dVertex
 10
1787.691591544546
 20
-3545.06402465334
 30
0.0
  0
VERTEX
  5
15B889
330
15B883
100
AcDbEntity
  8
姿図
100
AcDbVertex
100
AcDb2dVertex
 10
1788.005866935171
 20
-3545.378300043965
 30
0.0
  0
VERTEX
  5
15B88A
330
15B883
100
AcDbEntity
  8
姿図
100
AcDbVertex
100
AcDb2dVertex
 10
1788.029918041855
 20
-3557.608287793037
 30
0.0
  0
SEQEND
  5
15B88B
330
15B883
100
AcDbEntity
  8
姿図
  0
POLYLINE
  5
15B88C
330
18
100
AcDbEntity
  8
姿図
100
AcDb2dPolyline
 66
     1
 10
0.0
 20
0.0
 30
0.0
  0
VERTEX
  5
15B88D
330
15B88C
100
AcDbEntity
  8
姿図
100
AcDbVertex
100
AcDb2dVertex
 10
1788.755712638296
 20
-3556.872456737245
 30
0.0
  0
VERTEX
  5
15B88E
330
15B88C
100
AcDbEntity
  8
姿図
100
AcDbVertex
100
AcDb2dVertex
 10
1788.755712638296
 20
-3552.15171605959
 30
0.0
  0
VERTEX
  5
15B88F
330
15B88C
100
AcDbEntity
  8
姿図
100
AcDbVertex
100
AcDb2dVertex
 10
1788.005866935171
 20
-3550.72445434084
 30
0.0
  0
SEQEND
  5
15B890
330
15B88C
100
AcDbEntity
  8
姿図
  0
POLYLINE
  5
15B891
330
18
100
AcDbEntity
  8
姿図
100
AcDb2dPolyline
 66
     1
 10
0.0
 20
0.0
 30
0.0
  0
VERTEX
  5
15B892
330
15B891
100
AcDbEntity
  8
姿図
100
AcDbVertex
100
AcDb2dVertex
 10
1840.495314200796
 20
-3560.90132152834
 30
0.0
  0
VERTEX
  5
15B893
330
15B891
100
AcDbEntity
  8
姿図
100
AcDbVertex
100
AcDb2dVertex
 10
1840.571712638297
 20
-3560.57191527834
 30
0.0
  0
VERTEX
  5
15B894
330
15B891
100
AcDbEntity
  8
姿図
100
AcDbVertex
100
AcDb2dVertex
 10
1840.368810294545
 20
-3547.54002855959
 30
0.0
  0
VERTEX
  5
15B895
330
15B891
100
AcDbEntity
  8
姿図
100
AcDbVertex
100
AcDb2dVertex
 10
1840.318208732046
 20
-3547.13471996584
 30
0.0
  0
VERTEX
  5
15B896
330
15B891
100
AcDbEntity
  8
姿図
100
AcDbVertex
100
AcDb2dVertex
 10
1839.937704825796
 20
-3546.399509028339
 30
0.0
  0
VERTEX
  5
15B897
330
15B891
100
AcDbEntity
  8
姿図
100
AcDbVertex
100
AcDb2dVertex
 10
1839.988306388295
 20
-3546.145757075215
 30
0.0
  0
VERTEX
  5
15B898
330
15B891
100
AcDbEntity
  8
姿図
100
AcDbVertex
100
AcDb2dVertex
 10
1839.455997794545
 20
-3545.131741450215
 30
0.0
  0
VERTEX
  5
15B899
330
15B891
100
AcDbEntity
  8
姿図
100
AcDbVertex
100
AcDb2dVertex
 10
1838.340282950795
 20
-3545.030290278341
 30
0.0
  0
VERTEX
  5
15B89A
330
15B891
100
AcDbEntity
  8
姿図
100
AcDbVertex
100
AcDb2dVertex
 10
1838.441597216313
 20
-3557.785014983156
 30
0.0
  0
SEQEND
  5
15B89B
330
15B891
100
AcDbEntity
  8
姿図
  0
POLYLINE
  5
15B89C
330
18
100
AcDbEntity
  8
姿図
100
AcDb2dPolyline
 66
     1
 10
0.0
 20
0.0
 30
0.0
  0
VERTEX
  5
15B89D
330
15B89C
100
AcDbEntity
  8
姿図
100
AcDbVertex
100
AcDb2dVertex
 10
1838.346236075797
 20
-3550.325594965838
 30
0.0
  0
VERTEX
  5
15B89E
330
15B89C
100
AcDbEntity
  8
姿図
100
AcDbVertex
100
AcDb2dVertex
 10
1837.421517325796
 20
-3551.81040355959
 30
0.0
  0
VERTEX
  5
15B89F
330
15B89C
100
AcDbEntity
  8
姿図
100
AcDbVertex
100
AcDb2dVertex
 10
1837.488505678621
 20
-3556.831565935122
 30
0.0
  0
SEQEND
  5
15B8A0
330
15B89C
100
AcDbEntity
  8
姿図
  0
LINE
  5
15B8A1
330
18
100
AcDbEntity
  8
姿図
100
AcDbLine
 10
1838.914759513295
 20
-3545.10073559084
 30
0.0
 11
1839.217872794547
 21
-3558.721485590839
 31
0.0
  0
POLYLINE
  5
15B8A2
330
18
100
AcDbEntity
  8
姿図
100
AcDb2dPolyline
 66
     1
 10
0.0
 20
0.0
 30
0.0
  0
VERTEX
  5
15B8A3
330
15B8A2
100
AcDbEntity
  8
姿図
100
AcDbVertex
100
AcDb2dVertex
 10
1840.024025138297
 20
-3546.540399653339
 30
0.0
  0
VERTEX
  5
15B8A4
330
15B8A2
100
AcDbEntity
  8
姿図
100
AcDbVertex
100
AcDb2dVertex
 10
1840.267607169546
 20
-3560.128407465839
 30
0.0
  0
VERTEX
  5
15B8A5
330
15B8A2
100
AcDbEntity
  8
姿図
100
AcDbVertex
100
AcDb2dVertex
 10
1840.571712638297
 20
-3560.57191527834
 30
0.0
  0
SEQEND
  5
15B8A6
330
15B8A2
100
AcDbEntity
  8
姿図
  0
LINE
  5
15B8A7
330
18
100
AcDbEntity
  8
姿図
100
AcDbLine
 10
1839.688665763295
 20
-3545.56557543459
 30
0.0
 11
1840.023001997422
 21
-3559.992975265507
 31
0.0
  0
LINE
  5
15B8A8
330
18
100
AcDbEntity
  8
姿図
100
AcDbLine
 10
1787.432382560171
 20
-3545.068737543965
 30
0.0
 11
1787.299827819539
 21
-3558.50746358994
 31
0.0
  0
LINE
  5
15B8A9
330
18
100
AcDbEntity
  8
姿図
100
AcDbLine
 10
1786.675591544545
 20
-3545.160762934592
 30
0.0
 11
1786.591554502622
 21
-3559.669016719487
 31
0.0
  0
ARC
  5
15B8AA
330
18
100
AcDbEntity
  8
姿図
100
AcDbCircle
 10
1811.341857684192
 20
-3578.197490633047
 30
0.0
 40
32.80922378007655
100
AcDbArc
 50
93.98074746307951
 51
107.8070272858092
  0
ARC
  5
15B8AB
330
18
100
AcDbEntity
  8
姿図
100
AcDbCircle
 10
1812.974609682493
 20
-3584.090206459818
 30
0.0
 40
38.34873428268889
100
AcDbArc
 50
62.74935352216852
 51
116.6720763546674
  0
ARC
  5
15B8AC
330
18
100
AcDbEntity
  8
姿図
100
AcDbCircle
 10
1806.534907415073
 20
-3563.704666976166
 30
0.0
 40
17.54129624230994
100
AcDbArc
 50
107.3347820979208
 51
124.398017245529
  0
LINE
  5
15B8AD
330
18
100
AcDbEntity
  8
姿図
100
AcDbLine
 10
1796.590450005309
 20
-3549.146245447284
 30
0.0
 11
1796.674938465207
 21
-3549.352004833836
 31
0.0
  0
LINE
  5
15B8AE
330
18
100
AcDbEntity
  8
姿図
100
AcDbLine
 10
1793.796276493968
 20
-3549.127531776736
 30
0.0
 11
1794.22363602189
 21
-3548.806456721218
 31
0.0
  0
ARC
  5
15B8AF
330
18
100
AcDbEntity
  8
姿図
100
AcDbCircle
 10
1794.422499264334
 20
-3549.396007179604
 30
0.0
 40
0.6813471949530258
100
AcDbArc
 50
156.7941273154555
 51
207.559362077111
  0
SPLINE
  5
15B8B0
330
18
100
AcDbEntity
  8
姿図
100
AcDbSpline
210
0.0
220
0.0
230
1.0
 70
     8
 71
     3
 72
     8
 73
     4
 74
     0
 42
0.0000000001
 43
0.0000000001
 40
24.0
 40
24.0
 40
24.0
 40
24.0
 40
25.0
 40
25.0
 40
25.0
 40
25.0
 10
1795.905205630308
 20
-3547.869065317076
 30
0.0
 10
1796.029788826922
 20
-3548.087177895201
 30
0.0
 10
1796.590450005309
 20
-3549.146245447284
 30
0.0
 10
1796.590450005309
 20
-3549.146245447284
 30
0.0
  0
SPLINE
  5
15B8B1
330
18
100
AcDbEntity
  8
姿図
100
AcDbSpline
210
0.0
220
0.0
230
1.0
 70
     8
 71
     3
 72
     8
 73
     4
 74
     0
 42
0.0000000001
 43
0.0000000001
 40
23.0
 40
23.0
 40
23.0
 40
23.0
 40
24.0
 40
24.0
 40
24.0
 40
24.0
 10
1795.282289647237
 20
-3547.962668285825
 30
0.0
 10
1795.718294041767
 20
-3547.682300903013
 30
0.0
 10
1795.780622433695
 20
-3547.65109991343
 30
0.0
 10
1795.905205630308
 20
-3547.869065317076
 30
0.0
  0
SPLINE
  5
15B8B2
330
18
100
AcDbEntity
  8
姿図
100
AcDbSpline
210
0.0
220
0.0
230
1.0
 70
     8
 71
     3
 72
     8
 73
     4
 74
     0
 42
0.0000000001
 43
0.0000000001
 40
22.0
 40
22.0
 40
22.0
 40
22.0
 40
23.0
 40
23.0
 40
23.0
 40
23.0
 10
1794.22363602189
 20
-3548.806456721218
 30
0.0
 10
1794.22363602189
 20
-3548.806456721218
 30
0.0
 10
1794.846138078226
 20
-3548.243035668638
 30
0.0
 10
1795.282289647237
 20
-3547.962668285825
 30
0.0
  0
ARC
  5
15B8B3
330
18
100
AcDbEntity
  8
姿図
100
AcDbCircle
 10
1789.814778673499
 20
-3550.842935529367
 30
0.0
 40
4.933183360478366
100
AcDbArc
 50
327.3274661667497
 51
328.4791224773538
  0
ARC
  5
15B8B4
330
18
100
AcDbEntity
  8
姿図
100
AcDbCircle
 10
1796.617425006436
 20
-3553.999343523388
 30
0.0
 40
1.995854029087521
100
AcDbArc
 50
126.7373714880078
 51
154.0752283627589
  0
ARC
  5
15B8B5
330
18
100
AcDbEntity
  8
姿図
100
AcDbCircle
 10
1796.37889450633
 20
-3553.797713665293
 30
0.0
 40
1.529861478451046
100
AcDbArc
 50
130.0785474406366
 51
149.8174236720087
  0
LINE
  5
15B8B6
330
18
100
AcDbEntity
  8
姿図
100
AcDbLine
 10
1794.831424800688
 20
-3552.100788028041
 30
0.0
 11
1795.523519815646
 21
-3551.635405713074
 31
0.0
  0
ARC
  5
15B8B7
330
18
100
AcDbEntity
  8
姿図
100
AcDbCircle
 10
1794.192932393957
 20
-3551.779018887032
 30
0.0
 40
0.7149880653262121
100
AcDbArc
 50
333.2541164958582
 51
25.0016759041895
  0
LINE
  5
15B8B8
330
18
100
AcDbEntity
  8
姿図
100
AcDbLine
 10
1794.020069442609
 20
-3553.422049256084
 30
0.0
 11
1794.831424800688
 21
-3552.100788028041
 31
0.0
  0
LINE
  5
15B8B9
330
18
100
AcDbEntity
  8
姿図
100
AcDbLine
 10
1795.357526181497
 20
-3552.905540848622
 30
0.0
 11
1795.760493615535
 21
-3549.822150939879
 31
0.0
  0
LINE
  5
15B8BA
330
18
100
AcDbEntity
  8
姿図
100
AcDbLine
 10
1794.89273308144
 20
-3551.63243467452
 30
0.0
 11
1795.586581374664
 21
-3551.152876956961
 31
0.0
  0
LINE
  5
15B8BB
330
18
100
AcDbEntity
  8
姿図
100
AcDbLine
 10
1793.818463202728
 20
-3549.711244290921
 30
0.0
 11
1794.840922806525
 21
-3551.476832919821
 31
0.0
  0
ARC
  5
15B8BC
330
18
100
AcDbEntity
  8
姿図
100
AcDbCircle
 10
1822.601111829159
 20
-3558.923488706284
 30
0.0
 40
11.91442289675602
100
AcDbArc
 50
54.97594631035578
 51
68.3950549255225
  0
ARC
  5
15B8BD
330
18
100
AcDbEntity
  8
姿図
100
AcDbCircle
 10
1813.090853616712
 20
-3590.138007117592
 30
0.0
 40
44.85170208336209
100
AcDbArc
 50
82.2664296445394
 51
95.15078153009303
  0
ARC
  5
15B8BE
330
18
100
AcDbEntity
  8
姿図
100
AcDbCircle
 10
1814.972575500122
 20
-3576.306796257171
 30
0.0
 40
30.89307555794776
100
AcDbArc
 50
67.11157932921043
 51
82.27270771509367
  0
ARC
  5
15B8BF
330
18
100
AcDbEntity
  8
姿図
100
AcDbCircle
 10
1830.512619714806
 20
-3548.16558672735
 30
0.0
 40
0.4767084649455859
100
AcDbArc
 50
119.0435180761908
 51
159.4188376883477
  0
SPLINE
  5
15B8C0
330
18
100
AcDbEntity
  8
姿図
100
AcDbSpline
210
0.0
220
0.0
230
1.0
 70
     8
 71
     3
 72
     8
 73
     4
 74
     0
 42
0.0000000001
 43
0.0000000001
 40
131.0
 40
131.0
 40
131.0
 40
131.0
 40
132.0
 40
132.0
 40
132.0
 40
132.0
 10
1832.313964158955
 20
-3549.555832022805
 30
0.0
 10
1832.120429718851
 20
-3550.023699692076
 30
0.0
 10
1831.539532049579
 20
-3551.072317856138
 30
0.0
 10
1831.539532049579
 20
-3551.072317856138
 30
0.0
  0
SPLINE
  5
15B8C1
330
18
100
AcDbEntity
  8
姿図
100
AcDbSpline
210
0.0
220
0.0
230
1.0
 70
     8
 71
     3
 72
     8
 73
     4
 74
     0
 42
0.0000000001
 43
0.0000000001
 40
130.0
 40
130.0
 40
130.0
 40
130.0
 40
131.0
 40
131.0
 40
131.0
 40
131.0
 10
1832.168702948018
 20
-3548.79744193166
 30
0.0
 10
1832.37842658083
 20
-3548.958892335305
 30
0.0
 10
1832.507645773538
 20
-3549.087817179055
 30
0.0
 10
1832.313964158955
 20
-3549.555832022805
 30
0.0
  0
SPLINE
  5
15B8C2
330
18
100
AcDbEntity
  8
姿図
100
AcDbSpline
210
0.0
220
0.0
230
1.0
 70
     8
 71
     3
 72
     8
 73
     4
 74
     0
 42
0.0000000001
 43
0.0000000001
 40
129.0
 40
129.0
 40
129.0
 40
129.0
 40
130.0
 40
130.0
 40
130.0
 40
130.0
 10
1830.555376307392
 20
-3547.716592556659
 30
0.0
 10
1830.716826711037
 20
-3547.797244171243
 30
0.0
 10
1831.958979315204
 20
-3548.636138702492
 30
0.0
 10
1832.168702948018
 20
-3548.79744193166
 30
0.0
  0
SPLINE
  5
15B8C3
330
18
100
AcDbEntity
  8
姿図
100
AcDbSpline
210
0.0
220
0.0
230
1.0
 70
     8
 71
     3
 72
     8
 73
     4
 74
     0
 42
0.0000000001
 43
0.0000000001
 40
128.0
 40
128.0
 40
128.0
 40
128.0
 40
129.0
 40
129.0
 40
129.0
 40
129.0
 10
1830.281190252705
 20
-3547.748823767596
 30
0.0
 10
1830.281190252705
 20
-3547.748823767596
 30
0.0
 10
1830.394073078225
 20
-3547.635793767597
 30
0.0
 10
1830.555376307392
 20
-3547.716592556659
 30
0.0
  0
LINE
  5
15B8C4
330
18
100
AcDbEntity
  8
姿図
100
AcDbLine
 10
1830.555376307392
 20
-3547.716592556659
 30
0.0
 11
1829.584484698778
 21
-3549.480094960749
 31
0.0
  0
LINE
  5
15B8C5
330
18
100
AcDbEntity
  8
姿図
100
AcDbLine
 10
1830.066337089678
 20
-3547.998007554836
 30
0.0
 11
1829.338828984348
 21
-3549.353324997152
 31
0.0
  0
ARC
  5
15B8C6
330
18
100
AcDbEntity
  8
姿図
100
AcDbCircle
 10
1829.689097611774
 20
-3553.881314253607
 30
0.0
 40
1.601659530506788
100
AcDbArc
 50
36.42191274695801
 51
46.24047802658668
  0
ARC
  5
15B8C7
330
18
100
AcDbEntity
  8
姿図
100
AcDbCircle
 10
1829.718281104551
 20
-3553.955483060948
 30
0.0
 40
1.753694878231653
100
AcDbArc
 50
32.20728722474657
 51
52.69836353276244
  0
LINE
  5
15B8C8
330
18
100
AcDbEntity
  8
姿図
100
AcDbLine
 10
1831.305918975966
 20
-3552.061530696166
 30
0.0
 11
1832.503617519373
 21
-3553.591075092178
 31
0.0
  0
LINE
  5
15B8C9
330
18
100
AcDbEntity
  8
姿図
100
AcDbLine
 10
1833.653652077435
 20
-3552.697908504981
 30
0.0
 11
1833.634312893064
 21
-3554.157920262438
 31
0.0
  0
LINE
  5
15B8CA
330
18
100
AcDbEntity
  8
姿図
100
AcDbLine
 10
1831.268361862632
 20
-3551.984637560923
 30
0.0
 11
1830.694897880516
 21
-3551.667302023548
 31
0.0
  0
ARC
  5
15B8CB
330
18
100
AcDbEntity
  8
姿図
100
AcDbCircle
 10
1831.702109975735
 20
-3551.820399472602
 30
0.0
 40
0.4638012238845369
100
AcDbArc
 50
158.2947226870784
 51
211.3256838175564
  0
LINE
  5
15B8CC
330
18
100
AcDbEntity
  8
姿図
100
AcDbLine
 10
1833.653652077435
 20
-3552.697908504981
 30
0.0
 11
1837.466678280902
 21
-3555.195476920229
 31
0.0
  0
LINE
  5
15B8CD
330
18
100
AcDbEntity
  8
姿図
100
AcDbLine
 10
1832.73341142458
 20
-3552.798674496763
 30
0.0
 11
1833.653652077435
 21
-3552.697908504981
 31
0.0
  0
SPLINE
  5
15B8CE
330
18
100
AcDbEntity
  8
姿図
100
AcDbSpline
210
0.0
220
0.0
230
1.0
 70
     8
 71
     3
 72
     8
 73
     4
 74
     0
 42
0.0000000001
 43
0.0000000001
 40
133.0
 40
133.0
 40
133.0
 40
133.0
 40
134.0
 40
134.0
 40
134.0
 40
134.0
 10
1832.62052859906
 20
-3552.782485304055
 30
0.0
 10
1832.684991020933
 20
-3552.863136918638
 30
0.0
 10
1832.73341142458
 20
-3552.798674496763
 30
0.0
 10
1832.73341142458
 20
-3552.798674496763
 30
0.0
  0
LINE
  5
15B8CF
330
18
100
AcDbEntity
  8
姿図
100
AcDbLine
 10
1830.810327994155
 20
-3552.864182231338
 30
0.0
 11
1830.533879460609
 21
-3549.997722450235
 31
0.0
  0
LINE
  5
15B8D0
330
18
100
AcDbEntity
  8
姿図
100
AcDbLine
 10
1831.271192948983
 20
-3551.648870783071
 30
0.0
 11
1830.646908088227
 21
-3551.169701954073
 31
0.0
  0
LINE
  5
15B8D1
330
18
100
AcDbEntity
  8
姿図
100
AcDbLine
 10
1831.539532049579
 20
-3551.072317856138
 30
0.0
 11
1831.271192948983
 21
-3551.648870783071
 31
0.0
  0
SPLINE
  5
15B8D2
330
18
100
AcDbEntity
  8
姿図
100
AcDbSpline
210
0.0
220
0.0
230
1.0
 70
     8
 71
     3
 72
     8
 73
     4
 74
     0
 42
0.0000000001
 43
0.0000000001
 40
132.0
 40
132.0
 40
132.0
 40
132.0
 40
133.0
 40
133.0
 40
133.0
 40
133.0
 10
1831.539532049579
 20
-3551.072317856138
 30
0.0
 10
1831.539532049579
 20
-3551.072317856138
 30
0.0
 10
1832.200934158955
 20
-3551.65306835093
 30
0.0
 10
1832.62052859906
 20
-3552.782485304055
 30
0.0
  0
LINE
  5
15B8D3
330
18
100
AcDbEntity
  8
姿図
100
AcDbLine
 10
1792.70814860071
 20
-3552.697908504981
 30
0.0
 11
1792.72698929867
 21
-3554.120287030015
 31
0.0
  0
LINE
  5
15B8D4
330
18
100
AcDbEntity
  8
姿図
100
AcDbLine
 10
1792.70814860071
 20
-3552.697908504981
 30
0.0
 11
1788.755712638296
 21
-3555.286791637764
 31
0.0
  0
LINE
  5
15B8D5
330
18
100
AcDbEntity
  8
姿図
100
AcDbLine
 10
1793.628389253565
 20
-3552.798674496763
 30
0.0
 11
1792.70814860071
 21
-3552.697908504981
 31
0.0
  0
SPLINE
  5
15B8D6
330
18
100
AcDbEntity
  8
姿図
100
AcDbSpline
210
0.0
220
0.0
230
1.0
 70
     8
 71
     3
 72
     8
 73
     4
 74
     0
 42
0.0000000001
 43
0.0000000001
 40
132.2808036309329
 40
132.2808036309329
 40
132.2808036309329
 40
132.2808036309329
 40
133.0
 40
133.0
 40
133.0
 40
133.0
 10
1794.685811082831
 20
-3551.208985178401
 30
0.0
 10
1794.469887099871
 20
-3551.441734274209
 30
0.0
 10
1794.04304287689
 20
-3551.970212732204
 30
0.0
 10
1793.741272079085
 20
-3552.782485304055
 30
0.0
  0
SPLINE
  5
15B8D7
330
18
100
AcDbEntity
  8
姿図
100
AcDbSpline
210
0.0
220
0.0
230
1.0
 70
     8
 71
     3
 72
     8
 73
     4
 74
     0
 42
0.0000000001
 43
0.0000000001
 40
133.0
 40
133.0
 40
133.0
 40
133.0
 40
134.0
 40
134.0
 40
134.0
 40
134.0
 10
1793.741272079085
 20
-3552.782485304055
 30
0.0
 10
1793.67680965721
 20
-3552.863136918638
 30
0.0
 10
1793.628389253565
 20
-3552.798674496763
 30
0.0
 10
1793.628389253565
 20
-3552.798674496763
 30
0.0
  0
ELLIPSE
  5
15B8D8
330
18
100
AcDbEntity
  8
姿図
100
AcDbEllipse
 10
1813.188081778921
 20
-3572.94250902834
 30
0.0
 11
25.16729616729826
 21
0.0
 31
0.0
210
0.0
220
0.0
230
1.0
 40
0.4353578139121608
 41
0.0
 42
6.283185307179585
  0
ELLIPSE
  5
15B8D9
330
18
100
AcDbEntity
  8
姿図
100
AcDbEllipse
 10
1813.188081778921
 20
-3569.038600813893
 30
0.0
 11
25.16729616729826
 21
0.0
 31
0.0
210
0.0
220
0.0
230
1.0
 40
0.4353578139121608
 41
3.430182674761785
 42
3.654760014940498
  0
ELLIPSE
  5
15B8DA
330
18
100
AcDbEntity
  8
姿図
100
AcDbEllipse
 10
1813.188081778921
 20
-3569.038600813893
 30
0.0
 11
25.16729616729826
 21
0.0
 31
0.0
210
0.0
220
0.0
230
1.0
 40
0.4353578139121608
 41
3.891409807002059
 42
4.1768344607692
  0
ELLIPSE
  5
15B8DB
330
18
100
AcDbEntity
  8
姿図
100
AcDbEllipse
 10
1813.188081778921
 20
-3569.038600813893
 30
0.0
 11
25.16729616729826
 21
0.0
 31
0.0
210
0.0
220
0.0
230
1.0
 40
0.4353578139121608
 41
4.329600751246138
 42
4.635042359883844
  0
ELLIPSE
  5
15B8DC
330
18
100
AcDbEntity
  8
姿図
100
AcDbEllipse
 10
1813.188081778921
 20
-3569.038600813893
 30
0.0
 11
25.16729616729826
 21
0.0
 31
0.0
210
0.0
220
0.0
230
1.0
 40
0.4353578139121608
 41
4.789735600885534
 42
5.095177209523238
  0
ELLIPSE
  5
15B8DD
330
18
100
AcDbEntity
  8
姿図
100
AcDbEllipse
 10
1813.188081778921
 20
-3569.038600813893
 30
0.0
 11
25.16729616729826
 21
0.0
 31
0.0
210
0.0
220
0.0
230
1.0
 40
0.4353578139121608
 41
5.247943500000343
 42
5.533368153767316
  0
ELLIPSE
  5
15B8DE
330
18
100
AcDbEntity
  8
姿図
100
AcDbEllipse
 10
1813.188081778921
 20
-3569.038600813893
 30
0.0
 11
25.16729616729826
 21
0.0
 31
0.0
210
0.0
220
0.0
230
1.0
 40
0.4353578139121608
 41
5.77001794582888
 42
5.994595286008098
  0
ELLIPSE
  5
15B8DF
330
18
100
AcDbEntity
  8
姿図
100
AcDbEllipse
 10
1813.188081778921
 20
-3569.038600813893
 30
0.0
 11
19.99538315184036
 21
0.0
 31
0.0
210
0.0
220
0.0
230
-1.0
 40
0.3684551029263017
 41
5.542264346187126
 42
10.16569892176183
  0
LINE
  5
15B8E0
330
18
100
AcDbEntity
  8
姿図
100
AcDbLine
 10
1813.188081778921
 20
-3583.899288069815
 30
0.0
 11
1811.243416820349
 21
-3579.962621727864
 31
0.0
  0
LINE
  5
15B8E1
330
18
100
AcDbEntity
  8
姿図
100
AcDbLine
 10
1811.243416820349
 20
-3579.962621727864
 30
0.0
 11
1813.188081778921
 21
-3576.406001771155
 31
0.0
  0
LINE
  5
15B8E2
330
18
100
AcDbEntity
  8
姿図
100
AcDbLine
 10
1802.020966956636
 20
-3582.761621540832
 30
0.0
 11
1800.344757612751
 21
-3578.461274986018
 31
0.0
  0
LINE
  5
15B8E3
330
18
100
AcDbEntity
  8
姿図
100
AcDbLine
 10
1800.344757612751
 20
-3578.461274986018
 30
0.0
 11
1805.460304492235
 21
-3575.833544347384
 31
0.0
  0
LINE
  5
15B8E4
330
18
100
AcDbEntity
  8
姿図
100
AcDbLine
 10
1805.460304492235
 20
-3575.833544347384
 30
0.0
 11
1802.020966956636
 21
-3582.761621540832
 31
0.0
  0
LINE
  5
15B8E5
330
18
100
AcDbEntity
  8
姿図
100
AcDbLine
 10
1792.311820944653
 20
-3579.061951021064
 30
0.0
 11
1791.262486910526
 21
-3574.417711954009
 31
0.0
  0
LINE
  5
15B8E6
330
18
100
AcDbEntity
  8
姿図
100
AcDbLine
 10
1791.262486910526
 20
-3574.417711954009
 30
0.0
 11
1797.540500041254
 21
-3573.625364196963
 31
0.0
  0
LINE
  5
15B8E7
330
18
100
AcDbEntity
  8
姿図
100
AcDbLine
 10
1797.540500041254
 20
-3573.625364196963
 30
0.0
 11
1792.311820944653
 21
-3579.061951021064
 31
0.0
  0
LINE
  5
15B8E8
330
18
100
AcDbEntity
  8
姿図
100
AcDbLine
 10
1788.020785611623
 20
-3572.94250902834
 30
0.0
 11
1793.192698627079
 21
-3569.038600813893
 31
0.0
  0
LINE
  5
15B8E9
330
18
100
AcDbEntity
  8
姿図
100
AcDbLine
 10
1793.192698627079
 20
-3569.038600813893
 30
0.0
 11
1789.672481548843
 21
-3569.038600813893
 31
0.0
  0
LINE
  5
15B8EA
330
18
100
AcDbEntity
  8
姿図
100
AcDbLine
 10
1813.188081778921
 20
-3583.899288069815
 30
0.0
 11
1815.132746737492
 21
-3579.962621727864
 31
0.0
  0
LINE
  5
15B8EB
330
18
100
AcDbEntity
  8
姿図
100
AcDbLine
 10
1815.132746737492
 20
-3579.962621727864
 30
0.0
 11
1813.188081778921
 21
-3576.406001771155
 31
0.0
  0
LINE
  5
15B8EC
330
18
100
AcDbEntity
  8
姿図
100
AcDbLine
 10
1824.355196601206
 20
-3582.761621540832
 30
0.0
 11
1826.03140594509
 21
-3578.461274986018
 31
0.0
  0
LINE
  5
15B8ED
330
18
100
AcDbEntity
  8
姿図
100
AcDbLine
 10
1826.03140594509
 20
-3578.461274986018
 30
0.0
 11
1820.915859065606
 21
-3575.833544347384
 31
0.0
  0
LINE
  5
15B8EE
330
18
100
AcDbEntity
  8
姿図
100
AcDbLine
 10
1820.915859065606
 20
-3575.833544347384
 30
0.0
 11
1824.355196601206
 21
-3582.761621540832
 31
0.0
  0
LINE
  5
15B8EF
330
18
100
AcDbEntity
  8
姿図
100
AcDbLine
 10
1834.064342613188
 20
-3579.061951021064
 30
0.0
 11
1835.113676647316
 21
-3574.417711954009
 31
0.0
  0
LINE
  5
15B8F0
330
18
100
AcDbEntity
  8
姿図
100
AcDbLine
 10
1835.113676647316
 20
-3574.417711954009
 30
0.0
 11
1828.835663516586
 21
-3573.625364196963
 31
0.0
  0
LINE
  5
15B8F1
330
18
100
AcDbEntity
  8
姿図
100
AcDbLine
 10
1828.835663516586
 20
-3573.625364196963
 30
0.0
 11
1834.064342613188
 21
-3579.061951021064
 31
0.0
  0
LINE
  5
15B8F2
330
18
100
AcDbEntity
  8
姿図
100
AcDbLine
 10
1838.355377946218
 20
-3572.94250902834
 30
0.0
 11
1833.18346493076
 21
-3569.038600813893
 31
0.0
  0
LINE
  5
15B8F3
330
18
100
AcDbEntity
  8
姿図
100
AcDbLine
 10
1833.18346493076
 20
-3569.038600813893
 30
0.0
 11
1836.703682008998
 21
-3569.038600813893
 31
0.0
  0
LINE
  5
15B8F4
330
18
100
AcDbEntity
  8
姿図
100
AcDbLine
 10
1813.188081777593
 20
-3576.406001771155
 30
0.0
 11
1813.188081777356
 21
-3583.899288069815
 31
0.0
  0
ELLIPSE
  5
15B8F5
330
18
100
AcDbEntity
  8
姿図
100
AcDbEllipse
 10
1813.188081778921
 20
-3568.727721449634
 30
0.0
 11
19.99538315184036
 21
0.0
 31
0.0
210
0.0
220
0.0
230
-1.0
 40
0.3684551029263017
 41
6.304285179084702
 42
9.403678088864262
  0
LINE
  5
15B8F6
330
18
100
AcDbEntity
  8
姿図
100
AcDbLine
 10
1826.329446240776
 20
-3540.693595448921
 30
0.0
 11
1825.884295901027
 21
-3533.474604020086
 31
0.0
  0
LINE
  5
15B8F7
330
18
100
AcDbEntity
  8
姿図
100
AcDbLine
 10
1825.884295901027
 20
-3533.474604020086
 30
0.0
 11
1831.000008350939
 21
-3533.374801282011
 31
0.0
  0
LINE
  5
15B8F8
330
18
100
AcDbEntity
  8
姿図
100
AcDbLine
 10
1831.000008350939
 20
-3533.374801282011
 30
0.0
 11
1830.38873335015
 21
-3534.091001047878
 31
0.0
  0
LINE
  5
15B8F9
330
18
100
AcDbEntity
  8
姿図
100
AcDbLine
 10
1830.38873335015
 20
-3534.091001047878
 30
0.0
 11
1825.884295901027
 21
-3533.474604020086
 31
0.0
  0
LINE
  5
15B8FA
330
18
100
AcDbEntity
  8
姿図
100
AcDbLine
 10
1830.38873335015
 20
-3534.091001047878
 30
0.0
 11
1831.110977077647
 21
-3541.082363751422
 31
0.0
  0
LINE
  5
15B8FB
330
18
100
AcDbEntity
  8
姿図
100
AcDbLine
 10
1831.110977077647
 20
-3541.082363751422
 30
0.0
 11
1827.579531283
 21
-3538.853924529816
 31
0.0
  0
LINE
  5
15B8FC
330
18
100
AcDbEntity
  8
姿図
100
AcDbLine
 10
1827.579531283
 20
-3538.853924529816
 30
0.0
 11
1826.329446240776
 21
-3540.693595448921
 31
0.0
  0
LINE
  5
15B8FD
330
18
100
AcDbEntity
  8
姿図
100
AcDbLine
 10
1826.349496696505
 20
-3541.305237701525
 30
0.0
 11
1827.579531283
 21
-3538.853924529816
 31
0.0
  0
LINE
  5
15B8FE
330
18
100
AcDbEntity
  8
姿図
100
AcDbLine
 10
1831.110977077647
 20
-3541.082363751422
 30
0.0
 11
1830.381013147482
 21
-3541.831752462837
 31
0.0
  0
LINE
  5
15B8FF
330
18
100
AcDbEntity
  8
姿図
100
AcDbLine
 10
1830.381013147482
 20
-3541.831752462837
 30
0.0
 11
1827.085715276116
 21
-3539.838041314304
 31
0.0
  0
ARC
  5
15B900
330
18
100
AcDbEntity
  8
姿図
100
AcDbCircle
 10
1825.50997390373
 20
-3544.96456956883
 30
0.0
 40
4.178554211528678
100
AcDbArc
 50
7.996323837423456
 51
75.66240874418399
  0
ELLIPSE
  5
15B901
330
18
100
AcDbEntity
  8
姿図
100
AcDbEllipse
 10
1828.668402737541
 20
-3546.305732354461
 30
0.0
 11
0.0
 21
1.90130905266451
 31
0.0
210
0.0
220
0.0
230
1.0
 40
0.9623071241746059
 41
0.0
 42
6.283185307179585
  0
LINE
  5
15BB7C
330
18
100
AcDbEntity
  8
姿図
100
AcDbLine
 10
1795.570359164027
 20
-3570.202812821239
 30
0.0
 11
1807.981721808883
 21
-3563.037109257221
 31
0.0
  0
LINE
  5
15BB7D
330
18
100
AcDbEntity
  8
姿図
100
AcDbLine
 10
1796.439423294241
 20
-3570.987991187501
 30
0.0
 11
1810.361257143752
 21
-3562.950216666874
 31
0.0
  0
LINE
  5
15BB7E
330
18
100
AcDbEntity
  8
姿図
100
AcDbLine
 10
1803.224316894964
 20
-3573.834446655217
 30
0.0
 11
1821.003216332005
 21
-3563.569794279347
 31
0.0
  0
LINE
  5
15BB7F
330
18
100
AcDbEntity
  8
姿図
100
AcDbLine
 10
1804.781893371672
 20
-3574.222112232893
 30
0.0
 11
1822.845679159263
 21
-3563.792980645843
 31
0.0
  0
LINE
  5
15BB80
330
18
100
AcDbEntity
  8
姿図
100
AcDbLine
 10
1815.470632746326
 20
-3574.880712524246
 30
0.0
 11
1829.813815954119
 21
-3566.59967183819
 31
0.0
  0
LINE
  5
15BB81
330
18
100
AcDbEntity
  8
姿図
100
AcDbLine
 10
1817.679601846337
 20
-3574.89229639551
 30
0.0
 11
1830.838517056462
 21
-3567.2949931567
 31
0.0
  0
SPLINE
  5
15C0AF
330
18
100
AcDbEntity
  8
姿図
100
AcDbSpline
210
0.0
220
0.0
230
1.0
 70
     8
 71
     3
 72
     8
 73
     4
 74
     0
 42
0.0000000001
 43
0.0000000001
 40
36.0
 40
36.0
 40
36.0
 40
36.0
 40
37.0
 40
37.0
 40
37.0
 40
37.0
 10
1844.469114209527
 20
-3536.622112701523
 30
0.0
 10
1841.765403272026
 20
-3540.165255605171
 30
0.0
 10
1839.714262321506
 20
-3542.558287831733
 30
0.0
 10
1838.906249626194
 20
-3543.210857818713
 30
0.0
  0
SPLINE
  5
15C0B0
330
18
100
AcDbEntity
  8
姿図
100
AcDbSpline
210
0.0
220
0.0
230
1.0
 70
     8
 71
     3
 72
    12
 73
     8
 74
     6
 42
0.0000000001
 43
0.0000000001
 44
0.0000000001
 40
0.0
 40
0.0
 40
0.0
 40
0.0
 40
2.813366467461693
 40
4.18208340219308
 40
4.983029398489229
 40
5.478405391480359
 40
6.224154116147658
 40
6.224154116147658
 40
6.224154116147658
 40
6.224154116147658
 10
1838.363954054292
 20
-3538.465341455048
 30
0.0
 10
1838.557390085823
 20
-3539.392098797188
 30
0.0
 10
1838.844933719476
 20
-3540.769728246907
 30
0.0
 10
1838.630081656539
 20
-3542.434490865937
 30
0.0
 10
1838.345134547377
 20
-3543.284238872048
 30
0.0
 10
1837.952026936217
 20
-3543.851214042408
 30
0.0
 10
1837.617357317256
 20
-3544.099552238254
 30
0.0
 10
1837.416265970049
 20
-3544.248770032569
 30
0.0
 11
1838.363954054292
 21
-3538.465341455048
 31
0.0
 11
1838.732531101199
 21
-3541.254459925234
 31
0.0
 11
1838.550510209486
 21
-3542.61101970733
 31
0.0
 11
1838.270109689398
 21
-3543.361279687148
 31
0.0
 11
1837.984971373227
 21
-3543.766364264839
 31
0.0
 11
1837.416265970049
 21
-3544.248770032569
 31
0.0
  0
LINE
  5
15C0B1
330
18
100
AcDbEntity
  8
姿図
100
AcDbLine
 10
1840.393611720301
 20
-3539.328531105481
 30
0.0
 11
1838.733669438167
 21
-3541.101455973385
 31
0.0
  0
LINE
  5
15C0B2
330
18
100
AcDbEntity
  8
姿図
100
AcDbLine
 10
1840.342547587998
 20
-3538.657033383795
 30
0.0
 11
1838.696873906019
 21
-3540.407617819312
 31
0.0
  0
LINE
  5
15C0B3
330
18
100
AcDbEntity
  8
姿図
100
AcDbLine
 10
1840.271622845195
 20
-3538.122015794519
 30
0.0
 11
1838.60829428169
 21
-3539.732715704537
 31
0.0
  0
SPLINE
  5
15C0B4
330
18
100
AcDbEntity
  8
姿図
100
AcDbSpline
210
0.0
220
0.0
230
1.0
 70
     8
 71
     3
 72
     8
 73
     4
 74
     0
 42
0.0000000001
 43
0.0000000001
 40
0.0
 40
0.0
 40
0.0
 40
0.0
 40
1.0
 40
1.0
 40
1.0
 40
1.0
 10
1840.157264879193
 20
-3541.943709201611
 30
0.0
 10
1841.563851892977
 20
-3535.896778638154
 30
0.0
 10
1836.570268180878
 20
-3530.126281809597
 30
0.0
 10
1834.594781527232
 20
-3528.00961514293
 30
0.0
  0
SPLINE
  5
15C0B5
330
18
100
AcDbEntity
  8
姿図
100
AcDbSpline
210
0.0
220
0.0
230
1.0
 70
     8
 71
     3
 72
     8
 73
     4
 74
     0
 42
0.0000000001
 43
0.0000000001
 40
0.0
 40
0.0
 40
0.0
 40
0.0
 40
1.0
 40
1.0
 40
1.0
 40
1.0
 10
1832.426025016817
 20
-3531.233501047878
 30
0.0
 10
1834.75435835015
 20
-3533.173641021836
 30
0.0
 10
1837.038663363173
 20
-3538.015722727566
 30
0.0
 10
1836.942292682454
 20
-3539.899475799983
 30
0.0
  0
LINE
  5
15C0B6
330
18
100
AcDbEntity
  8
姿図
100
AcDbLine
 10
1840.298617901653
 20
-3541.201766291254
 30
0.0
 11
1837.972769416649
 21
-3543.941879527452
 31
0.0
  0
SPLINE
  5
15C0B7
330
18
100
AcDbEntity
  8
姿図
100
AcDbSpline
210
0.0
220
0.0
230
1.0
 70
     8
 71
     3
 72
     8
 73
     4
 74
     0
 42
0.0000000001
 43
0.0000000001
 40
0.0
 40
0.0
 40
0.0
 40
0.0
 40
1.0
 40
1.0
 40
1.0
 40
1.0
 10
1833.095333407409
 20
-3543.540359359695
 30
0.0
 10
1834.734766902695
 20
-3543.844173232746
 30
0.0
 10
1837.532401503868
 20
-3543.467823420098
 30
0.0
 10
1836.942292682454
 20
-3539.899475799983
 30
0.0
  0
SPLINE
  5
15C0B8
330
18
100
AcDbEntity
  8
姿図
100
AcDbSpline
210
0.0
220
0.0
230
1.0
 70
     8
 71
     3
 72
     8
 73
     4
 74
     0
 42
0.0000000001
 43
0.0000000001
 40
37.0
 40
37.0
 40
37.0
 40
37.0
 40
38.0
 40
38.0
 40
38.0
 40
38.0
 10
1838.906249626194
 20
-3543.210857818713
 30
0.0
 10
1837.053544357979
 20
-3544.958040163697
 30
0.0
 10
1835.171216932671
 20
-3544.859566050621
 30
0.0
 10
1833.501928337129
 20
-3544.5509310609
 30
0.0
  0
LINE
  5
15C0B9
330
18
100
AcDbEntity
  8
姿図
100
AcDbLine
 10
1840.372402146355
 20
-3540.556386437426
 30
0.0
 11
1838.513895156937
 21
-3542.745918401401
 31
0.0
  0
LINE
  5
15C0BA
330
18
100
AcDbEntity
  8
姿図
100
AcDbLine
 10
1840.378011702463
 20
-3539.905363342729
 30
0.0
 11
1838.685900984193
 21
-3541.89886163212
 31
0.0
  0
LINE
  5
15C0BB
330
18
100
AcDbEntity
  8
姿図
100
AcDbLine
 10
1846.977281527235
 20
-3503.050621816108
 30
0.0
 11
1845.690697220583
 21
-3504.924372115056
 31
0.0
  0
SPLINE
  5
15C0BC
330
18
100
AcDbEntity
  8
姿図
100
AcDbSpline
210
0.0
220
0.0
230
1.0
 70
     8
 71
     3
 72
     8
 73
     4
 74
     0
 42
0.0000000001
 43
0.0000000001
 40
0.0
 40
0.0
 40
0.0
 40
0.0
 40
1.0
 40
1.0
 40
1.0
 40
1.0
 10
1850.9195731939
 20
-3506.357913482774
 30
0.0
 10
1852.189573193902
 20
-3504.664580149441
 30
0.0
 10
1848.988114860565
 20
-3500.748746816107
 30
0.0
 10
1846.977281527235
 20
-3503.050621816108
 30
0.0
  0
LINE
  5
15C0BD
330
18
100
AcDbEntity
  8
姿図
100
AcDbLine
 10
1840.756213992174
 20
-3521.915664037944
 30
0.0
 11
1842.737824492429
 21
-3517.674130577507
 31
0.0
  0
ELLIPSE
  5
15C0BE
330
18
100
AcDbEntity
  8
姿図
100
AcDbEllipse
 10
1842.871542348244
 20
-3513.813319962791
 30
0.0
 11
-0.7457942708333336
 21
0.6259049479166669
 31
0.0
210
0.0
220
0.0
230
1.0
 40
0.7351581471724163
 41
0.0
 42
6.283185307179585
  0
LINE
  5
15C0BF
330
18
100
AcDbEntity
  8
姿図
100
AcDbLine
 10
1850.9195731939
 20
-3506.357913482774
 30
0.0
 11
1849.702231457801
 21
-3508.204914737547
 31
0.0
  0
SPLINE
  5
15C0C0
330
18
100
AcDbEntity
  8
姿図
100
AcDbSpline
210
0.0
220
0.0
230
1.0
 70
     8
 71
     3
 72
     8
 73
     4
 74
     0
 42
0.0000000001
 43
0.0000000001
 40
0.0
 40
0.0
 40
0.0
 40
0.0
 40
1.0
 40
1.0
 40
1.0
 40
1.0
 10
1817.105823193902
 20
-3516.121038482774
 30
0.0
 10
1817.873114860568
 20
-3515.300830149441
 30
0.0
 10
1819.434156527233
 20
-3513.924996816108
 30
0.0
 10
1822.0270731939
 20
-3513.607496816107
 30
0.0
  0
SPLINE
  5
15C0C1
330
18
100
AcDbEntity
  8
姿図
100
AcDbSpline
210
0.0
220
0.0
230
1.0
 70
     8
 71
     3
 72
     8
 73
     4
 74
     0
 42
0.0000000001
 43
0.0000000001
 40
0.0
 40
0.0
 40
0.0
 40
0.0
 40
1.0
 40
1.0
 40
1.0
 40
1.0
 10
1818.349364860569
 20
-3514.586455149441
 30
0.0
 10
1819.222489860565
 20
-3513.898538482776
 30
0.0
 10
1820.2808231939
 20
-3513.263538482775
 30
0.0
 10
1822.423948193902
 20
-3512.734371816108
 30
0.0
  0
SPLINE
  5
15C0C2
330
18
100
AcDbEntity
  8
姿図
100
AcDbSpline
210
0.0
220
0.0
230
1.0
 70
     8
 71
     3
 72
     8
 73
     4
 74
     0
 42
0.0000000001
 43
0.0000000001
 40
0.0106763948050698
 40
0.0106763948050698
 40
0.0106763948050698
 40
0.0106763948050698
 40
1.0
 40
1.0
 40
1.0
 40
1.0
 10
1834.793608584487
 20
-3517.314107982183
 30
0.0
 10
1832.720980424509
 20
-3515.740688286368
 30
0.0
 10
1826.817254424803
 20
-3512.848397058206
 30
0.0
 10
1822.0270731939
 20
-3513.607496816107
 30
0.0
  0
SPLINE
  5
15C0C3
330
18
100
AcDbEntity
  8
姿図
100
AcDbSpline
210
0.0
220
0.0
230
1.0
 70
     8
 71
     3
 72
     8
 73
     4
 74
     0
 42
0.0000000001
 43
0.0000000001
 40
0.0
 40
0.0
 40
0.0
 40
0.0
 40
0.9548759970193254
 40
0.9548759970193254
 40
0.9548759970193254
 40
0.9548759970193254
 10
1822.423948193902
 20
-3512.734371816108
 30
0.0
 10
1829.523252299239
 20
-3512.431198687054
 30
0.0
 10
1833.607006989221
 20
-3515.336570135943
 30
0.0
 10
1835.389322250969
 20
-3516.405644640799
 30
0.0
  0
LINE
  5
15C0C4
330
18
100
AcDbEntity
  8
姿図
100
AcDbLine
 10
1840.149148144055
 20
-3537.465421400217
 30
0.0
 11
1838.491480175233
 21
-3539.087800071311
 31
0.0
  0
LINE
  5
15C0C5
330
18
100
AcDbEntity
  8
姿図
100
AcDbLine
 10
1840.013432046297
 20
-3536.900444131748
 30
0.0
 11
1838.364732177131
 21
-3538.446498738838
 31
0.0
  0
LINE
  5
15C0C6
330
18
100
AcDbEntity
  8
姿図
100
AcDbLine
 10
1839.812482398909
 20
-3536.215738549037
 30
0.0
 11
1838.13640479083
 21
-3537.651565855128
 31
0.0
  0
LINE
  5
15C0C7
330
18
100
AcDbEntity
  8
姿図
100
AcDbLine
 10
1839.579223352639
 20
-3535.548328619631
 30
0.0
 11
1837.910209762154
 21
-3537.023541996158
 31
0.0
  0
LINE
  5
15C0C8
330
18
100
AcDbEntity
  8
姿図
100
AcDbLine
 10
1839.313882718325
 20
-3534.889817970016
 30
0.0
 11
1837.613298337445
 21
-3536.32846284334
 31
0.0
  0
SPLINE
  5
15C0C9
330
18
100
AcDbEntity
  8
姿図
100
AcDbSpline
210
0.0
220
0.0
230
1.0
 70
     8
 71
     3
 72
     8
 73
     4
 74
     0
 42
0.0000000001
 43
0.0000000001
 40
35.0
 40
35.0
 40
35.0
 40
35.0
 40
36.0
 40
36.0
 40
36.0
 40
36.0
 10
1846.0776981939
 20
-3529.20902513642
 30
0.0
 10
1846.364812451711
 20
-3530.530701568712
 30
0.0
 10
1847.235043571505
 20
-3533.607516347358
 30
0.0
 10
1844.469114209527
 20
-3536.622112701523
 30
0.0
  0
SPLINE
  5
15C0CA
330
18
100
AcDbEntity
  8
姿図
100
AcDbSpline
210
0.0
220
0.0
230
1.0
 70
     8
 71
     3
 72
     8
 73
     4
 74
     0
 42
0.0000000001
 43
0.0000000001
 40
0.3748330610719267
 40
0.3748330610719267
 40
0.3748330610719267
 40
0.3748330610719267
 40
0.9335741083362055
 40
0.9335741083362055
 40
0.9335741083362055
 40
0.9335741083362055
 10
1838.363954054292
 20
-3538.465341455048
 30
0.0
 10
1837.579504086591
 20
-3535.067077182513
 30
0.0
 10
1834.61421259802
 20
-3531.600454653546
 30
0.0
 10
1833.164855119672
 20
-3529.984422071877
 30
0.0
  0
LINE
  5
15C0CB
330
18
100
AcDbEntity
  8
姿図
100
AcDbLine
 10
1835.06350405026
 20
-3528.52081723349
 30
0.0
 11
1833.547107799977
 21
-3530.415013008698
 31
0.0
  0
LINE
  5
15C0CC
330
18
100
AcDbEntity
  8
姿図
100
AcDbLine
 10
1837.064697342032
 20
-3530.990630398086
 30
0.0
 11
1835.437538559911
 21
-3532.746396565939
 31
0.0
  0
LINE
  5
15C0CD
330
18
100
AcDbEntity
  8
姿図
100
AcDbLine
 10
1836.693858762343
 20
-3530.457823362214
 30
0.0
 11
1835.019665240246
 21
-3532.194021051992
 31
0.0
  0
LINE
  5
15C0CE
330
18
100
AcDbEntity
  8
姿図
100
AcDbLine
 10
1836.205782073832
 20
-3529.862787566627
 30
0.0
 11
1834.572474677288
 21
-3531.629268718904
 31
0.0
  0
LINE
  5
15C0CF
330
18
100
AcDbEntity
  8
姿図
100
AcDbLine
 10
1835.661727112472
 20
-3529.204452793503
 30
0.0
 11
1834.07554624468
 21
-3531.028428267906
 31
0.0
  0
LINE
  5
15C0D0
330
18
100
AcDbEntity
  8
姿図
100
AcDbLine
 10
1837.955237635448
 20
-3532.314925011135
 30
0.0
 11
1836.264370137247
 21
-3533.930579970754
 31
0.0
  0
LINE
  5
15C0D1
330
18
100
AcDbEntity
  8
姿図
100
AcDbLine
 10
1837.490410691711
 20
-3531.600081706642
 30
0.0
 11
1835.834055719723
 21
-3533.297034576872
 31
0.0
  0
LINE
  5
15C0D2
330
18
100
AcDbEntity
  8
姿図
100
AcDbLine
 10
1839.076655158891
 20
-3534.362243656222
 30
0.0
 11
1837.353032159364
 21
-3535.791649096067
 31
0.0
  0
LINE
  5
15C0D3
330
18
100
AcDbEntity
  8
姿図
100
AcDbLine
 10
1838.717486076681
 20
-3533.640765675542
 30
0.0
 11
1837.007168340777
 21
-3535.14671111213
 31
0.0
  0
LINE
  5
15C0D4
330
18
100
AcDbEntity
  8
姿図
100
AcDbLine
 10
1838.36040747305
 20
-3532.991216796462
 30
0.0
 11
1836.690037516515
 21
-3534.604473781221
 31
0.0
  0
SPLINE
  5
15C0D5
330
18
100
AcDbEntity
  8
姿図
100
AcDbSpline
210
0.0
220
0.0
230
1.0
 70
     8
 71
     3
 72
     8
 73
     4
 74
     0
 42
0.0000000001
 43
0.0000000001
 40
0.0
 40
0.0
 40
0.0
 40
0.0
 40
0.986699542059012
 40
0.986699542059012
 40
0.986699542059012
 40
0.986699542059012
 10
1846.0776981939
 20
-3529.20902513642
 30
0.0
 10
1845.590446238888
 20
-3527.190162232826
 30
0.0
 10
1844.004001007963
 20
-3524.003481939976
 30
0.0
 10
1841.110808989828
 20
-3521.15667202248
 30
0.0
  0
SPLINE
  5
15C0D6
330
18
100
AcDbEntity
  8
姿図
100
AcDbSpline
210
0.0
220
0.0
230
1.0
 70
     8
 71
     3
 72
     8
 73
     4
 74
     0
 42
0.0000000001
 43
0.0000000001
 40
0.0
 40
0.0
 40
0.0
 40
0.0
 40
1.0
 40
1.0
 40
1.0
 40
1.0
 10
1845.231031527235
 20
-3535.634059316108
 30
0.0
 10
1847.228635693902
 20
-3531.030309316108
 30
0.0
 10
1843.603844027233
 20
-3524.600934316108
 30
0.0
 10
1840.680198193901
 20
-3522.378434316108
 30
0.0
  0
SPLINE
  5
15C0D7
330
18
100
AcDbEntity
  8
姿図
100
AcDbSpline
210
0.0
220
0.0
230
1.0
 70
    24
 71
     3
 72
     8
 73
     4
 74
     0
 42
0.0000000001
 43
0.0000000001
 40
0.0
 40
0.0
 40
0.0
 40
0.0
 40
1.0
 40
1.0
 40
1.0
 40
1.0
 10
1850.433024746346
 20
-3508.271017439108
 30
0.0
 10
1850.433024746346
 20
-3508.271017439108
 30
0.0
 10
1851.743505702938
 20
-3505.728486772073
 30
0.0
 10
1851.743505702938
 20
-3505.728486772073
 30
0.0
  0
SPLINE
  5
15C0D8
330
18
100
AcDbEntity
  8
姿図
100
AcDbSpline
210
0.0
220
0.0
230
1.0
 70
     8
 71
     3
 72
     8
 73
     4
 74
     0
 42
0.0000000001
 43
0.0000000001
 40
1.0
 40
1.0
 40
1.0
 40
1.0
 40
2.0
 40
2.0
 40
2.0
 40
2.0
 10
1851.743505702938
 20
-3505.728486772073
 30
0.0
 10
1851.743505702938
 20
-3505.728486772073
 30
0.0
 10
1851.772477323435
 20
-3505.547475594193
 30
0.0
 10
1851.694029851258
 20
-3505.444294391147
 30
0.0
  0
SPLINE
  5
15C0D9
330
18
100
AcDbEntity
  8
姿図
100
AcDbSpline
210
-0.0000000026078672
220
0.0000000018316479
230
-1.0
 70
     8
 71
     3
 72
     8
 73
     4
 74
     0
 42
0.0000000001
 43
0.0000000001
 40
1.471451898813355
 40
1.471451898813355
 40
1.471451898813355
 40
1.471451898813355
 40
1.773254205883106
 40
1.773254205883106
 40
1.773254205883106
 40
1.773254205883106
 10
1834.348933674753
 20
-3502.08690480296
 30
0.0000000000000018
 10
1835.657721226582
 20
-3500.220927618546
 30
0.000000000000003
 10
1837.111967241084
 20
-3498.149480569136
 30
0.0000000000000049
 10
1838.361564517219
 20
-3496.374173111739
 30
0.000000000000008
  0
SPLINE
  5
15C0DA
330
18
100
AcDbEntity
  8
姿図
100
AcDbSpline
210
0.0
220
0.0
230
1.0
 70
     8
 71
     3
 72
     8
 73
     4
 74
     0
 42
0.0000000001
 43
0.0000000001
 40
0.0
 40
0.0
 40
0.0
 40
0.0
 40
1.0
 40
1.0
 40
1.0
 40
1.0
 10
1856.477684941923
 20
-3508.85661661729
 30
0.0
 10
1856.477684941923
 20
-3508.85661661729
 30
0.0
 10
1856.978796329009
 20
-3509.207481794
 30
0.0
 10
1856.862892974799
 20
-3509.50393104789
 30
0.0
  0
SPLINE
  5
15C0DB
330
18
100
AcDbEntity
  8
姿図
100
AcDbSpline
210
0.0
220
0.0
230
1.0
 70
     8
 71
     3
 72
     8
 73
     4
 74
     0
 42
0.0000000001
 43
0.0000000001
 40
1.0
 40
1.0
 40
1.0
 40
1.0
 40
1.88888372913265
 40
1.88888372913265
 40
1.88888372913265
 40
1.88888372913265
 10
1856.862892974799
 20
-3509.50393104789
 30
0.0
 10
1856.862892974799
 20
-3509.50393104789
 30
0.0
 10
1851.890713202187
 20
-3517.094999463596
 30
0.0
 10
1848.636393794075
 20
-3521.887370563649
 30
0.0
  0
SPLINE
  5
15C0DC
330
18
100
AcDbEntity
  8
姿図
100
AcDbSpline
210
0.0
220
0.0
230
1.0
 70
     8
 71
     3
 72
    11
 73
     7
 74
     0
 42
0.0000000001
 43
0.0000000001
 40
0.0
 40
0.0
 40
0.0
 40
0.0
 40
1.0
 40
1.0
 40
1.0
 40
1.788176320105198
 40
1.788176320105198
 40
1.788176320105198
 40
1.788176320105198
 10
1856.911565596323
 20
-3506.389767292354
 30
0.0
 10
1856.911565596323
 20
-3506.389767292354
 30
0.0
 10
1857.389026028093
 20
-3506.534642267062
 30
0.0
 10
1856.973416703391
 20
-3507.230595067052
 30
0.0
 10
1856.64584327525
 20
-3507.779128583916
 30
0.0
 10
1850.299582793743
 20
-3517.758128908936
 30
0.0
 10
1845.843316661538
 20
-3528.400955929264
 30
0.0
  0
SPLINE
  5
15C0DD
330
18
100
AcDbEntity
  8
姿図
100
AcDbSpline
210
0.0
220
0.0
230
1.0
 70
    24
 71
     3
 72
     8
 73
     4
 74
     0
 42
0.0000000001
 43
0.0000000001
 40
0.0
 40
0.0
 40
0.0
 40
0.0
 40
1.0
 40
1.0
 40
1.0
 40
1.0
 10
1855.078335767752
 20
-3505.920105720513
 30
0.0
 10
1855.078335767752
 20
-3505.920105720513
 30
0.0
 10
1857.182790532834
 20
-3506.429287122963
 30
0.0
 10
1857.182790532834
 20
-3506.429287122963
 30
0.0
  0
SPLINE
  5
15C0DE
330
18
100
AcDbEntity
  8
姿図
100
AcDbSpline
210
0.0
220
0.0
230
1.0
 70
     8
 71
     3
 72
     8
 73
     4
 74
     0
 42
0.0000000001
 43
0.0000000001
 40
1.0
 40
1.0
 40
1.0
 40
1.0
 40
2.0
 40
2.0
 40
2.0
 40
2.0
 10
1857.182790532834
 20
-3506.429287122963
 30
0.0
 10
1857.182790532834
 20
-3506.429287122963
 30
0.0
 10
1857.711054885086
 20
-3506.599741700782
 30
0.0
 10
1857.477184228092
 20
-3507.064234688127
 30
0.0
  0
SPLINE
  5
15C0DF
330
18
100
AcDbEntity
  8
姿図
100
AcDbSpline
210
0.0
220
0.0
230
1.0
 70
     8
 71
     3
 72
     8
 73
     4
 74
     0
 42
0.0000000001
 43
0.0000000001
 40
2.0
 40
2.0
 40
2.0
 40
2.0
 40
2.733284138265211
 40
2.733284138265211
 40
2.733284138265211
 40
2.733284138265211
 10
1857.477184228092
 20
-3507.064234688127
 30
0.0
 10
1857.477184228092
 20
-3507.064234688127
 30
0.0
 10
1851.311127118339
 20
-3516.645087237715
 30
0.0
 10
1846.0776981939
 20
-3529.20902513642
 30
0.0
  0
SPLINE
  5
15C0E0
330
18
100
AcDbEntity
  8
姿図
100
AcDbSpline
210
0.0
220
0.0
230
1.0
 70
     8
 71
     3
 72
    11
 73
     7
 74
     0
 42
0.0000000001
 43
0.0000000001
 40
0.0
 40
0.0
 40
0.0
 40
0.0
 40
1.0
 40
1.0
 40
1.0
 40
1.768789991941922
 40
1.768789991941922
 40
1.768789991941922
 40
1.768789991941922
 10
1856.054175708641
 20
-3503.274283857962
 30
0.0
 10
1856.054175708641
 20
-3503.274283857962
 30
0.0
 10
1856.544730495667
 20
-3503.067913061914
 30
0.0
 10
1855.753632255863
 20
-3504.190412380711
 30
0.0
 10
1855.145443846459
 20
-3505.053378622964
 30
0.0
 10
1849.436486296057
 20
-3512.994122584347
 30
0.0
 10
1844.11529320467
 20
-3524.867104336554
 30
0.0
  0
SPLINE
  5
15C0E1
330
18
100
AcDbEntity
  8
姿図
100
AcDbSpline
210
0.0
220
0.0
230
1.0
 70
     8
 71
     3
 72
     8
 73
     4
 74
     0
 42
0.0000000001
 43
0.0000000001
 40
0.0
 40
0.0
 40
0.0
 40
0.0
 40
1.0
 40
1.0
 40
1.0
 40
1.0
 10
1853.644626957499
 20
-3500.540269543279
 30
0.0
 10
1853.644626957499
 20
-3500.540269543279
 30
0.0
 10
1854.241628054124
 20
-3500.387494106125
 30
0.0
 10
1853.942167376892
 20
-3500.91600375164
 30
0.0
  0
SPLINE
  5
15C0E2
330
18
100
AcDbEntity
  8
姿図
100
AcDbSpline
210
0.0
220
0.0
230
1.0
 70
     8
 71
     3
 72
     8
 73
     4
 74
     0
 42
0.0000000001
 43
0.0000000001
 40
1.0
 40
1.0
 40
1.0
 40
1.0
 40
1.309625444955235
 40
1.309625444955235
 40
1.309625444955235
 40
1.309625444955235
 10
1853.942167376892
 20
-3500.91600375164
 30
0.0
 10
1853.849446731458
 20
-3501.079643785796
 30
0.0
 10
1852.990549964243
 20
-3502.408012438595
 30
0.0
 10
1851.195212049826
 20
-3505.183269385883
 30
0.0
  0
SPLINE
  5
15C0E3
330
18
100
AcDbEntity
  8
姿図
100
AcDbSpline
210
0.0
220
0.0
230
1.0
 70
     8
 71
     3
 72
     8
 73
     4
 74
     0
 42
0.0000000001
 43
0.0000000001
 40
1.612607606405297
 40
1.612607606405297
 40
1.612607606405297
 40
1.612607606405297
 40
1.648289524194878
 40
1.648289524194878
 40
1.648289524194878
 40
1.648289524194878
 10
1843.075157218535
 20
-3517.751185828757
 30
0.0
 10
1842.638265629887
 20
-3518.428478839549
 30
0.0
 10
1842.186724653819
 20
-3519.128654528451
 30
0.0
 10
1841.720273698927
 20
-3519.852144742137
 30
0.0
  0
SPLINE
  5
15C0E4
330
18
100
AcDbEntity
  8
姿図
100
AcDbSpline
210
0.0
220
0.0
230
1.0
 70
    24
 71
     3
 72
     8
 73
     4
 74
     0
 42
0.0000000001
 43
0.0000000001
 40
0.0
 40
0.0
 40
0.0
 40
0.0
 40
1.0
 40
1.0
 40
1.0
 40
1.0
 10
1852.835502681259
 20
-3503.562671486434
 30
0.0
 10
1852.835502681259
 20
-3503.562671486434
 30
0.0
 10
1856.054175708641
 20
-3503.274283857962
 30
0.0
 10
1856.054175708641
 20
-3503.274283857962
 30
0.0
  0
SPLINE
  5
15C0E5
330
18
100
AcDbEntity
  8
姿図
100
AcDbSpline
210
0.0
220
0.0
230
1.0
 70
     8
 71
     3
 72
    11
 73
     7
 74
     0
 42
0.0000000001
 43
0.0000000001
 40
1.0
 40
1.0
 40
1.0
 40
1.0
 40
2.0
 40
2.0
 40
2.0
 40
2.814388548252563
 40
2.814388548252563
 40
2.814388548252563
 40
2.814388548252563
 10
1856.054175708641
 20
-3503.274283857962
 30
0.0
 10
1856.054175708641
 20
-3503.274283857962
 30
0.0
 10
1856.841179749559
 20
-3503.183816416122
 30
0.0
 10
1856.46593612771
 20
-3503.739369034345
 30
0.0
 10
1856.160342019271
 20
-3504.191804724577
 30
0.0
 10
1848.979520895633
 20
-3514.821208199669
 30
0.0
 10
1844.506286293885
 20
-3525.510164420352
 30
0.0
  0
SPLINE
  5
15C0E6
330
18
100
AcDbEntity
  8
姿図
100
AcDbSpline
210
0.0
220
0.0
230
1.0
 70
     8
 71
     3
 72
     8
 73
     4
 74
     0
 42
0.0000000001
 43
0.0000000001
 40
1.0
 40
1.0
 40
1.0
 40
1.0
 40
1.201957035102942
 40
1.201957035102942
 40
1.201957035102942
 40
1.201957035102942
 10
1849.931558627401
 20
-3502.843515675558
 30
0.0
 10
1849.700034283154
 20
-3502.485335932636
 30
0.0
 10
1849.434661829409
 20
-3502.199786702355
 30
0.0
 10
1849.158556094853
 20
-3501.9721404484
 30
0.0
  0
SPLINE
  5
15C0E7
330
18
100
AcDbEntity
  8
姿図
100
AcDbSpline
210
0.0
220
0.0
230
1.0
 70
     8
 71
     3
 72
     8
 73
     4
 74
     0
 42
0.0000000001
 43
0.0000000001
 40
1.371408514633379
 40
1.371408514633379
 40
1.371408514633379
 40
1.371408514633379
 40
2.0
 40
2.0
 40
2.0
 40
2.0
 10
1848.454543874914
 20
-3501.51271432539
 30
0.0
 10
1847.589753043796
 20
-3501.074325446897
 30
0.0
 10
1846.808868522117
 20
-3501.077169683888
 30
0.0
 10
1846.808868522117
 20
-3501.077169683888
 30
0.0
  0
SPLINE
  5
15C0E8
330
18
100
AcDbEntity
  8
姿図
100
AcDbSpline
210
0.0
220
0.0
230
1.0
 70
    24
 71
     3
 72
     8
 73
     4
 74
     0
 42
0.0000000001
 43
0.0000000001
 40
2.0
 40
2.0
 40
2.0
 40
2.0
 40
3.0
 40
3.0
 40
3.0
 40
3.0
 10
1846.808868522117
 20
-3501.077169683888
 30
0.0
 10
1846.808868522117
 20
-3501.077169683888
 30
0.0
 10
1844.95309971706
 20
-3503.797755101689
 30
0.0
 10
1844.95309971706
 20
-3503.797755101689
 30
0.0
  0
SPLINE
  5
15C0E9
330
18
100
AcDbEntity
  8
姿図
100
AcDbSpline
210
0.0
220
0.0
230
1.0
 70
    24
 71
     3
 72
     8
 73
     4
 74
     0
 42
0.0000000001
 43
0.0000000001
 40
0.1253663450285614
 40
0.1253663450285614
 40
0.1253663450285614
 40
0.1253663450285614
 40
1.0
 40
1.0
 40
1.0
 40
1.0
 10
1849.575603071225
 20
-3502.374370082547
 30
0.0
 10
1850.464278940908
 20
-3501.965612914562
 30
0.0
 10
1854.008594879419
 20
-3500.335362116823
 30
0.0
 10
1854.008594879419
 20
-3500.335362116823
 30
0.0
  0
SPLINE
  5
15C0EA
330
18
100
AcDbEntity
  8
姿図
100
AcDbSpline
210
0.0
220
0.0
230
1.0
 70
     8
 71
     3
 72
    11
 73
     7
 74
     0
 42
0.0000000001
 43
0.0000000001
 40
1.0
 40
1.0
 40
1.0
 40
1.0
 40
2.0
 40
2.0
 40
2.0
 40
2.466205817988146
 40
2.466205817988146
 40
2.466205817988146
 40
2.466205817988146
 10
1854.008594879419
 20
-3500.335362116823
 30
0.0
 10
1854.008594879419
 20
-3500.335362116823
 30
0.0
 10
1855.121129787189
 20
-3499.923593307811
 30
0.0
 10
1854.484617249904
 20
-3500.995043412857
 30
0.0
 10
1854.187871401804
 20
-3501.494559685514
 30
0.0
 10
1852.542952007103
 20
-3504.113050445734
 30
0.0
 10
1849.871275245576
 20
-3508.349817498873
 30
0.0
  0
SPLINE
  5
15C0EB
330
18
100
AcDbEntity
  8
姿図
100
AcDbSpline
210
0.0
220
0.0
230
1.0
 70
     8
 71
     3
 72
     8
 73
     4
 74
     0
 42
0.0000000001
 43
0.0000000001
 40
2.751548371221979
 40
2.751548371221979
 40
2.751548371221979
 40
2.751548371221979
 40
2.782200575022114
 40
2.782200575022114
 40
2.782200575022114
 40
2.782200575022114
 10
1843.885451956467
 20
-3517.833052600627
 30
0.0
 10
1843.635074122634
 20
-3518.229523726508
 30
0.0
 10
1843.381108195219
 20
-3518.631665636777
 30
0.0
 10
1841.561869213643
 20
-3521.614069059936
 30
0.0
  0
SPLINE
  5
15C0EC
330
18
100
AcDbEntity
  8
姿図
100
AcDbSpline
210
0.0
220
0.0
230
1.0
 70
    24
 71
     3
 72
     8
 73
     4
 74
     0
 42
0.0000000001
 43
0.0000000001
 40
1.593919470979719
 40
1.593919470979719
 40
1.593919470979719
 40
1.593919470979719
 40
2.0
 40
2.0
 40
2.0
 40
2.0
 10
1847.801702909777
 20
-3502.452482736713
 30
0.0
 10
1849.764872594904
 20
-3499.626488421603
 30
0.0
 10
1851.082666444885
 20
-3497.729516419264
 30
0.0
 10
1851.082666444885
 20
-3497.729516419264
 30
0.0
  0
SPLINE
  5
15C0ED
330
18
100
AcDbEntity
  8
姿図
100
AcDbSpline
210
0.0
220
0.0
230
1.0
 70
     8
 71
     3
 72
     8
 73
     4
 74
     0
 42
0.0000000001
 43
0.0000000001
 40
2.0
 40
2.0
 40
2.0
 40
2.0
 40
3.0
 40
3.0
 40
3.0
 40
3.0
 10
1851.082666444885
 20
-3497.729516419264
 30
0.0
 10
1851.082666444885
 20
-3497.729516419264
 30
0.0
 10
1851.517612679536
 20
-3497.483016777516
 30
0.0
 10
1851.597963352724
 20
-3497.988966679373
 30
0.0
  0
SPLINE
  5
15C0EE
330
18
100
AcDbEntity
  8
姿図
100
AcDbSpline
210
0.0
220
0.0
230
1.0
 70
     8
 71
     3
 72
     8
 73
     4
 74
     0
 42
0.0000000001
 43
0.0000000001
 40
3.0
 40
3.0
 40
3.0
 40
3.0
 40
3.386391109152339
 40
3.386391109152339
 40
3.386391109152339
 40
3.386391109152339
 10
1851.597963352724
 20
-3497.988966679373
 30
0.0
 10
1851.612909868194
 20
-3498.083787073068
 30
0.0
 10
1850.48863426782
 20
-3499.88461515777
 30
0.0
 10
1848.863864559349
 20
-3502.404317376242
 30
0.0
  0
SPLINE
  5
15C0EF
330
18
100
AcDbEntity
  8
姿図
100
AcDbSpline
210
0.0
220
0.0
230
1.0
 70
     8
 71
     3
 72
     8
 73
     4
 74
     0
 42
0.0000000001
 43
0.0000000001
 40
1.170835818589571
 40
1.170835818589571
 40
1.170835818589571
 40
1.170835818589571
 40
1.260682760381689
 40
1.260682760381689
 40
1.260682760381689
 40
1.260682760381689
 10
1842.793257699514
 20
-3504.105603074352
 30
0.0
 10
1843.987354792807
 20
-3502.342881009389
 30
0.0
 10
1845.745370609078
 20
-3499.745121513492
 30
0.0
 10
1848.330179171811
 20
-3495.921554408826
 30
0.0
  0
SPLINE
  5
15C0F0
330
18
100
AcDbEntity
  8
姿図
100
AcDbSpline
210
0.0
220
0.0
230
1.0
 70
    24
 71
     3
 72
     8
 73
     4
 74
     0
 42
0.0000000001
 43
0.0000000001
 40
1.505104155280973
 40
1.505104155280973
 40
1.505104155280973
 40
1.505104155280973
 40
2.0
 40
2.0
 40
2.0
 40
2.0
 10
1842.013206363643
 20
-3503.968008943687
 30
0.0
 10
1845.741381838086
 20
-3498.674284052828
 30
0.0
 10
1847.714331006204
 20
-3495.872846676495
 30
0.0
 10
1847.714331006204
 20
-3495.872846676495
 30
0.0
  0
SPLINE
  5
15C0F1
330
18
100
AcDbEntity
  8
姿図
100
AcDbSpline
210
0.0
220
0.0
230
1.0
 70
     8
 71
     3
 72
     8
 73
     4
 74
     0
 42
0.0000000001
 43
0.0000000001
 40
2.0
 40
2.0
 40
2.0
 40
2.0
 40
3.0
 40
3.0
 40
3.0
 40
3.0
 10
1847.714331006204
 20
-3495.872846676495
 30
0.0
 10
1847.714331006204
 20
-3495.872846676495
 30
0.0
 10
1848.390617057301
 20
-3495.306627465741
 30
0.0
 10
1848.542491625974
 20
-3495.900900579381
 30
0.0
  0
SPLINE
  5
15C0F2
330
18
100
AcDbEntity
  8
姿図
100
AcDbSpline
210
0.0
220
0.0
230
1.0
 70
    24
 71
     3
 72
     8
 73
     4
 74
     0
 42
0.0000000001
 43
0.0000000001
 40
3.0
 40
3.0
 40
3.0
 40
3.0
 40
4.0
 40
4.0
 40
4.0
 40
4.0
 10
1848.542491625974
 20
-3495.900900579381
 30
0.0
 10
1848.542491625974
 20
-3495.900900579381
 30
0.0
 10
1847.376897998245
 20
-3501.105405424615
 30
0.0
 10
1847.376897998245
 20
-3501.105405424615
 30
0.0
  0
SPLINE
  5
15C0F3
330
18
100
AcDbEntity
  8
姿図
100
AcDbSpline
210
0.0
220
0.0
230
1.0
 70
    24
 71
     3
 72
     8
 73
     4
 74
     0
 42
0.0000000001
 43
0.0000000001
 40
1.351290308159436
 40
1.351290308159436
 40
1.351290308159436
 40
1.351290308159436
 40
1.428242292534494
 40
1.428242292534494
 40
1.428242292534494
 40
1.428242292534494
 10
1838.72593312997
 20
-3503.280514962943
 30
0.0
 10
1839.009817520164
 20
-3502.878868300902
 30
0.0
 10
1839.307957462919
 20
-3502.457052530248
 30
0.0
 10
1839.612976216044
 20
-3502.025504448418
 30
0.0
  0
SPLINE
  5
15C0F4
330
18
100
AcDbEntity
  8
姿図
100
AcDbSpline
210
0.0
220
0.0
230
1.0
 70
    24
 71
     3
 72
     8
 73
     4
 74
     0
 42
0.0000000001
 43
0.0000000001
 40
1.615278216396081
 40
1.615278216396081
 40
1.615278216396081
 40
1.615278216396081
 40
2.0
 40
2.0
 40
2.0
 40
2.0
 10
1839.612976216044
 20
-3502.025504448418
 30
0.0
 10
1843.327307479418
 20
-3496.770376638771
 30
0.0
 10
1844.525340239996
 20
-3495.075370235039
 30
0.0
 10
1844.525340239996
 20
-3495.075370235039
 30
0.0
  0
SPLINE
  5
15C0F5
330
18
100
AcDbEntity
  8
姿図
100
AcDbSpline
210
0.0
220
0.0
230
1.0
 70
     8
 71
     3
 72
     8
 73
     4
 74
     0
 42
0.0000000001
 43
0.0000000001
 40
2.0
 40
2.0
 40
2.0
 40
2.0
 40
3.0
 40
3.0
 40
3.0
 40
3.0
 10
1844.525340239996
 20
-3495.075370235039
 30
0.0
 10
1844.525340239996
 20
-3495.075370235039
 30
0.0
 10
1844.784126465704
 20
-3494.689379716106
 30
0.0
 10
1845.1173928063
 20
-3495.826830192585
 30
0.0
  0
SPLINE
  5
15C0F6
330
18
100
AcDbEntity
  8
姿図
100
AcDbSpline
210
0.0
220
0.0
230
1.0
 70
    24
 71
     3
 72
     8
 73
     4
 74
     0
 42
0.0000000001
 43
0.0000000001
 40
1.350323050295564
 40
1.350323050295564
 40
1.350323050295564
 40
1.350323050295564
 40
1.445359962748387
 40
1.445359962748387
 40
1.445359962748387
 40
1.445359962748387
 10
1838.240513411996
 20
-3503.164032112878
 30
0.0
 10
1838.599120438981
 20
-3502.654705099141
 30
0.0
 10
1838.980140459504
 20
-3502.113545069852
 30
0.0
 10
1839.369342413205
 20
-3501.560764298963
 30
0.0
  0
SPLINE
  5
15C0F7
330
18
100
AcDbEntity
  8
姿図
100
AcDbSpline
210
0.0
220
0.0
230
1.0
 70
    24
 71
     3
 72
     8
 73
     4
 74
     0
 42
0.0000000001
 43
0.0000000001
 40
1.629831745831646
 40
1.629831745831646
 40
1.629831745831646
 40
1.629831745831646
 40
2.0
 40
2.0
 40
2.0
 40
2.0
 10
1839.369342413205
 20
-3501.560764298963
 30
0.0
 10
1843.054947620698
 20
-3496.326125396516
 30
0.0
 10
1844.190817675963
 20
-3494.712857223537
 30
0.0
 10
1844.190817675963
 20
-3494.712857223537
 30
0.0
  0
SPLINE
  5
15C0F8
330
18
100
AcDbEntity
  8
姿図
100
AcDbSpline
210
0.0
220
0.0
230
1.0
 70
     8
 71
     3
 72
    11
 73
     7
 74
     0
 42
0.0000000001
 43
0.0000000001
 40
2.0
 40
2.0
 40
2.0
 40
2.0
 40
3.0
 40
3.0
 40
3.0
 40
4.0
 40
4.0
 40
4.0
 40
4.0
 10
1844.190817675963
 20
-3494.712857223537
 30
0.0
 10
1844.190817675963
 20
-3494.712857223537
 30
0.0
 10
1844.66876030429
 20
-3494.468294665689
 30
0.0
 10
1844.835420972706
 20
-3494.972971518047
 30
0.0
 10
1845.002081641123
 20
-3495.477648370411
 30
0.0
 10
1845.886379200725
 20
-3498.283715106495
 30
0.0
 10
1845.886379200725
 20
-3498.283715106495
 30
0.0
  0
SPLINE
  5
15C0F9
330
18
100
AcDbEntity
  8
姿図
100
AcDbSpline
210
0.0
220
0.0
230
1.0
 70
    24
 71
     3
 72
     8
 73
     4
 74
     0
 42
0.0000000001
 43
0.0000000001
 40
1.393866661974843
 40
1.393866661974843
 40
1.393866661974843
 40
1.393866661974843
 40
1.573101002211188
 40
1.573101002211188
 40
1.573101002211188
 40
1.573101002211188
 10
1836.147108697298
 20
-3502.616622347034
 30
0.0
 10
1836.843260872109
 20
-3501.6245611391
 30
0.0
 10
1837.594883260173
 20
-3500.553451342711
 30
0.0
 10
1838.30829966831
 20
-3499.536787502202
 30
0.0
  0
SPLINE
  5
15C0FA
330
18
100
AcDbEntity
  8
姿図
100
AcDbSpline
210
0.0
220
0.0
230
1.0
 70
    24
 71
     3
 72
     8
 73
     4
 74
     0
 42
0.0000000001
 43
0.0000000001
 40
1.799348189808346
 40
1.799348189808346
 40
1.799348189808346
 40
1.799348189808346
 40
2.0
 40
2.0
 40
2.0
 40
2.0
 10
1838.30829966831
 20
-3499.536787502202
 30
0.0
 10
1841.162471374697
 20
-3495.469410952721
 30
0.0
 10
1841.489979242371
 20
-3495.002691372471
 30
0.0
 10
1841.489979242371
 20
-3495.002691372471
 30
0.0
  0
SPLINE
  5
15C0FB
330
18
100
AcDbEntity
  8
姿図
100
AcDbSpline
210
0.0
220
0.0
230
1.0
 70
     8
 71
     3
 72
     8
 73
     4
 74
     0
 42
0.0000000001
 43
0.0000000001
 40
2.0
 40
2.0
 40
2.0
 40
2.0
 40
3.0
 40
3.0
 40
3.0
 40
3.0
 10
1841.489979242371
 20
-3495.002691372471
 30
0.0
 10
1841.489979242371
 20
-3495.002691372471
 30
0.0
 10
1841.774480371976
 20
-3494.951096575971
 30
0.0
 10
1841.9275645578
 20
-3495.545978727781
 30
0.0
  0
SPLINE
  5
15C0FC
330
18
100
AcDbEntity
  8
姿図
100
AcDbSpline
210
0.0
220
0.0
230
1.0
 70
    24
 71
     3
 72
     8
 73
     4
 74
     0
 42
0.0000000001
 43
0.0000000001
 40
1.391994967145552
 40
1.391994967145552
 40
1.391994967145552
 40
1.391994967145552
 40
1.583667207078013
 40
1.583667207078013
 40
1.583667207078013
 40
1.583667207078013
 10
1835.812187184407
 20
-3502.522171379445
 30
0.0
 10
1836.561170297362
 20
-3501.457087427348
 30
0.0
 10
1837.375209442545
 20
-3500.299491194645
 30
0.0
 10
1838.138852264734
 20
-3499.213560549499
 30
0.0
  0
SPLINE
  5
15C0FD
330
18
100
AcDbEntity
  8
姿図
100
AcDbSpline
210
0.0
220
0.0
230
1.0
 70
    24
 71
     3
 72
     8
 73
     4
 74
     0
 42
0.0000000001
 43
0.0000000001
 40
1.815455566821609
 40
1.815455566821609
 40
1.815455566821609
 40
1.815455566821609
 40
2.0
 40
2.0
 40
2.0
 40
2.0
 10
1838.138852264734
 20
-3499.213560549499
 30
0.0
 10
1840.939320821382
 20
-3495.231182220185
 30
0.0
 10
1841.218509012602
 20
-3494.834165442448
 30
0.0
 10
1841.218509012602
 20
-3494.834165442448
 30
0.0
  0
SPLINE
  5
15C0FE
330
18
100
AcDbEntity
  8
姿図
100
AcDbSpline
210
0.0
220
0.0
230
1.0
 70
     8
 71
     3
 72
     8
 73
     4
 74
     0
 42
0.0000000001
 43
0.0000000001
 40
2.0
 40
2.0
 40
2.0
 40
2.0
 40
3.0
 40
3.0
 40
3.0
 40
3.0
 10
1841.218509012602
 20
-3494.834165442448
 30
0.0
 10
1841.218509012602
 20
-3494.834165442448
 30
0.0
 10
1841.556051459171
 20
-3494.549237181747
 30
0.0
 10
1841.735379282511
 20
-3494.964009024156
 30
0.0
  0
SPLINE
  5
15C0FF
330
18
100
AcDbEntity
  8
姿図
100
AcDbSpline
210
0.0
220
0.0
230
1.0
 70
    24
 71
     3
 72
     8
 73
     4
 74
     0
 42
0.0000000001
 43
0.0000000001
 40
3.0
 40
3.0
 40
3.0
 40
3.0
 40
4.0
 40
4.0
 40
4.0
 40
4.0
 10
1841.735379282511
 20
-3494.964009024156
 30
0.0
 10
1841.735379282511
 20
-3494.964009024156
 30
0.0
 10
1842.554141818111
 20
-3497.705995646654
 30
0.0
 10
1842.554141818111
 20
-3497.705995646654
 30
0.0
  0
SPLINE
  5
15C100
330
18
100
AcDbEntity
  8
姿図
100
AcDbSpline
210
0.0
220
0.0
230
1.0
 70
    24
 71
     3
 72
     8
 73
     4
 74
     0
 42
0.0000000001
 43
0.0000000001
 40
1.477316060400323
 40
1.477316060400323
 40
1.477316060400323
 40
1.477316060400323
 40
1.790999460430504
 40
1.790999460430504
 40
1.790999460430504
 40
1.790999460430504
 10
1834.120330131122
 20
-3502.015547048042
 30
0.0
 10
1835.485174470254
 20
-3500.068785699836
 30
0.0
 10
1836.989954649225
 20
-3497.922425264446
 30
0.0
 10
1838.229137549804
 20
-3496.154902547731
 30
0.0
  0
ELLIPSE
  5
15C101
330
18
100
AcDbEntity
  8
姿図
100
AcDbEllipse
 10
1842.09168468401
 20
-3509.043515442914
 30
0.0
 11
8.946570577400736
 21
-4.744703701203169
 31
0.0
210
0.0
220
0.0
230
1.0
 40
0.589675754012904
 41
2.589251650966877
 42
2.665769938206601
  0
ELLIPSE
  5
15C102
330
18
100
AcDbEntity
  8
姿図
100
AcDbEllipse
 10
1842.09168468401
 20
-3509.043515442914
 30
0.0
 11
8.946570577400736
 21
-4.744703701203169
 31
0.0
210
0.0
220
0.0
230
1.0
 40
0.589675754012904
 41
6.965981119172361
 42
7.147828363455014
  0
ELLIPSE
  5
15C103
330
18
100
AcDbEntity
  8
姿図
100
AcDbEllipse
 10
1842.09168468401
 20
-3509.043515442914
 30
0.0
 11
8.946570577400736
 21
-4.744703701203169
 31
0.0
210
0.0
220
0.0
230
1.0
 40
0.589675754012904
 41
7.723477700805621
 42
7.896541804765815
  0
ELLIPSE
  5
15C104
330
18
100
AcDbEntity
  8
姿図
100
AcDbEllipse
 10
1842.09168468401
 20
-3509.043515442914
 30
0.0
 11
8.946570577400736
 21
-4.744703701203169
 31
0.0
210
0.0
220
0.0
230
1.0
 40
0.589675754012904
 41
8.489247713282603
 42
8.607693964296711
  0
ARC
  5
15C105
330
18
100
AcDbEntity
  8
姿図
100
AcDbCircle
 10
1838.017189426704
 20
-3501.360719855684
 30
0.0
 40
0.5891071285579998
100
AcDbArc
 50
176.6035262431326
 51
269.2179010900517
  0
ARC
  5
15C106
330
18
100
AcDbEntity
  8
姿図
100
AcDbCircle
 10
1844.829055772478
 20
-3502.9446296064
 30
0.0
 40
0.7044793750256743
100
AcDbArc
 50
178.6996333805672
 51
242.7355601294528
  0
ARC
  5
15C107
330
18
100
AcDbEntity
  8
姿図
100
AcDbCircle
 10
1851.276860375941
 20
-3508.971811935558
 30
0.0
 40
0.63968954389853
100
AcDbArc
 50
221.5153020366495
 51
291.9422318175908
  0
LINE
  5
15C108
330
18
100
AcDbEntity
  8
姿図
100
AcDbLine
 10
1838.735138344013
 20
-3496.209099648744
 30
0.0000000000000074
 11
1839.492258657165
 21
-3497.28896251208
 31
0.0000000000000003
  0
ARC
  5
15C109
330
18
100
AcDbEntity
  8
姿図
100
AcDbCircle
 10
1838.454379300381
 20
-3496.441164354811
 30
-0.0000000000000142
 40
0.3642522043636391
100
AcDbArc
 50
30.49478329114277
 51
128.1970235672925
  0
ARC
  5
15C10A
330
18
100
AcDbEntity
  8
姿図
100
AcDbCircle
 10
1838.605976480061
 20
-3496.584712221106
 30
0.0000000000000271
 40
0.3225894048985802
100
AcDbArc
 50
39.97839485110913
 51
150.461910059311
  0
LINE
  5
15C10B
330
18
100
AcDbEntity
  8
姿図
100
AcDbLine
 10
1844.506335212427
 20
-3503.570842533412
 30
0.0
 11
1843.971150817199
 21
-3504.29508187274
 31
0.0
  0
ARC
  5
15C10C
330
18
100
AcDbEntity
  8
姿図
100
AcDbCircle
 10
1837.4614077038
 20
-3517.612589745053
 30
0.0000000000000086
 40
15.70992260825765
100
AcDbArc
 50
70.10507181511264
 51
78.98271778318717
  0
ARC
  5
15C10D
330
18
100
AcDbEntity
  8
姿図
100
AcDbCircle
 10
1840.639891064635
 20
-3501.622185708794
 30
0.0000000000000086
 40
0.5966443679784727
100
AcDbArc
 50
188.0617757773393
 51
252.8196158441424
  0
LINE
  5
15C10E
330
18
100
AcDbEntity
  8
姿図
100
AcDbLine
 10
1840.30233610595
 20
-3502.114162488439
 30
0.0000000000000086
 11
1839.32200213531
 21
-3503.418233363653
 31
0.0000000000000075
  0
LINE
  5
15C10F
330
18
100
AcDbEntity
  8
姿図
100
AcDbLine
 10
1837.861358897788
 20
-3501.928843130313
 30
0.0
 11
1837.129590265447
 21
-3502.882704494908
 31
0.0
  0
LINE
  5
15C110
330
18
100
AcDbEntity
  8
姿図
100
AcDbLine
 10
1850.947360900873
 20
-3509.520111861237
 30
0.0
 11
1842.027515757794
 21
-3522.116599467983
 31
0.0
  0
ARC
  5
15C111
330
18
100
AcDbEntity
  8
姿図
100
AcDbCircle
 10
1864.621399956139
 20
-3546.258375762731
 30
0.0000000000000084
 40
54.37145505000529
100
AcDbArc
 50
125.0955168657023
 51
142.2118279621559
  0
ARC
  5
15C112
330
18
100
AcDbEntity
  8
姿図
100
AcDbCircle
 10
1853.822273755608
 20
-3439.299751412944
 30
0.0000000000000084
 40
65.73764222061708
100
AcDbArc
 50
251.8650335897568
 51
261.6937835389582
  0
TEXT
  5
15C567
330
18
100
AcDbEntity
  8
文字
100
AcDbText
 10
1750.627500812971
 20
-3612.484006376828
 30
0.0
 40
9.75
  1
MOD-P1652DR/CE/BF
 41
0.8
100
AcDbText
  0
ENDSEC
  0
SECTION
  2
OBJECTS
  0
DICTIONARY
  5
C
330
0
100
AcDbDictionary
281
     1
  3
ACAD_COLOR
350
15C557
  3
ACAD_GROUP
350
D
  3
ACAD_IMAGE_VARS
350
150056
  3
ACAD_LAYOUT
350
617
  3
ACAD_MATERIAL
350
15C52D
  3
ACAD_MLEADERSTYLE
350
15C55A
  3
ACAD_MLINESTYLE
350
E
  3
ACAD_PLOTSETTINGS
350
618
  3
ACAD_PLOTSTYLENAME
350
615
  3
ACAD_SCALELIST
350
A36
  3
ACAD_TABLESTYLE
350
15C558
  3
ACAD_VISUALSTYLE
350
15C546
  3
AcadDim
350
AB4
  3
ACDB_RECOMPOSE_DATA
350
15C56D
  3
AcDbVariableDictionary
350
6DE
  3
AEC_VARS
350
1552DA
  3
APPDATA
350
150054
  3
DWGPROPS
350
15C56E
  0
DICTIONARY
  5
8BF
330
2
100
AcDbDictionary
280
     1
281
     1
  3
ACAD_LAYERSTATES
360
8C0
  0
DICTIONARY
  5
A60
330
F
100
AcDbDictionary
280
     1
281
     1
  3
ADSK_XREC_LAYER_RECONCILED
360
A61
  0
DICTIONARY
  5
A66
330
34
100
AcDbDictionary
280
     1
281
     1
  3
ADSK_XREC_LAYER_RECONCILED
360
A67
  0
DICTIONARY
  5
A6E
330
2F4
100
AcDbDictionary
280
     1
281
     1
  3
ADSK_XREC_LAYER_RECONCILED
360
A6F
  0
DICTIONARY
  5
A72
330
305
100
AcDbDictionary
280
     1
281
     1
  3
ADSK_XREC_LAYER_RECONCILED
360
A73
  0
DICTIONARY
  5
143F
330
18
100
AcDbDictionary
280
     1
281
     1
  3
ACAD_SORTENTS
360
1440
  0
DICTIONARY
  5
15C557
102
{ACAD_REACTORS
330
C
102
}
330
C
100
AcDbDictionary
281
     1
  0
DICTIONARY
  5
D
102
{ACAD_REACTORS
330
C
102
}
330
C
100
AcDbDictionary
281
     1
  0
RASTERVARIABLES
  5
150056
102
{ACAD_REACTORS
330
C
102
}
330
C
100
AcDbRasterVariables
 90
        0
 70
     1
 71
     1
 72
     0
  0
DICTIONARY
  5
617
102
{ACAD_REACTORS
330
C
102
}
330
C
100
AcDbDictionary
281
     1
  3
Model
350
619
  3
ﾚｲｱｳﾄ1
350
61A
  0
DICTIONARY
  5
15C52D
102
{ACAD_REACTORS
330
C
102
}
330
C
100
AcDbDictionary
281
     1
  3
ByBlock
350
15C536
  3
ByLayer
350
15C52E
  3
Global
350
15C53E
  0
DICTIONARY
  5
15C55A
102
{ACAD_REACTORS
330
C
102
}
330
C
100
AcDbDictionary
281
     1
  3
Standard
350
15C55B
  0
DICTIONARY
  5
E
102
{ACAD_REACTORS
330
C
102
}
330
C
100
AcDbDictionary
281
     1
  3
STANDARD
350
1B
  0
DICTIONARY
  5
618
102
{ACAD_REACTORS
330
C
102
}
330
C
100
AcDbDictionary
281
     1
  0
ACDBDICTIONARYWDFLT
  5
615
102
{ACAD_REACTORS
330
C
102
}
330
C
100
AcDbDictionary
281
     1
  3
Normal
350
616
100
AcDbDictionaryWithDefault
340
616
  0
DICTIONARY
  5
A36
102
{ACAD_REACTORS
330
C
102
}
330
C
100
AcDbDictionary
281
     1
  3
A0
350
A37
  3
A1
350
A38
  3
A2
350
A39
  3
A3
350
A3A
  3
A4
350
A3B
  3
A5
350
A3C
  3
A6
350
A3D
  3
A7
350
A3E
  3
A8
350
A3F
  3
A9
350
A40
  3
B0
350
A41
  3
B1
350
A42
  3
B2
350
A43
  3
B3
350
A44
  3
B4
350
A45
  3
B5
350
A46
  3
B6
350
A47
  3
B7
350
A48
  3
B8
350
A49
  3
B9
350
A4A
  3
C0
350
A4B
  3
C1
350
A4C
  3
C2
350
A4D
  3
C3
350
A4E
  3
C4
350
A4F
  3
C5
350
A50
  3
C6
350
A51
  3
C7
350
A52
  3
C8
350
A53
  3
C9
350
A54
  3
D0
350
A55
  3
D1
350
A56
  3
D2
350
A57
  0
DICTIONARY
  5
15C558
102
{ACAD_REACTORS
330
C
102
}
330
C
100
AcDbDictionary
281
     1
  3
Standard
350
15C559
  0
DICTIONARY
  5
15C546
102
{ACAD_REACTORS
330
C
102
}
330
C
100
AcDbDictionary
281
     1
  3
2dWireframe
350
15C54C
  3
3D Hidden
350
15C54E
  3
3dWireframe
350
15C54D
  3
Basic
350
15C54B
  3
Brighten
350
15C552
  3
ColorChange
350
15C556
  3
Conceptual
350
15C54F
  3
Dim
350
15C551
  3
Facepattern
350
15C555
  3
Flat
350
15C547
  3
FlatWithEdges
350
15C548
  3
Gouraud
350
15C549
  3
GouraudWithEdges
350
15C54A
  3
Linepattern
350
15C554
  3
Realistic
350
15C550
  3
Thicken
350
15C553
  0
XRECORD
  5
AB4
102
{ACAD_REACTORS
330
C
102
}
330
C
100
AcDbXrecord
280
     1
 90
   990106
  3
OPEN
 60
     0
 61
     0
 62
     1
 63
     3
 64
     1
 65
     0
 66
     0
 67
     3
 68
     1
 69
     0
 70
     0
 71
     0
 72
     0
 40
0.0
170
     2
  0
XRECORD
  5
15C56D
102
{ACAD_REACTORS
330
C
102
}
330
C
100
AcDbXrecord
280
     1
 90
        1
330
15C559
  0
DICTIONARY
  5
6DE
102
{ACAD_REACTORS
330
C
102
}
330
C
100
AcDbDictionary
281
     1
  3
CANNOSCALE
350
15C56A
  3
CMLEADERSTYLE
350
15C569
  3
CTABLESTYLE
350
15C568
  3
DIMASSOC
350
6DF
  3
INDEXCTL
350
A93
  3
PROJECTNAME
350
6E0
  3
SORTENTS
350
A92
  0
DICTIONARY
  5
1552DA
102
{ACAD_REACTORS
330
C
102
}
330
C
100
AcDbDictionary
281
     1
  3
AEC_VARS_DWG_SETUP
350
1552DB
  3
AecDbVarsDwgSetup
350
1552DB
  0
DICTIONARY
  5
150054
102
{ACAD_REACTORS
330
C
102
}
330
C
100
AcDbDictionary
281
     1
  0
XRECORD
  5
15C56E
102
{ACAD_REACTORS
330
C
102
}
330
C
100
AcDbXrecord
280
     1
  1
DWGPROPS COOKIE
  2

  3

  4

  6

  7

  8
SPAX
  9

300
=
301
=
302
=
303
=
304
=
305
=
306
=
307
=
308
=
309
=
 40
49.34220895833333
 41
2448636.61962963
 42
2457455.740287419
  1

 90
        0
  0
DICTIONARY
  5
8C0
102
{ACAD_REACTORS
330
8BF
102
}
330
8BF
100
AcDbDictionary
281
     1
  0
XRECORD
  5
A61
102
{ACAD_REACTORS
330
A60
102
}
330
A60
100
AcDbXrecord
280
     1
290
     1
  0
XRECORD
  5
A67
102
{ACAD_REACTORS
330
A66
102
}
330
A66
100
AcDbXrecord
280
     1
290
     1
  0
XRECORD
  5
A6F
102
{ACAD_REACTORS
330
A6E
102
}
330
A6E
100
AcDbXrecord
280
     1
290
     1
  0
XRECORD
  5
A73
102
{ACAD_REACTORS
330
A72
102
}
330
A72
100
AcDbXrecord
280
     1
290
     1
  0
SORTENTSTABLE
  5
1440
102
{ACAD_REACTORS
330
143F
102
}
330
143F
100
AcDbSortentsTable
330
18
331
D0CC6
  5
D0CC6
331
F6D78
  5
F6D78
331
F6D77
  5
F6D77
  0
LAYOUT
  5
619
102
{ACAD_XDICTIONARY
360
15C56F
102
}
102
{ACAD_REACTORS
330
617
102
}
330
617
100
AcDbPlotSettings
  1

  2
JUST PDF 3
  4
A4
  6

 40
3.174999952316283
 41
3.174999952316283
 42
3.175003051757812
 43
3.17498779296875
 44
209.8886566162109
 45
297.0530090332031
 46
14.27171755861507
 47
9.855173074625724
 48
1762.601339850532
 49
-4233.253951971556
140
2287.586995335252
141
-3420.275926555556
142
1.0
143
3.0
 70
 11940
 72
     1
 73
     0
 74
     4
  7
spax form.ctb
 75
     0
147
0.7573896279798037
148
-1762.601339850532
149
4233.253951971556
100
AcDbLayout
  1
Model
 70
     1
 71
     0
 10
0.0
 20
0.0
 11
12.0
 21
9.0
 12
0.0
 22
0.0
 32
0.0
 14
1199.999997530544
 24
-4233.253951971556
 34
-0.0000000000000142
 15
2287.586995335252
 25
-3420.275926555556
 35
0.0000000000000271
146
0.0
 13
0.0
 23
0.0
 33
0.0
 16
1.0
 26
0.0
 36
0.0
 17
0.0
 27
1.0
 37
0.0
 76
     0
330
18
331
A0C
1001
ACAD_PSEXT
1000
JUST PDF 3
1000
JUST PDF 3
1000
JUST PDF 3 Port:
1000

1070
     0
  0
LAYOUT
  5
61A
102
{ACAD_XDICTIONARY
360
15C571
102
}
102
{ACAD_REACTORS
330
617
102
}
330
617
100
AcDbPlotSettings
  1

  2
Canon LASER SHOT LBP-750
  4

  6

 40
0.0
 41
0.0
 42
0.0
 43
0.0
 44
0.0
 45
0.0
 46
0.0
 47
0.0
 48
0.0
 49
0.0
140
0.0
141
0.0
142
1.0
143
1.0
 70
   688
 72
     0
 73
     0
 74
     5
  7
spax form.ctb
 75
    16
147
1.0
148
0.0
149
0.0
100
AcDbLayout
  1
ﾚｲｱｳﾄ1
 70
     0
 71
     1
 10
0.0
 20
0.0
 11
0.0
 21
0.0
 12
0.0
 22
0.0
 32
0.0
 14
1.000000000000000E+20
 24
1.000000000000000E+20
 34
1.000000000000000E+20
 15
-1.000000000000000E+20
 25
-1.000000000000000E+20
 35
-1.000000000000000E+20
146
0.0
 13
0.0
 23
0.0
 33
0.0
 16
1.0
 26
0.0
 36
0.0
 17
0.0
 27
1.0
 37
0.0
 76
     0
330
15
  0
MATERIAL
  5
15C536
102
{ACAD_XDICTIONARY
360
15C537
102
}
102
{ACAD_REACTORS
330
15C52D
102
}
330
15C52D
100
AcDbMaterial
  1
ByBlock
 72
     0
 43
0.0208333333333333
 43
0.0
 43
0.0
 43
0.0
 43
0.0
 43
0.0208333333333333
 43
0.0
 43
0.0
 43
0.0
 43
0.0
 43
1.0
 43
0.0
 43
0.0
 43
0.0
 43
0.0
 43
1.0
 77
     0
 47
0.0208333333333333
 47
0.0
 47
0.0
 47
0.0
 47
0.0
 47
0.0208333333333333
 47
0.0
 47
0.0
 47
0.0
 47
0.0
 47
1.0
 47
0.0
 47
0.0
 47
0.0
 47
0.0
 47
1.0
171
     0
 49
0.0208333333333333
 49
0.0
 49
0.0
 49
0.0
 49
0.0
 49
0.0208333333333333
 49
0.0
 49
0.0
 49
0.0
 49
0.0
 49
1.0
 49
0.0
 49
0.0
 49
0.0
 49
0.0
 49
1.0
175
     0
142
0.0208333333333333
142
0.0
142
0.0
142
0.0
142
0.0
142
0.0208333333333333
142
0.0
142
0.0
142
0.0
142
0.0
142
1.0
142
0.0
142
0.0
142
0.0
142
0.0
142
1.0
179
     0
144
0.0208333333333333
144
0.0
144
0.0
144
0.0
144
0.0
144
0.0208333333333333
144
0.0
144
0.0
144
0.0
144
0.0
144
1.0
144
0.0
144
0.0
144
0.0
144
0.0
144
1.0
147
0.0208333333333333
147
0.0
147
0.0
147
0.0
147
0.0
147
0.0208333333333333
147
0.0
147
0.0
147
0.0
147
0.0
147
1.0
147
0.0
147
0.0
147
0.0
147
0.0
147
1.0
  0
MATERIAL
  5
15C52E
102
{ACAD_XDICTIONARY
360
15C52F
102
}
102
{ACAD_REACTORS
330
15C52D
102
}
330
15C52D
100
AcDbMaterial
  1
ByLayer
 72
     0
 43
0.0208333333333333
 43
0.0
 43
0.0
 43
0.0
 43
0.0
 43
0.0208333333333333
 43
0.0
 43
0.0
 43
0.0
 43
0.0
 43
1.0
 43
0.0
 43
0.0
 43
0.0
 43
0.0
 43
1.0
 77
     0
 47
0.0208333333333333
 47
0.0
 47
0.0
 47
0.0
 47
0.0
 47
0.0208333333333333
 47
0.0
 47
0.0
 47
0.0
 47
0.0
 47
1.0
 47
0.0
 47
0.0
 47
0.0
 47
0.0
 47
1.0
171
     0
 49
0.0208333333333333
 49
0.0
 49
0.0
 49
0.0
 49
0.0
 49
0.0208333333333333
 49
0.0
 49
0.0
 49
0.0
 49
0.0
 49
1.0
 49
0.0
 49
0.0
 49
0.0
 49
0.0
 49
1.0
175
     0
142
0.0208333333333333
142
0.0
142
0.0
142
0.0
142
0.0
142
0.0208333333333333
142
0.0
142
0.0
142
0.0
142
0.0
142
1.0
142
0.0
142
0.0
142
0.0
142
0.0
142
1.0
179
     0
144
0.0208333333333333
144
0.0
144
0.0
144
0.0
144
0.0
144
0.0208333333333333
144
0.0
144
0.0
144
0.0
144
0.0
144
1.0
144
0.0
144
0.0
144
0.0
144
0.0
144
1.0
147
0.0208333333333333
147
0.0
147
0.0
147
0.0
147
0.0
147
0.0208333333333333
147
0.0
147
0.0
147
0.0
147
0.0
147
1.0
147
0.0
147
0.0
147
0.0
147
0.0
147
1.0
  0
MATERIAL
  5
15C53E
102
{ACAD_XDICTIONARY
360
15C53F
102
}
102
{ACAD_REACTORS
330
15C52D
102
}
330
15C52D
100
AcDbMaterial
  1
Global
 72
     0
 43
0.0208333333333333
 43
0.0
 43
0.0
 43
0.0
 43
0.0
 43
0.0208333333333333
 43
0.0
 43
0.0
 43
0.0
 43
0.0
 43
1.0
 43
0.0
 43
0.0
 43
0.0
 43
0.0
 43
1.0
 77
     0
 47
0.0208333333333333
 47
0.0
 47
0.0
 47
0.0
 47
0.0
 47
0.0208333333333333
 47
0.0
 47
0.0
 47
0.0
 47
0.0
 47
1.0
 47
0.0
 47
0.0
 47
0.0
 47
0.0
 47
1.0
171
     0
 49
0.0208333333333333
 49
0.0
 49
0.0
 49
0.0
 49
0.0
 49
0.0208333333333333
 49
0.0
 49
0.0
 49
0.0
 49
0.0
 49
1.0
 49
0.0
 49
0.0
 49
0.0
 49
0.0
 49
1.0
175
     0
142
0.0208333333333333
142
0.0
142
0.0
142
0.0
142
0.0
142
0.0208333333333333
142
0.0
142
0.0
142
0.0
142
0.0
142
1.0
142
0.0
142
0.0
142
0.0
142
0.0
142
1.0
179
     0
144
0.0208333333333333
144
0.0
144
0.0
144
0.0
144
0.0
144
0.0208333333333333
144
0.0
144
0.0
144
0.0
144
0.0
144
1.0
144
0.0
144
0.0
144
0.0
144
0.0
144
1.0
147
0.0208333333333333
147
0.0
147
0.0
147
0.0
147
0.0
147
0.0208333333333333
147
0.0
147
0.0
147
0.0
147
0.0
147
1.0
147
0.0
147
0.0
147
0.0
147
0.0
147
1.0
  0
MLEADERSTYLE
  5
15C55B
102
{ACAD_REACTORS
330
15C55A
102
}
330
15C55A
100
AcDbMLeaderStyle
170
     2
171
     1
172
     0
 90
        2
 40
0.0
 41
0.0
173
     1
 91
-1056964608
340
12
 92
       -2
290
     1
 42
0.09
291
     1
 43
0.36
  3
Standard
 44
0.18
300

342
10
174
     1
178
     6
175
     1
176
     0
 93
-1056964608
 45
0.18
292
     0
297
     0
 46
0.18
 94
-1056964608
 47
1.0
 49
1.0
140
1.0
293
     1
141
0.0
294
     1
177
     0
142
1.0
295
     0
296
     0
143
0.125
1001
ACAD_MLEADERVER
1070
     2
  0
MLINESTYLE
  5
1B
102
{ACAD_REACTORS
330
E
102
}
330
E
100
AcDbMlineStyle
  2
STANDARD
 70
     0
  3

 62
     0
 51
90.0
 52
90.0
 71
     2
 49
0.5
 62
   256
  6
BYLAYER
 49
-0.5
 62
   256
  6
BYLAYER
  0
ACDBPLACEHOLDER
  5
616
102
{ACAD_REACTORS
330
615
102
}
330
615
  0
SCALE
  5
A37
102
{ACAD_REACTORS
330
A36
102
}
330
A36
100
AcDbScale
 70
     0
300
1:1
140
1.0
141
1.0
290
     1
  0
SCALE
  5
A38
102
{ACAD_REACTORS
330
A36
102
}
330
A36
100
AcDbScale
 70
     0
300
1:2
140
1.0
141
2.0
290
     0
  0
SCALE
  5
A39
102
{ACAD_REACTORS
330
A36
102
}
330
A36
100
AcDbScale
 70
     0
300
1:4
140
1.0
141
4.0
290
     0
  0
SCALE
  5
A3A
102
{ACAD_REACTORS
330
A36
102
}
330
A36
100
AcDbScale
 70
     0
300
1:5
140
1.0
141
5.0
290
     0
  0
SCALE
  5
A3B
102
{ACAD_REACTORS
330
A36
102
}
330
A36
100
AcDbScale
 70
     0
300
1:8
140
1.0
141
8.0
290
     0
  0
SCALE
  5
A3C
102
{ACAD_REACTORS
330
A36
102
}
330
A36
100
AcDbScale
 70
     0
300
1:10
140
1.0
141
10.0
290
     0
  0
SCALE
  5
A3D
102
{ACAD_REACTORS
330
A36
102
}
330
A36
100
AcDbScale
 70
     0
300
1:16
140
1.0
141
16.0
290
     0
  0
SCALE
  5
A3E
102
{ACAD_REACTORS
330
A36
102
}
330
A36
100
AcDbScale
 70
     0
300
1:20
140
1.0
141
20.0
290
     0
  0
SCALE
  5
A3F
102
{ACAD_REACTORS
330
A36
102
}
330
A36
100
AcDbScale
 70
     0
300
1:30
140
1.0
141
30.0
290
     0
  0
SCALE
  5
A40
102
{ACAD_REACTORS
330
A36
102
}
330
A36
100
AcDbScale
 70
     0
300
1:40
140
1.0
141
40.0
290
     0
  0
SCALE
  5
A41
102
{ACAD_REACTORS
330
A36
102
}
330
A36
100
AcDbScale
 70
     0
300
1:50
140
1.0
141
50.0
290
     0
  0
SCALE
  5
A42
102
{ACAD_REACTORS
330
A36
102
}
330
A36
100
AcDbScale
 70
     0
300
1:100
140
1.0
141
100.0
290
     0
  0
SCALE
  5
A43
102
{ACAD_REACTORS
330
A36
102
}
330
A36
100
AcDbScale
 70
     0
300
2:1
140
2.0
141
1.0
290
     0
  0
SCALE
  5
A44
102
{ACAD_REACTORS
330
A36
102
}
330
A36
100
AcDbScale
 70
     0
300
4:1
140
4.0
141
1.0
290
     0
  0
SCALE
  5
A45
102
{ACAD_REACTORS
330
A36
102
}
330
A36
100
AcDbScale
 70
     0
300
8:1
140
8.0
141
1.0
290
     0
  0
SCALE
  5
A46
102
{ACAD_REACTORS
330
A36
102
}
330
A36
100
AcDbScale
 70
     0
300
10:1
140
10.0
141
1.0
290
     0
  0
SCALE
  5
A47
102
{ACAD_REACTORS
330
A36
102
}
330
A36
100
AcDbScale
 70
     0
300
100:1
140
100.0
141
1.0
290
     0
  0
SCALE
  5
A48
102
{ACAD_REACTORS
330
A36
102
}
330
A36
100
AcDbScale
 70
     0
300
1/128" = 1'-0"
140
0.0078125
141
12.0
290
     0
  0
SCALE
  5
A49
102
{ACAD_REACTORS
330
A36
102
}
330
A36
100
AcDbScale
 70
     0
300
1/64" = 1'-0"
140
0.015625
141
12.0
290
     0
  0
SCALE
  5
A4A
102
{ACAD_REACTORS
330
A36
102
}
330
A36
100
AcDbScale
 70
     0
300
1/32" = 1'-0"
140
0.03125
141
12.0
290
     0
  0
SCALE
  5
A4B
102
{ACAD_REACTORS
330
A36
102
}
330
A36
100
AcDbScale
 70
     0
300
1/16" = 1'-0"
140
0.0625
141
12.0
290
     0
  0
SCALE
  5
A4C
102
{ACAD_REACTORS
330
A36
102
}
330
A36
100
AcDbScale
 70
     0
300
3/32" = 1'-0"
140
0.09375
141
12.0
290
     0
  0
SCALE
  5
A4D
102
{ACAD_REACTORS
330
A36
102
}
330
A36
100
AcDbScale
 70
     0
300
1/8" = 1'-0"
140
0.125
141
12.0
290
     0
  0
SCALE
  5
A4E
102
{ACAD_REACTORS
330
A36
102
}
330
A36
100
AcDbScale
 70
     0
300
3/16" = 1'-0"
140
0.1875
141
12.0
290
     0
  0
SCALE
  5
A4F
102
{ACAD_REACTORS
330
A36
102
}
330
A36
100
AcDbScale
 70
     0
300
1/4" = 1'-0"
140
0.25
141
12.0
290
     0
  0
SCALE
  5
A50
102
{ACAD_REACTORS
330
A36
102
}
330
A36
100
AcDbScale
 70
     0
300
3/8" = 1'-0"
140
0.375
141
12.0
290
     0
  0
SCALE
  5
A51
102
{ACAD_REACTORS
330
A36
102
}
330
A36
100
AcDbScale
 70
     0
300
1/2" = 1'-0"
140
0.5
141
12.0
290
     0
  0
SCALE
  5
A52
102
{ACAD_REACTORS
330
A36
102
}
330
A36
100
AcDbScale
 70
     0
300
3/4" = 1'-0"
140
0.75
141
12.0
290
     0
  0
SCALE
  5
A53
102
{ACAD_REACTORS
330
A36
102
}
330
A36
100
AcDbScale
 70
     0
300
1" = 1'-0"
140
1.0
141
12.0
290
     0
  0
SCALE
  5
A54
102
{ACAD_REACTORS
330
A36
102
}
330
A36
100
AcDbScale
 70
     0
300
1-1/2" = 1'-0"
140
1.5
141
12.0
290
     0
  0
SCALE
  5
A55
102
{ACAD_REACTORS
330
A36
102
}
330
A36
100
AcDbScale
 70
     0
300
3" = 1'-0"
140
3.0
141
12.0
290
     0
  0
SCALE
  5
A56
102
{ACAD_REACTORS
330
A36
102
}
330
A36
100
AcDbScale
 70
     0
300
6" = 1'-0"
140
6.0
141
12.0
290
     0
  0
SCALE
  5
A57
102
{ACAD_REACTORS
330
A36
102
}
330
A36
100
AcDbScale
 70
     0
300
1'-0" = 1'-0"
140
12.0
141
12.0
290
     0
  0
TABLESTYLE
  5
15C559
102
{ACAD_XDICTIONARY
360
15C56B
102
}
102
{ACAD_REACTORS
330
15C558
102
}
330
15C558
100
AcDbTableStyle
  3
Standard
 70
     0
 71
     0
 40
0.06
 41
0.06
280
     0
281
     0
  7
STANDARD
140
0.18
170
     2
 62
     0
 63
     7
283
     0
274
    -2
284
     1
 64
     0
275
    -2
285
     1
 65
     0
276
    -2
286
     1
 66
     0
277
    -2
287
     1
 67
     0
278
    -2
288
     1
 68
     0
279
    -2
289
     1
 69
     0
  7
STANDARD
140
0.25
170
     5
 62
     0
 63
     7
283
     0
274
    -2
284
     1
 64
     0
275
    -2
285
     1
 65
     0
276
    -2
286
     1
 66
     0
277
    -2
287
     1
 67
     0
278
    -2
288
     1
 68
     0
279
    -2
289
     1
 69
     0
  7
STANDARD
140
0.18
170
     5
 62
     0
 63
     7
283
     0
274
    -2
284
     1
 64
     0
275
    -2
285
     1
 65
     0
276
    -2
286
     1
 66
     0
277
    -2
287
     1
 67
     0
278
    -2
288
     1
 68
     0
279
    -2
289
     1
 69
     0
  0
VISUALSTYLE
  5
15C54C
102
{ACAD_REACTORS
330
15C546
102
}
330
15C546
100
AcDbVisualStyle
  2
2dWireframe
 70
     4
 71
     0
 72
     2
 73
     0
 90
        0
 40
-0.6
 41
-30.0
 62
     5
 63
     7
 74
     1
 91
        4
 64
     7
 65
   257
 75
     1
175
     1
 42
1.0
 92
        0
 66
   257
 43
1.0
 76
     1
 77
     6
 78
     2
 67
     7
 79
     5
170
     0
171
     0
290
     0
174
     0
 93
        1
 44
0.0
173
     0
291
     0
 45
0.0
1001
ACAD
1000
AcDbSavedByObjectVersion
1070
     0
  0
VISUALSTYLE
  5
15C54E
102
{ACAD_REACTORS
330
15C546
102
}
330
15C546
100
AcDbVisualStyle
  2
3D Hidden
 70
     6
 71
     1
 72
     2
 73
     2
 90
        0
 40
-0.6
 41
-30.0
 62
     5
 63
     7
 74
     2
 91
        2
 64
     7
 65
   257
 75
     2
175
     1
 42
40.0
 92
        0
 66
   257
 43
1.0
 76
     1
 77
     6
 78
     2
 67
     7
 79
     3
170
     0
171
     0
290
     0
174
     0
 93
        1
 44
0.0
173
     0
291
     0
 45
0.0
1001
ACAD
1000
AcDbSavedByObjectVersion
1070
     0
  0
VISUALSTYLE
  5
15C54D
102
{ACAD_REACTORS
330
15C546
102
}
330
15C546
100
AcDbVisualStyle
  2
3dWireframe
 70
     5
 71
     0
 72
     2
 73
     0
 90
        0
 40
-0.6
 41
-30.0
 62
     5
 63
     7
 74
     1
 91
        4
 64
     7
 65
   257
 75
     1
175
     1
 42
1.0
 92
        0
 66
   257
 43
1.0
 76
     1
 77
     6
 78
     2
 67
     7
 79
     5
170
     0
171
     0
290
     0
174
     0
 93
        1
 44
0.0
173
     0
291
     0
 45
0.0
1001
ACAD
1000
AcDbSavedByObjectVersion
1070
     0
  0
VISUALSTYLE
  5
15C54B
102
{ACAD_REACTORS
330
15C546
102
}
330
15C546
100
AcDbVisualStyle
  2
Basic
 70
     7
 71
     1
 72
     0
 73
     1
 90
        0
 40
-0.6
 41
-30.0
 62
     5
 63
     7
 74
     0
 91
        4
 64
     7
 65
   257
 75
     1
175
     1
 42
1.0
 92
        8
 66
     7
 43
1.0
 76
     1
 77
     6
 78
     2
 67
     7
 79
     5
170
     0
171
     0
290
     0
174
     0
 93
        1
 44
0.0
173
     0
291
     1
 45
0.0
1001
ACAD
1000
AcDbSavedByObjectVersion
1070
     0
  0
VISUALSTYLE
  5
15C552
102
{ACAD_REACTORS
330
15C546
102
}
330
15C546
100
AcDbVisualStyle
  2
Brighten
 70
    12
 71
     2
 72
     2
 73
     0
 90
        0
 40
-0.6
 41
-30.0
 62
     5
 63
     7
 74
     1
 91
        4
 64
     7
 65
   257
 75
     1
175
     1
 42
1.0
 92
        8
 66
     7
 43
1.0
 76
     1
 77
     6
 78
     2
 67
     7
 79
     5
170
     0
171
     0
290
     0
174
     0
 93
        1
 44
50.0
173
     0
291
     1
 45
0.0
1001
ACAD
1000
AcDbSavedByObjectVersion
1070
     0
  0
VISUALSTYLE
  5
15C556
102
{ACAD_REACTORS
330
15C546
102
}
330
15C546
100
AcDbVisualStyle
  2
ColorChange
 70
    16
 71
     2
 72
     2
 73
     3
 90
        0
 40
-0.6
 41
-30.0
 62
     5
 63
     8
 74
     1
 91
        4
 64
     7
 65
   257
 75
     1
175
     1
 42
1.0
 92
        8
 66
     8
 43
1.0
 76
     1
 77
     6
 78
     2
 67
     7
 79
     5
170
     0
171
     0
290
     0
174
     0
 93
        1
 44
0.0
173
     0
291
     1
 45
0.0
1001
ACAD
1000
AcDbSavedByObjectVersion
1070
     0
  0
VISUALSTYLE
  5
15C54F
102
{ACAD_REACTORS
330
15C546
102
}
330
15C546
100
AcDbVisualStyle
  2
Conceptual
 70
     9
 71
     3
 72
     2
 73
     0
 90
        0
 40
-0.6
 41
-30.0
 62
     5
 63
     7
 74
     2
 91
        2
 64
     7
 65
   257
 75
     1
175
     1
 42
40.0
 92
        8
 66
     7
 43
1.0
 76
     1
 77
     6
 78
     2
 67
     7
 79
     3
170
     0
171
     0
290
     0
174
     0
 93
        1
 44
0.0
173
     0
291
     0
 45
0.0
1001
ACAD
1000
AcDbSavedByObjectVersion
1070
     0
  0
VISUALSTYLE
  5
15C551
102
{ACAD_REACTORS
330
15C546
102
}
330
15C546
100
AcDbVisualStyle
  2
Dim
 70
    11
 71
     2
 72
     2
 73
     0
 90
        0
 40
-0.6
 41
-30.0
 62
     5
 63
     7
 74
     1
 91
        4
 64
     7
 65
   257
 75
     1
175
     1
 42
1.0
 92
        8
 66
     7
 43
1.0
 76
     1
 77
     6
 78
     2
 67
     7
 79
     5
170
     0
171
     0
290
     0
174
     0
 93
        1
 44
-50.0
173
     0
291
     1
 45
0.0
1001
ACAD
1000
AcDbSavedByObjectVersion
1070
     0
  0
VISUALSTYLE
  5
15C555
102
{ACAD_REACTORS
330
15C546
102
}
330
15C546
100
AcDbVisualStyle
  2
Facepattern
 70
    15
 71
     2
 72
     2
 73
     0
 90
        0
 40
-0.6
 41
-30.0
 62
     5
 63
     7
 74
     1
 91
        4
 64
     7
 65
   257
 75
     1
175
     1
 42
1.0
 92
        8
 66
     7
 43
1.0
 76
     1
 77
     6
 78
     2
 67
     7
 79
     5
170
     0
171
     0
290
     0
174
     0
 93
        1
 44
0.0
173
     0
291
     1
 45
0.0
1001
ACAD
1000
AcDbSavedByObjectVersion
1070
     0
  0
VISUALSTYLE
  5
15C547
102
{ACAD_REACTORS
330
15C546
102
}
330
15C546
100
AcDbVisualStyle
  2
Flat
 70
     0
 71
     2
 72
     1
 73
     1
 90
        2
 40
-0.6
 41
30.0
 62
     5
 63
     7
 74
     0
 91
        4
 64
     7
 65
   257
 75
     1
175
     1
 42
1.0
 92
        8
 66
     7
 43
1.0
 76
     1
 77
     6
 78
     2
 67
     7
 79
     5
170
     0
171
     0
290
     0
174
     0
 93
       13
 44
0.0
173
     0
291
     1
 45
0.0
1001
ACAD
1000
AcDbSavedByObjectVersion
1070
     0
  0
VISUALSTYLE
  5
15C548
102
{ACAD_REACTORS
330
15C546
102
}
330
15C546
100
AcDbVisualStyle
  2
FlatWithEdges
 70
     1
 71
     2
 72
     1
 73
     1
 90
        2
 40
-0.6
 41
30.0
 62
     5
 63
     7
 74
     1
 91
        4
 64
     7
 65
   257
 75
     1
175
     1
 42
1.0
 92
        0
 66
   257
 43
1.0
 76
     1
 77
     6
 78
     2
 67
     7
 79
     5
170
     0
171
     0
290
     0
174
     0
 93
       13
 44
0.0
173
     0
291
     1
 45
0.0
1001
ACAD
1000
AcDbSavedByObjectVersion
1070
     0
  0
VISUALSTYLE
  5
15C549
102
{ACAD_REACTORS
330
15C546
102
}
330
15C546
100
AcDbVisualStyle
  2
Gouraud
 70
     2
 71
     2
 72
     2
 73
     1
 90
        2
 40
-0.6
 41
30.0
 62
     5
 63
     7
 74
     0
 91
        4
 64
     7
 65
   257
 75
     1
175
     1
 42
1.0
 92
        0
 66
     7
 43
1.0
 76
     1
 77
     6
 78
     2
 67
     7
 79
     5
170
     0
171
     0
290
     0
174
     0
 93
       13
 44
0.0
173
     0
291
     1
 45
0.0
1001
ACAD
1000
AcDbSavedByObjectVersion
1070
     0
  0
VISUALSTYLE
  5
15C54A
102
{ACAD_REACTORS
330
15C546
102
}
330
15C546
100
AcDbVisualStyle
  2
GouraudWithEdges
 70
     3
 71
     2
 72
     2
 73
     1
 90
        2
 40
-0.6
 41
30.0
 62
     5
 63
     7
 74
     1
 91
        4
 64
     7
 65
   257
 75
     1
175
     1
 42
1.0
 92
        0
 66
   257
 43
1.0
 76
     1
 77
     6
 78
     2
 67
     7
 79
     5
170
     0
171
     0
290
     0
174
     0
 93
       13
 44
0.0
173
     0
291
     1
 45
0.0
1001
ACAD
1000
AcDbSavedByObjectVersion
1070
     0
  0
VISUALSTYLE
  5
15C554
102
{ACAD_REACTORS
330
15C546
102
}
330
15C546
100
AcDbVisualStyle
  2
Linepattern
 70
    14
 71
     2
 72
     2
 73
     0
 90
        0
 40
-0.6
 41
-30.0
 62
     5
 63
     7
 74
     1
 91
        4
 64
     7
 65
   257
 75
     7
175
     7
 42
1.0
 92
        8
 66
     7
 43
1.0
 76
     1
 77
     6
 78
     2
 67
     7
 79
     5
170
     0
171
     0
290
     0
174
     0
 93
        1
 44
0.0
173
     0
291
     1
 45
0.0
1001
ACAD
1000
AcDbSavedByObjectVersion
1070
     0
  0
VISUALSTYLE
  5
15C550
102
{ACAD_REACTORS
330
15C546
102
}
330
15C546
100
AcDbVisualStyle
  2
Realistic
 70
     8
 71
     2
 72
     2
 73
     0
 90
        0
 40
-0.6
 41
-30.0
 62
     5
 63
     7
 74
     1
 91
        0
 64
     7
 65
   257
 75
     1
175
     1
 42
1.0
 92
        8
 66
     8
 43
1.0
 76
     1
 77
     6
 78
     2
 67
     7
 79
     5
170
     0
171
     0
290
     0
174
     0
 93
       13
 44
0.0
173
     0
291
     0
 45
0.0
1001
ACAD
1000
AcDbSavedByObjectVersion
1070
     0
  0
VISUALSTYLE
  5
15C553
102
{ACAD_REACTORS
330
15C546
102
}
330
15C546
100
AcDbVisualStyle
  2
Thicken
 70
    13
 71
     2
 72
     2
 73
     0
 90
        0
 40
-0.6
 41
-30.0
 62
     5
 63
     7
 74
     1
 91
        4
 64
     7
 65
   257
 75
     1
175
     1
 42
1.0
 92
       12
 66
     7
 43
1.0
 76
     1
 77
     6
 78
     2
 67
     7
 79
     5
170
     0
171
     0
290
     0
174
     0
 93
        1
 44
0.0
173
     0
291
     1
 45
0.0
1001
ACAD
1000
AcDbSavedByObjectVersion
1070
     0
  0
DICTIONARYVAR
  5
15C56A
102
{ACAD_REACTORS
330
6DE
102
}
330
6DE
100
DictionaryVariables
280
     0
  1
1:1
  0
DICTIONARYVAR
  5
15C569
102
{ACAD_REACTORS
330
6DE
102
}
330
6DE
100
DictionaryVariables
280
     0
  1
STANDARD
  0
DICTIONARYVAR
  5
15C568
102
{ACAD_REACTORS
330
6DE
102
}
330
6DE
100
DictionaryVariables
280
     0
  1
STANDARD
  0
DICTIONARYVAR
  5
6DF
102
{ACAD_REACTORS
330
6DE
102
}
330
6DE
100
DictionaryVariables
280
     0
  1
1
  0
DICTIONARYVAR
  5
A93
102
{ACAD_REACTORS
330
6DE
102
}
330
6DE
100
DictionaryVariables
280
     0
  1
0
  0
DICTIONARYVAR
  5
6E0
102
{ACAD_REACTORS
330
6DE
102
}
330
6DE
100
DictionaryVariables
280
     0
  1

  0
DICTIONARYVAR
  5
A92
102
{ACAD_REACTORS
330
6DE
102
}
330
6DE
100
DictionaryVariables
280
     0
  1
127
  0
ACAD_PROXY_OBJECT
  5
1552DB
102
{ACAD_REACTORS
330
1552DA
102
}
330
1552DA
100
AcDbProxyObject
 90
      499
 91
      516
 95
   524319
 70
     0
 93
     1888
310
51B4D146518005194651A8FC812095550000000000000B08000000000000008200000000000001807E8F2048F205000200001204000000000000581F8000000000000B0807EC3FA6DEBC0E99F8000000000001C07FE8FCC028FE07000041A4E2520CA600E2005C008C00E8005C008321803A80170023003A00170020898006
310
20064006001202DA008C2080248020801000140019001A801B00100021803780360037803900148010001000100010002080220019001A801B0021082008600820088008200A4008600900087A08032803180260030803C803280390029803A003200170032003B80338049C09CC
330
0
 94
        0
1001
ACAD
1000
AcRTDxfName
1000
AEC_VARS_DWG_SETUP
1000
AcRTDxfName
1000
AEC_VARS_DWG_SETUP
1000
AcRTDxfName
1000
AEC_VARS_DWG_SETUP
1000
AcRTDxfName
1000
AEC_VARS_DWG_SETUP
1000
AcRTDxfName
1000
AEC_VARS_DWG_SETUP
1000
AcRTDxfName
1000
AEC_VARS_DWG_SETUP
1000
AcRTDxfName
1000
AEC_VARS_DWG_SETUP
1000
AcRTDxfName
1000
AEC_VARS_DWG_SETUP
1000
AcRTDxfName
1000
AEC_VARS_DWG_SETUP
  0
ACAD_PROXY_OBJECT
  5
1552DB
102
{ACAD_REACTORS
330
1552DA
102
}
330
1552DA
100
AcDbProxyObject
 90
      499
 91
      516
 95
   524319
 70
     0
 93
     1888
310
51B4D146518005194651A8FC812095550000000000000B08000000000000008200000000000001807E8F2048F205000200001204000000000000581F8000000000000B0807EC3FA6DEBC0E99F8000000000001C07FE8FCC028FE07000041A4E2520CA600E2005C008C00E8005C008321803A80170023003A00170020898006
310
20064006001202DA008C2080248020801000140019001A801B00100021803780360037803900148010001000100010002080220019001A801B0021082008600820088008200A4008600900087A08032803180260030803C803280390029803A003200170032003B80338049C09CC
330
0
 94
        0
1001
ACAD
1000
AcRTDxfName
1000
AEC_VARS_DWG_SETUP
1000
AcRTDxfName
1000
AEC_VARS_DWG_SETUP
1000
AcRTDxfName
1000
AEC_VARS_DWG_SETUP
1000
AcRTDxfName
1000
AEC_VARS_DWG_SETUP
1000
AcRTDxfName
1000
AEC_VARS_DWG_SETUP
1000
AcRTDxfName
1000
AEC_VARS_DWG_SETUP
1000
AcRTDxfName
1000
AEC_VARS_DWG_SETUP
1000
AcRTDxfName
1000
AEC_VARS_DWG_SETUP
1000
AcRTDxfName
1000
AEC_VARS_DWG_SETUP
  0
DICTIONARY
  5
15C56F
330
619
100
AcDbDictionary
280
     1
281
     1
  3
ACAD_XREC_ROUNDTRIP
360
15C570
  0
DICTIONARY
  5
15C571
330
61A
100
AcDbDictionary
280
     1
281
     1
  3
ACAD_XREC_ROUNDTRIP
360
15C572
  0
DICTIONARY
  5
15C537
330
15C536
100
AcDbDictionary
280
     1
281
     1
  3
ACAD_XREC_ROUNDTRIP
360
15C574
  3
BUMPTILE
360
15C539
  3
DIFFUSETILE
360
15C538
  3
OPACITYTILE
360
15C53C
  3
REFLECTIONTILE
360
15C53B
  3
REFRACTIONTILE
360
15C53D
  3
SPECULARTILE
360
15C53A
  0
DICTIONARY
  5
15C52F
330
15C52E
100
AcDbDictionary
280
     1
281
     1
  3
ACAD_XREC_ROUNDTRIP
360
15C573
  3
BUMPTILE
360
15C531
  3
DIFFUSETILE
360
15C530
  3
OPACITYTILE
360
15C534
  3
REFLECTIONTILE
360
15C533
  3
REFRACTIONTILE
360
15C535
  3
SPECULARTILE
360
15C532
  0
DICTIONARY
  5
15C53F
330
15C53E
100
AcDbDictionary
280
     1
281
     1
  3
ACAD_XREC_ROUNDTRIP
360
15C575
  3
BUMPTILE
360
15C541
  3
DIFFUSETILE
360
15C540
  3
OPACITYTILE
360
15C544
  3
REFLECTIONTILE
360
15C543
  3
REFRACTIONTILE
360
15C545
  3
SPECULARTILE
360
15C542
  0
DICTIONARY
  5
15C56B
330
15C559
100
AcDbDictionary
280
     1
281
     1
  3
ACAD_ROUNDTRIP_2008_TABLESTYLE_CELLSTYLEMAP
360
15C56C
  3
ACAD_XREC_ROUNDTRIP
360
15C576
  0
XRECORD
  5
15C570
102
{ACAD_REACTORS
330
15C56F
102
}
330
15C56F
100
AcDbXrecord
280
     1
102
SHADEPLOT
 70
     0
102
SHADEPLOTRESLEVEL
 70
     2
102
SHADEPLOTCUSTOMDPI
 70
   300
  0
XRECORD
  5
15C572
102
{ACAD_REACTORS
330
15C571
102
}
330
15C571
100
AcDbXrecord
280
     1
102
SHADEPLOT
 70
     0
102
SHADEPLOTRESLEVEL
 70
     2
102
SHADEPLOTCUSTOMDPI
 70
   300
  0
XRECORD
  5
15C574
102
{ACAD_REACTORS
330
15C537
102
}
330
15C537
100
AcDbXrecord
280
     1
102
MATERIAL
148
0.0
149
0.0
149
0.0
 93
        0
 94
      127
282
     0
 72
     0
 77
     0
171
     0
175
     0
179
     0
273
     0
  0
XRECORD
  5
15C539
102
{ACAD_REACTORS
330
15C537
102
}
330
15C537
100
AcDbXrecord
280
     1
270
     1
271
     1
  0
XRECORD
  5
15C538
102
{ACAD_REACTORS
330
15C537
102
}
330
15C537
100
AcDbXrecord
280
     1
270
     1
271
     1
  0
XRECORD
  5
15C53C
102
{ACAD_REACTORS
330
15C537
102
}
330
15C537
100
AcDbXrecord
280
     1
270
     1
271
     1
  0
XRECORD
  5
15C53B
102
{ACAD_REACTORS
330
15C537
102
}
330
15C537
100
AcDbXrecord
280
     1
270
     1
271
     1
  0
XRECORD
  5
15C53D
102
{ACAD_REACTORS
330
15C537
102
}
330
15C537
100
AcDbXrecord
280
     1
270
     1
271
     1
  0
XRECORD
  5
15C53A
102
{ACAD_REACTORS
330
15C537
102
}
330
15C537
100
AcDbXrecord
280
     1
270
     1
271
     1
  0
XRECORD
  5
15C573
102
{ACAD_REACTORS
330
15C52F
102
}
330
15C52F
100
AcDbXrecord
280
     1
102
MATERIAL
148
0.0
149
0.0
149
0.0
 93
        0
 94
      127
282
     0
 72
     0
 77
     0
171
     0
175
     0
179
     0
273
     0
  0
XRECORD
  5
15C531
102
{ACAD_REACTORS
330
15C52F
102
}
330
15C52F
100
AcDbXrecord
280
     1
270
     1
271
     1
  0
XRECORD
  5
15C530
102
{ACAD_REACTORS
330
15C52F
102
}
330
15C52F
100
AcDbXrecord
280
     1
270
     1
271
     1
  0
XRECORD
  5
15C534
102
{ACAD_REACTORS
330
15C52F
102
}
330
15C52F
100
AcDbXrecord
280
     1
270
     1
271
     1
  0
XRECORD
  5
15C533
102
{ACAD_REACTORS
330
15C52F
102
}
330
15C52F
100
AcDbXrecord
280
     1
270
     1
271
     1
  0
XRECORD
  5
15C535
102
{ACAD_REACTORS
330
15C52F
102
}
330
15C52F
100
AcDbXrecord
280
     1
270
     1
271
     1
  0
XRECORD
  5
15C532
102
{ACAD_REACTORS
330
15C52F
102
}
330
15C52F
100
AcDbXrecord
280
     1
270
     1
271
     1
  0
XRECORD
  5
15C575
102
{ACAD_REACTORS
330
15C53F
102
}
330
15C53F
100
AcDbXrecord
280
     1
102
MATERIAL
148
0.0
149
0.0
149
0.0
 93
        0
 94
      127
282
     0
 72
     0
 77
     0
171
     0
175
     0
179
     0
273
     0
  0
XRECORD
  5
15C541
102
{ACAD_REACTORS
330
15C53F
102
}
330
15C53F
100
AcDbXrecord
280
     1
270
     1
271
     1
  0
XRECORD
  5
15C540
102
{ACAD_REACTORS
330
15C53F
102
}
330
15C53F
100
AcDbXrecord
280
     1
270
     1
271
     1
  0
XRECORD
  5
15C544
102
{ACAD_REACTORS
330
15C53F
102
}
330
15C53F
100
AcDbXrecord
280
     1
270
     1
271
     1
  0
XRECORD
  5
15C543
102
{ACAD_REACTORS
330
15C53F
102
}
330
15C53F
100
AcDbXrecord
280
     1
270
     1
271
     1
  0
XRECORD
  5
15C545
102
{ACAD_REACTORS
330
15C53F
102
}
330
15C53F
100
AcDbXrecord
280
     1
270
     1
271
     1
  0
XRECORD
  5
15C542
102
{ACAD_REACTORS
330
15C53F
102
}
330
15C53F
100
AcDbXrecord
280
     1
270
     1
271
     1
  0
CELLSTYLEMAP
  5
15C56C
102
{ACAD_REACTORS
330
15C56B
102
}
330
15C56B
100
AcDbCellStyleMap
 90
        3
300
CELLSTYLE
  1
TABLEFORMAT_BEGIN
 90
        5
170
     1
 91
        0
 92
    32768
 62
   257
 93
        1
300
CONTENTFORMAT
  1
CONTENTFORMAT_BEGIN
 90
        0
 91
        0
 92
      512
 93
        0
300

 40
0.0
140
1.0
 94
        5
 62
     0
340
10
144
0.25
309
CONTENTFORMAT_END
171
     0
 94
        0
309
TABLEFORMAT_END
  1
CELLSTYLE_BEGIN
 90
        1
 91
        1
300
_TITLE
309
CELLSTYLE_END
300
CELLSTYLE
  1
TABLEFORMAT_BEGIN
 90
        5
170
     1
 91
        0
 92
        0
 62
   257
 93
        1
300
CONTENTFORMAT
  1
CONTENTFORMAT_BEGIN
 90
        0
 91
        0
 92
      512
 93
        0
300

 40
0.0
140
1.0
 94
        5
 62
     0
340
10
144
0.18
309
CONTENTFORMAT_END
171
     0
 94
        0
309
TABLEFORMAT_END
  1
CELLSTYLE_BEGIN
 90
        2
 91
        1
300
_HEADER
309
CELLSTYLE_END
300
CELLSTYLE
  1
TABLEFORMAT_BEGIN
 90
        5
170
     1
 91
        0
 92
        0
 62
   257
 93
        1
300
CONTENTFORMAT
  1
CONTENTFORMAT_BEGIN
 90
        0
 91
        0
 92
      512
 93
        0
300

 40
0.0
140
1.0
 94
        2
 62
     0
340
10
144
0.18
309
CONTENTFORMAT_END
171
     0
 94
        0
309
TABLEFORMAT_END
  1
CELLSTYLE_BEGIN
 90
        3
 91
        2
300
_DATA
309
CELLSTYLE_END
  0
XRECORD
  5
15C576
102
{ACAD_REACTORS
330
15C56B
102
}
330
15C56B
100
AcDbXrecord
280
     1
102
ACAD_ROUNDTRIP_PRE2007_TABLESTYLE
 90
      512
 91
        0
  1

 92
      512
 93
        0
  2

 94
      512
 95
        0
  3

  0
ENDSEC
  0
EOF
