  0
SECTION
  2
HEADER
  9
$ACADVER
  1
AC1015
  9
$ACADMAINTVER
 70
     6
  9
$DWGCODEPAGE
  3
ANSI_932
  9
$INSBASE
 10
0.0
 20
0.0
 30
0.0
  9
$EXTMIN
 10
12480.24430420848
 20
-6376.317156148785
 30
0.0
  9
$EXTMAX
 10
12577.22430420848
 20
-6294.831468691673
 30
0.0
  9
$LIMMIN
 10
0.0
 20
0.0
  9
$LIMMAX
 10
420.0
 20
297.0
  9
$ORTHOMODE
 70
     1
  9
$REGENMODE
 70
     1
  9
$FILLMODE
 70
     1
  9
$QTEXTMODE
 70
     0
  9
$MIRRTEXT
 70
     1
  9
$LTSCALE
 40
5.0
  9
$ATTMODE
 70
     0
  9
$TEXTSIZE
 40
3.5
  9
$TRACEWID
 40
1.0
  9
$TEXTSTYLE
  7
STANDARD
  9
$CLAYER
  8
0
  9
$CELTYPE
  6
BYLAYER
  9
$CECOLOR
 62
   256
  9
$CELTSCALE
 40
1.0
  9
$DISPSILH
 70
     0
  9
$DIMSCALE
 40
1.0
  9
$DIMASZ
 40
2.5
  9
$DIMEXO
 40
1.5
  9
$DIMDLI
 40
7.0
  9
$DIMRND
 40
0.0
  9
$DIMDLE
 40
0.0
  9
$DIMEXE
 40
1.0
  9
$DIMTP
 40
0.0
  9
$DIMTM
 40
0.0
  9
$DIMTXT
 40
3.0
  9
$DIMCEN
 40
0.0
  9
$DIMTSZ
 40
0.0
  9
$DIMTOL
 70
     0
  9
$DIMLIM
 70
     0
  9
$DIMTIH
 70
     0
  9
$DIMTOH
 70
     0
  9
$DIMSE1
 70
     0
  9
$DIMSE2
 70
     0
  9
$DIMTAD
 70
     3
  9
$DIMZIN
 70
     9
  9
$DIMBLK
  1
OPEN30
  9
$DIMASO
 70
     1
  9
$DIMSHO
 70
     0
  9
$DIMPOST
  1

  9
$DIMAPOST
  1

  9
$DIMALT
 70
     0
  9
$DIMALTD
 70
     0
  9
$DIMALTF
 40
25.4
  9
$DIMLFAC
 40
1.0
  9
$DIMTOFL
 70
     1
  9
$DIMTVP
 40
0.0
  9
$DIMTIX
 70
     0
  9
$DIMSOXD
 70
     0
  9
$DIMSAH
 70
     0
  9
$DIMBLK1
  1

  9
$DIMBLK2
  1

  9
$DIMSTYLE
  2
STANDARD
  9
$DIMCLRD
 70
     8
  9
$DIMCLRE
 70
     8
  9
$DIMCLRT
 70
   256
  9
$DIMTFAC
 40
0.6
  9
$DIMGAP
 40
1.0
  9
$DIMJUST
 70
     0
  9
$DIMSD1
 70
     0
  9
$DIMSD2
 70
     0
  9
$DIMTOLJ
 70
     1
  9
$DIMTZIN
 70
     9
  9
$DIMALTZ
 70
     9
  9
$DIMALTTZ
 70
     9
  9
$DIMUPT
 70
     0
  9
$DIMDEC
 70
     3
  9
$DIMTDEC
 70
     3
  9
$DIMALTU
 70
     2
  9
$DIMALTTD
 70
     0
  9
$DIMTXSTY
  7
STANDARD
  9
$DIMAUNIT
 70
     0
  9
$DIMADEC
 70
     3
  9
$DIMALTRND
 40
0.0
  9
$DIMAZIN
 70
     2
  9
$DIMDSEP
 70
    46
  9
$DIMATFIT
 70
     0
  9
$DIMFRAC
 70
     0
  9
$DIMLDRBLK
  1
OPEN30
  9
$DIMLUNIT
 70
     2
  9
$DIMLWD
 70
    -2
  9
$DIMLWE
 70
    -2
  9
$DIMTMOVE
 70
     0
  9
$LUNITS
 70
     2
  9
$LUPREC
 70
     2
  9
$SKETCHINC
 40
0.1
  9
$FILLETRAD
 40
10.0
  9
$AUNITS
 70
     0
  9
$AUPREC
 70
     1
  9
$MENU
  1
FM
  9
$ELEVATION
 40
0.0
  9
$PELEVATION
 40
0.0
  9
$THICKNESS
 40
0.0
  9
$LIMCHECK
 70
     0
  9
$CHAMFERA
 40
0.0
  9
$CHAMFERB
 40
0.0
  9
$CHAMFERC
 40
0.0
  9
$CHAMFERD
 40
0.0
  9
$SKPOLY
 70
     0
  9
$TDCREATE
 40
2448636.619629618
  9
$TDUCREATE
 40
2448636.244629618
  9
$TDUPDATE
 40
2457347.848222083
  9
$TDUUPDATE
 40
2457347.473222083
  9
$TDINDWG
 40
102.0790843171
  9
$TDUSRTIMER
 40
2457347.472937639
  9
$USRTIMER
 70
     1
  9
$ANGBASE
 50
0.0
  9
$ANGDIR
 70
     0
  9
$PDMODE
 70
     3
  9
$PDSIZE
 40
0.0
  9
$PLINEWID
 40
0.0
  9
$SPLFRAME
 70
     0
  9
$SPLINETYPE
 70
     6
  9
$SPLINESEGS
 70
     8
  9
$HANDSEED
  5
372503
  9
$SURFTAB1
 70
     6
  9
$SURFTAB2
 70
     6
  9
$SURFTYPE
 70
     6
  9
$SURFU
 70
     6
  9
$SURFV
 70
     6
  9
$UCSBASE
  2

  9
$UCSNAME
  2

  9
$UCSORG
 10
0.0
 20
0.0
 30
0.0
  9
$UCSXDIR
 10
1.0
 20
0.0
 30
0.0
  9
$UCSYDIR
 10
0.0
 20
1.0
 30
0.0
  9
$UCSORTHOREF
  2

  9
$UCSORTHOVIEW
 70
     0
  9
$UCSORGTOP
 10
0.0
 20
0.0
 30
0.0
  9
$UCSORGBOTTOM
 10
0.0
 20
0.0
 30
0.0
  9
$UCSORGLEFT
 10
0.0
 20
0.0
 30
0.0
  9
$UCSORGRIGHT
 10
0.0
 20
0.0
 30
0.0
  9
$UCSORGFRONT
 10
0.0
 20
0.0
 30
0.0
  9
$UCSORGBACK
 10
0.0
 20
0.0
 30
0.0
  9
$PUCSBASE
  2

  9
$PUCSNAME
  2

  9
$PUCSORG
 10
0.0
 20
0.0
 30
0.0
  9
$PUCSXDIR
 10
1.0
 20
0.0
 30
0.0
  9
$PUCSYDIR
 10
0.0
 20
1.0
 30
0.0
  9
$PUCSORTHOREF
  2

  9
$PUCSORTHOVIEW
 70
     0
  9
$PUCSORGTOP
 10
0.0
 20
0.0
 30
0.0
  9
$PUCSORGBOTTOM
 10
0.0
 20
0.0
 30
0.0
  9
$PUCSORGLEFT
 10
0.0
 20
0.0
 30
0.0
  9
$PUCSORGRIGHT
 10
0.0
 20
0.0
 30
0.0
  9
$PUCSORGFRONT
 10
0.0
 20
0.0
 30
0.0
  9
$PUCSORGBACK
 10
0.0
 20
0.0
 30
0.0
  9
$USERI1
 70
     0
  9
$USERI2
 70
     0
  9
$USERI3
 70
     0
  9
$USERI4
 70
     0
  9
$USERI5
 70
     0
  9
$USERR1
 40
0.0
  9
$USERR2
 40
0.0
  9
$USERR3
 40
0.0
  9
$USERR4
 40
0.0
  9
$USERR5
 40
0.0
  9
$WORLDVIEW
 70
     0
  9
$SHADEDGE
 70
     3
  9
$SHADEDIF
 70
    70
  9
$TILEMODE
 70
     1
  9
$MAXACTVP
 70
    16
  9
$PINSBASE
 10
0.0
 20
0.0
 30
0.0
  9
$PLIMCHECK
 70
     0
  9
$PEXTMIN
 10
1.000000000000000E+20
 20
1.000000000000000E+20
 30
1.000000000000000E+20
  9
$PEXTMAX
 10
-1.000000000000000E+20
 20
-1.000000000000000E+20
 30
-1.000000000000000E+20
  9
$PLIMMIN
 10
0.0
 20
0.0
  9
$PLIMMAX
 10
0.0
 20
0.0
  9
$UNITMODE
 70
     0
  9
$VISRETAIN
 70
     0
  9
$PLINEGEN
 70
     0
  9
$PSLTSCALE
 70
     0
  9
$TREEDEPTH
 70
  3020
  9
$CMLSTYLE
  2
STANDARD
  9
$CMLJUST
 70
     0
  9
$CMLSCALE
 40
1.0
  9
$PROXYGRAPHICS
 70
     1
  9
$MEASUREMENT
 70
     0
  9
$CELWEIGHT
370
    -1
  9
$ENDCAPS
280
     0
  9
$JOINSTYLE
280
     0
  9
$LWDISPLAY
290
     0
  9
$INSUNITS
 70
     0
  9
$HYPERLINKBASE
  1

  9
$STYLESHEET
  1
SPAX FORM.CTB
  9
$XEDIT
290
     1
  9
$CEPSNTYPE
380
     0
  9
$PSTYLEMODE
290
     1
  9
$FINGERPRINTGUID
  2
{E5B35D22-A717-11D3-9160-00E0294F7E09}
  9
$VERSIONGUID
  2
{F3B366BC-0915-4F83-9F4B-11EAA8DF7EC2}
  9
$EXTNAMES
290
     1
  9
$PSVPSCALE
 40
0.0
  9
$OLESTARTUP
290
     0
  0
ENDSEC
  0
SECTION
  2
CLASSES
  0
CLASS
  1
ACDBDICTIONARYWDFLT
  2
AcDbDictionaryWithDefault
  3
ObjectDBX Classes
 90
        0
280
     0
281
     0
  0
CLASS
  1
ACDBPLACEHOLDER
  2
AcDbPlaceHolder
  3
ObjectDBX Classes
 90
        0
280
     0
281
     0
  0
CLASS
  1
LAYOUT
  2
AcDbLayout
  3
ObjectDBX Classes
 90
        0
280
     0
281
     0
  0
CLASS
  1
DICTIONARYVAR
  2
AcDbDictionaryVar
  3
ObjectDBX Classes
 90
        0
280
     0
281
     0
  0
CLASS
  1
MATERIAL
  2
AcDbMaterial
  3
ObjectDBX Classes
 90
     1153
280
     0
281
     0
  0
CLASS
  1
SORTENTSTABLE
  2
AcDbSortentsTable
  3
ObjectDBX Classes
 90
        0
280
     0
281
     0
  0
CLASS
  1
VISUALSTYLE
  2
AcDbVisualStyle
  3
ObjectDBX Classes
 90
     4095
280
     0
281
     0
  0
CLASS
  1
TABLESTYLE
  2
AcDbTableStyle
  3
ObjectDBX Classes
 90
     4095
280
     0
281
     0
  0
CLASS
  1
SCALE
  2
AcDbScale
  3
ObjectDBX Classes
 90
     1153
280
     0
281
     0
  0
CLASS
  1
MLEADERSTYLE
  2
AcDbMLeaderStyle
  3
ACDB_MLEADERSTYLE_CLASS
 90
     4095
280
     0
281
     0
  0
CLASS
  1
CELLSTYLEMAP
  2
AcDbCellStyleMap
  3
ObjectDBX Classes
 90
     1152
280
     0
281
     0
  0
CLASS
  1
MULTILEADER
  2
AcDbMLeader
  3
ACDB_MLEADER_CLASS
 90
     1025
280
     0
281
     1
  0
CLASS
  1
DIMASSOC
  2
AcDbDimAssoc
  3
"AcDbDimAssoc|Product Desc:     AcDim ARX App For Dimension|Company:          Autodesk, Inc.|WEB Address:      www.autodesk.com"
 90
        0
280
     0
281
     0
  0
CLASS
  1
LARGE_RADIAL_DIMENSION
  2
AcDbRadialDimensionLarge
  3
ObjectDBX Classes
 90
     1025
280
     0
281
     1
  0
CLASS
  1
RASTERVARIABLES
  2
AcDbRasterVariables
  3
ISM
 90
        0
280
     0
281
     0
  0
CLASS
  1
SUN
  2
AcDbSun
  3
SCENEOE
 90
     1153
280
     0
281
     0
  0
ENDSEC
  0
SECTION
  2
TABLES
  0
TABLE
  2
VPORT
  5
8
102
{ACAD_XDICTIONARY
360
361384
102
}
330
0
100
AcDbSymbolTable
 70
     1
  0
VPORT
  5
3572AF
330
8
100
AcDbSymbolTableRecord
100
AcDbViewportTableRecord
  2
*Active
 70
     0
 10
0.0
 20
0.0
 11
1.0
 21
1.0
 12
12528.73430420848
 22
-6335.574312420229
 13
0.0
 23
0.0
 14
1.0
 24
1.0
 15
20.0
 25
20.0
 16
0.0
 26
0.0
 36
1.0
 17
0.0
 27
0.0
 37
0.0
 40
84.72678782608658
 41
1.16751269035533
 42
50.0
 43
0.0
 44
0.0
 50
0.0
 51
0.0
 71
    16
 72
   100
 73
     1
 74
     0
 75
     0
 76
     0
 77
     0
 78
     0
281
     0
 65
     1
110
0.0
120
0.0
130
0.0
111
1.0
121
0.0
131
0.0
112
0.0
122
1.0
132
0.0
 79
     0
146
0.0
  0
ENDTAB
  0
TABLE
  2
LTYPE
  5
5
330
0
100
AcDbSymbolTable
 70
     1
  0
LTYPE
  5
12
330
5
100
AcDbSymbolTableRecord
100
AcDbLinetypeTableRecord
  2
BYBLOCK
 70
     0
  3

 72
    65
 73
     0
 40
0.0
  0
LTYPE
  5
13
330
5
100
AcDbSymbolTableRecord
100
AcDbLinetypeTableRecord
  2
BYLAYER
 70
     0
  3

 72
    65
 73
     0
 40
0.0
  0
LTYPE
  5
14
330
5
100
AcDbSymbolTableRecord
100
AcDbLinetypeTableRecord
  2
CONTINUOUS
 70
     0
  3
Solid line
 72
    65
 73
     0
 40
0.0
  0
ENDTAB
  0
TABLE
  2
LAYER
  5
2
102
{ACAD_XDICTIONARY
360
559E
102
}
330
0
100
AcDbSymbolTable
 70
     6
  0
LAYER
  5
F
102
{ACAD_XDICTIONARY
360
CD7F
102
}
330
2
100
AcDbSymbolTableRecord
100
AcDbLayerTableRecord
  2
0
 70
     0
 62
     7
  6
CONTINUOUS
370
    -3
390
352
  0
LAYER
  5
2A3
102
{ACAD_XDICTIONARY
360
CD89
102
}
330
2
100
AcDbSymbolTableRecord
100
AcDbLayerTableRecord
  2
ﾊｯﾁﾝｸﾞ
 70
     0
 62
     8
  6
CONTINUOUS
370
    -3
390
352
  0
LAYER
  5
2F4
102
{ACAD_XDICTIONARY
360
CD8D
102
}
330
2
100
AcDbSymbolTableRecord
100
AcDbLayerTableRecord
  2
文字
 70
     0
 62
     7
  6
CONTINUOUS
370
    -3
390
352
  0
LAYER
  5
306B15
330
2
100
AcDbSymbolTableRecord
100
AcDbLayerTableRecord
  2
C-SUNPO
 70
     0
 62
     7
  6
CONTINUOUS
370
    -3
390
352
  0
LAYER
  5
31D3CB
330
2
100
AcDbSymbolTableRecord
100
AcDbLayerTableRecord
  2
姿図
 70
     0
 62
     8
  6
CONTINUOUS
370
    -3
390
352
  0
ENDTAB
  0
TABLE
  2
STYLE
  5
3
330
0
100
AcDbSymbolTable
 70
     1
  0
STYLE
  5
10
330
3
100
AcDbSymbolTableRecord
100
AcDbTextStyleTableRecord
  2
STANDARD
 70
     0
 40
0.0
 41
1.0
 50
0.0
 71
     0
 42
3.5
  3
MONOTXT
  4
BIGFONT
  0
ENDTAB
  0
TABLE
  2
VIEW
  5
6
330
0
100
AcDbSymbolTable
 70
     0
  0
ENDTAB
  0
TABLE
  2
UCS
  5
7
330
0
100
AcDbSymbolTable
 70
     0
  0
ENDTAB
  0
TABLE
  2
APPID
  5
9
330
0
100
AcDbSymbolTable
 70
    20
  0
APPID
  5
11
330
9
100
AcDbSymbolTableRecord
100
AcDbRegAppTableRecord
  2
ACAD
 70
     0
  0
APPID
  5
C058
330
9
100
AcDbSymbolTableRecord
100
AcDbRegAppTableRecord
  2
AcAecLayerStandard
 70
     0
  0
APPID
  5
CD77
330
9
100
AcDbSymbolTableRecord
100
AcDbRegAppTableRecord
  2
ACAD_MLEADERVER
 70
     0
  0
APPID
  5
D036
330
9
100
AcDbSymbolTableRecord
100
AcDbRegAppTableRecord
  2
ACAD_PSEXT
 70
     0
  0
APPID
  5
D28E
330
9
100
AcDbSymbolTableRecord
100
AcDbRegAppTableRecord
  2
ACAD_DSTYLE_DIMJAG
 70
     0
  0
APPID
  5
D28F
330
9
100
AcDbSymbolTableRecord
100
AcDbRegAppTableRecord
  2
ACAD_DSTYLE_DIMTALN
 70
     0
  0
APPID
  5
10E35
330
9
100
AcDbSymbolTableRecord
100
AcDbRegAppTableRecord
  2
ACAD_EXEMPT_FROM_CAD_STANDARDS
 70
     0
  0
APPID
  5
36B90
330
9
100
AcDbSymbolTableRecord
100
AcDbRegAppTableRecord
  2
ACAD_DSTYLE_DIMRADIAL_EXTENSION
 70
     0
  0
APPID
  5
4CBB9
330
9
100
AcDbSymbolTableRecord
100
AcDbRegAppTableRecord
  2
WACOM_STRING
 70
     0
  0
APPID
  5
4CBBA
330
9
100
AcDbSymbolTableRecord
100
AcDbRegAppTableRecord
  2
WACOM_DRSYM_ARROW
 70
     0
  0
APPID
  5
83B4C
330
9
100
AcDbSymbolTableRecord
100
AcDbRegAppTableRecord
  2
ACAD_DSTYLE_DIMRADIAL_EXTE
 70
     0
  0
APPID
  5
83B4D
330
9
100
AcDbSymbolTableRecord
100
AcDbRegAppTableRecord
  2
ACAD_DSTYLE_DIMBREAK
 70
     0
  0
APPID
  5
83B4E
330
9
100
AcDbSymbolTableRecord
100
AcDbRegAppTableRecord
  2
ACAD_DSTYLE_DIMARC_LENGTH_
 70
     0
  0
APPID
  5
8B472
330
9
100
AcDbSymbolTableRecord
100
AcDbRegAppTableRecord
  2
LAYER_SCALE
 70
     0
  0
APPID
  5
8B473
330
9
100
AcDbSymbolTableRecord
100
AcDbRegAppTableRecord
  2
KCAD_DIM_EXT
 70
     0
  0
APPID
  5
16ECBA
330
9
100
AcDbSymbolTableRecord
100
AcDbRegAppTableRecord
  2
GENIUS_GENDTOL_13
 70
     0
  0
APPID
  5
23CCFB
330
9
100
AcDbSymbolTableRecord
100
AcDbRegAppTableRecord
  2
AcadAnnotative
 70
     0
  0
APPID
  5
31A28D
330
9
100
AcDbSymbolTableRecord
100
AcDbRegAppTableRecord
  2
ACAD_DSTYLE_DIMFLIPARROW_WHICH_SYMBOL
 70
     0
  0
APPID
  5
357D85
330
9
100
AcDbSymbolTableRecord
100
AcDbRegAppTableRecord
  2
ACAD_SPLINE_DATA
 70
     0
  0
APPID
  5
357D86
330
9
100
AcDbSymbolTableRecord
100
AcDbRegAppTableRecord
  2
ACAD_SPLINE_DATA2
 70
     0
  0
ENDTAB
  0
TABLE
  2
DIMSTYLE
  5
A
330
0
100
AcDbSymbolTable
 70
     1
100
AcDbDimStyleTable
  0
DIMSTYLE
105
1CC
330
A
100
AcDbSymbolTableRecord
100
AcDbDimStyleTableRecord
  2
STANDARD
 70
     0
 41
2.5
 42
1.5
 43
7.0
 44
1.0
 73
     0
 74
     0
 77
     3
 78
     8
 79
     2
140
3.0
141
0.0
146
0.6
147
1.0
171
     0
172
     1
176
     8
177
     8
271
     3
178
   256
179
     3
271
     3
272
     3
274
     0
289
     0
340
10
341
265D
342
265D
1001
ACAD_DSTYLE_DIMJAG
1070
   388
1040
1.5
1001
ACAD_DSTYLE_DIMTALN
1070
   392
1070
     0
  0
ENDTAB
  0
TABLE
  2
BLOCK_RECORD
  5
1
330
0
100
AcDbSymbolTable
 70
     1
  0
BLOCK_RECORD
  5
18
102
{ACAD_XDICTIONARY
360
D25F
102
}
330
1
100
AcDbSymbolTableRecord
100
AcDbBlockTableRecord
  2
*MODEL_SPACE
340
355
  0
BLOCK_RECORD
  5
15
330
1
100
AcDbSymbolTableRecord
100
AcDbBlockTableRecord
  2
*PAPER_SPACE
340
356
  0
BLOCK_RECORD
  5
265D
330
1
100
AcDbSymbolTableRecord
100
AcDbBlockTableRecord
  2
_OPEN30
340
0
  0
ENDTAB
  0
ENDSEC
  0
SECTION
  2
BLOCKS
  0
BLOCK
  5
39
330
18
100
AcDbEntity
  8
0
100
AcDbBlockBegin
  2
*MODEL_SPACE
 70
     0
 10
0.0
 20
0.0
 30
0.0
  3
*MODEL_SPACE
  1
*MODEL_SPACE
  0
ENDBLK
  5
3A
330
18
100
AcDbEntity
  8
0
100
AcDbBlockEnd
  0
BLOCK
  5
37
330
15
100
AcDbEntity
 67
     1
  8
0
100
AcDbBlockBegin
  2
*PAPER_SPACE
 70
     0
 10
0.0
 20
0.0
 30
0.0
  3
*PAPER_SPACE
  1
*PAPER_SPACE
  0
ENDBLK
  5
38
330
15
100
AcDbEntity
 67
     1
  8
0
100
AcDbBlockEnd
  0
BLOCK
  5
265E
330
265D
100
AcDbEntity
  8
0
100
AcDbBlockBegin
  2
_OPEN30
 70
     0
 10
0.0
 20
0.0
 30
0.0
  3
_OPEN30
  1
_OPEN30
  0
LINE
  5
265F
330
265D
100
AcDbEntity
  8
0
  6
ByBlock
 62
     0
100
AcDbLine
 10
-1.0
 20
0.26794919
 30
0.0
 11
0.0
 21
0.0
 31
0.0
  0
LINE
  5
2660
330
265D
100
AcDbEntity
  8
0
  6
ByBlock
 62
     0
100
AcDbLine
 10
0.0
 20
0.0
 30
0.0
 11
-1.0
 21
-0.26794919
 31
0.0
  0
LINE
  5
2661
330
265D
100
AcDbEntity
  8
0
  6
ByBlock
 62
     0
100
AcDbLine
 10
0.0
 20
0.0
 30
0.0
 11
-1.0
 21
0.0
 31
0.0
  0
ENDBLK
  5
2662
330
265D
100
AcDbEntity
  8
0
100
AcDbBlockEnd
  0
ENDSEC
  0
SECTION
  2
ENTITIES
  0
MTEXT
  5
8182F
330
18
100
AcDbEntity
  8
0
100
AcDbMText
 10
5598.734167156057
 20
-2635.335630549191
 30
0.0
 40
3.0
 41
0.0
 71
     7
 72
     1
  1
\A1;
 73
     1
 44
1.0
  0
MTEXT
  5
3073B9
330
18
100
AcDbEntity
  8
C-SUNPO
 62
     7
100
AcDbMText
 10
8897.245354628267
 20
-2466.345110988795
 30
0.0
 40
2.0
 41
0.0
 71
     5
 72
     1
  1
\A1;\P\P 
 11
0.9999986675605709
 21
0.0016324451239504
 31
0.0
 73
     1
 44
1.0
  0
HATCH
  5
35417E
330
18
100
AcDbEntity
  8
ﾊｯﾁﾝｸﾞ
100
AcDbHatch
 10
0.0
 20
0.0
 30
0.0
210
0.0
220
0.0
230
1.0
  2
SOLID
 70
     1
 71
     0
 91
        0
 75
     0
 76
     1
 98
        1
 10
12783.76359976519
 20
-4313.157896004636
1001
ACAD
1010
0.0
1020
0.0
1030
0.0
  0
LINE
  5
36F5D3
330
18
100
AcDbEntity
  8
姿図
100
AcDbLine
 10
12548.1965180786
 20
-6354.287129956512
 30
0.0
 11
12548.19689859338
 21
-6353.803060953985
 31
0.0
  0
LINE
  5
36F5D4
330
18
100
AcDbEntity
  8
姿図
100
AcDbLine
 10
12502.1969141483
 20
-6353.766902040366
 30
0.0
 11
12502.19653363352
 21
-6354.250971042894
 31
0.0
  0
LINE
  5
36F5D5
330
18
100
AcDbEntity
  8
姿図
100
AcDbLine
 10
12505.20071702391
 20
-6348.928497940603
 30
0.0
 11
12505.19914713111
 21
-6350.925625206976
 31
0.0
  0
LINE
  5
36F5D6
330
18
100
AcDbEntity
  8
姿図
100
AcDbLine
 10
12545.19913623398
 20
-6350.957068003919
 30
0.0
 11
12545.20070612679
 21
-6348.959940737547
 31
0.0
  0
LINE
  5
36F5D7
330
18
100
AcDbEntity
  8
姿図
100
AcDbLine
 10
12505.52203707648
 20
-6346.571846863469
 30
0.0
 11
12505.47455532311
 21
-6347.076403348316
 31
0.0
  0
LINE
  5
36F5D8
330
18
100
AcDbEntity
  8
姿図
100
AcDbLine
 10
12505.52260784865
 20
-6345.845743359678
 30
0.0
 11
12505.47527735638
 21
-6346.34869157377
 31
0.0
  0
LINE
  5
36F5D9
330
18
100
AcDbEntity
  8
姿図
100
AcDbLine
 10
12505.52317863216
 20
-6345.119625429322
 30
0.0
 11
12505.47599942782
 21
-6345.620964053667
 31
0.0
  0
LINE
  5
36F5DA
330
18
100
AcDbEntity
  8
姿図
100
AcDbLine
 10
12505.52374941567
 20
-6344.393507498966
 30
0.0
 11
12505.47672147243
 21
-6344.893237852556
 31
0.0
  0
LINE
  5
36F5DB
330
18
100
AcDbEntity
  8
姿図
100
AcDbLine
 10
12505.52432019351
 20
-6343.667396781892
 30
0.0
 11
12505.4774435382
 21
-6344.165517545736
 31
0.0
  0
LINE
  5
36F5DC
330
18
100
AcDbEntity
  8
姿図
100
AcDbLine
 10
12545.06314316397
 20
-6347.347820107302
 30
0.0
 11
12545.11062664364
 21
-6346.843243510496
 31
0.0
  0
LINE
  5
36F5DD
330
18
100
AcDbEntity
  8
姿図
100
AcDbLine
 10
12505.52489097136
 20
-6342.941286064819
 30
0.0
 11
12505.47816557714
 21
-6343.437798557907
 31
0.0
  0
LINE
  5
36F5DE
330
18
100
AcDbEntity
  8
姿図
100
AcDbLine
 10
12545.06386391164
 20
-6346.620092914297
 30
0.0
 11
12545.11119742715
 21
-6346.117125580139
 31
0.0
  0
LINE
  5
36F5DF
330
18
100
AcDbEntity
  8
姿図
100
AcDbLine
 10
12505.5254617492
 20
-6342.215175347746
 30
0.0
 11
12505.47888764291
 21
-6342.710078251086
 31
0.0
  0
LINE
  5
36F5E0
330
18
100
AcDbEntity
  8
姿図
100
AcDbLine
 10
12545.06459022602
 20
-6345.89237418239
 30
0.0
 11
12545.11176820499
 21
-6345.391014863067
 31
0.0
  0
LINE
  5
36F5E1
330
18
100
AcDbEntity
  8
姿図
100
AcDbLine
 10
12505.52603253271
 20
-6341.489057417389
 30
0.0
 11
12505.47960968752
 21
-6341.982352049974
 31
0.0
  0
LINE
  5
36F5E2
330
18
100
AcDbEntity
  8
姿図
100
AcDbLine
 10
12545.06531096802
 20
-6345.164654202669
 30
0.0
 11
12545.11233898283
 21
-6344.664904145993
 31
0.0
  0
LINE
  5
36F5E3
330
18
100
AcDbEntity
  8
姿図
100
AcDbLine
 10
12505.52660331055
 20
-6340.762946700316
 30
0.0
 11
12505.48033175329
 21
-6341.254631743155
 31
0.0
  0
LINE
  5
36F5E4
330
18
100
AcDbEntity
  8
姿図
100
AcDbLine
 10
12545.06603171568
 20
-6344.436927009664
 30
0.0
 11
12545.11290976634
 21
-6343.938786215637
 31
0.0
  0
LINE
  5
36F5E5
330
18
100
AcDbEntity
  8
姿図
100
AcDbLine
 10
12505.52717408839
 20
-6340.036835983241
 30
0.0
 11
12505.48105379223
 21
-6340.526912755326
 31
0.0
  0
LINE
  5
36F5E6
330
18
100
AcDbEntity
  8
姿図
100
AcDbLine
 10
12545.06675278862
 20
-6343.709206948168
 30
0.0
 11
12545.11348054419
 21
-6343.212675498563
 31
0.0
  0
LINE
  5
36F5E7
330
18
100
AcDbEntity
  8
姿図
100
AcDbLine
 10
12505.5277448719
 20
-6339.310718052884
 30
0.0
 11
12505.48177586367
 21
-6339.799185235224
 31
0.0
  0
LINE
  5
36F5E8
330
18
100
AcDbEntity
  8
姿図
100
AcDbLine
 10
12545.06747877206
 20
-6342.981488298037
 30
0.0
 11
12545.11405132203
 21
-6342.48656478149
 31
0.0
  0
LINE
  5
36F5E9
330
18
100
AcDbEntity
  8
姿図
100
AcDbLine
 10
12505.52831564974
 20
-6338.58460733581
 30
0.0
 11
12505.48250055017
 21
-6339.0714655932
 31
0.0
  0
LINE
  5
36F5EA
330
18
100
AcDbEntity
  8
姿図
100
AcDbLine
 10
12545.06819951405
 20
-6342.253768318315
 30
0.0
 11
12545.11462209987
 21
-6341.760454064417
 31
0.0
  0
LINE
  5
36F5EB
330
18
100
AcDbEntity
  8
姿図
100
AcDbLine
 10
12505.52888642758
 20
-6337.858496618737
 30
0.0
 11
12505.48321996838
 21
-6338.343745940575
 31
0.0
  0
LINE
  5
36F5EC
330
18
100
AcDbEntity
  8
姿図
100
AcDbLine
 10
12545.06892059266
 20
-6341.526041043535
 30
0.0
 11
12545.11519288338
 21
-6341.034336134057
 31
0.0
  0
LINE
  5
36F5ED
330
18
100
AcDbEntity
  8
姿図
100
AcDbLine
 10
12505.52945720543
 20
-6337.132385901664
 30
0.0
 11
12505.48394465488
 21
-6337.616026298551
 31
0.0
  0
LINE
  5
36F5EE
330
18
100
AcDbEntity
  8
姿図
100
AcDbLine
 10
12545.06964133465
 20
-6340.798321063813
 30
0.0
 11
12545.11576366122
 21
-6340.308225416985
 31
0.0
  0
LINE
  5
36F5EF
330
18
100
AcDbEntity
  8
姿図
100
AcDbLine
 10
12505.53002798894
 20
-6336.406267971307
 30
0.0
 11
12505.48466407876
 21
-6336.888299432644
 31
0.0
  0
LINE
  5
36F5F0
330
18
100
AcDbEntity
  8
姿図
100
AcDbLine
 10
12545.0703673181
 20
-6340.070602413682
 30
0.0
 11
12545.11633443906
 21
-6339.58211469991
 31
0.0
  0
LINE
  5
36F5F1
330
18
100
AcDbEntity
  8
姿図
100
AcDbLine
 10
12505.53059876678
 20
-6335.680157254234
 30
0.0
 11
12505.48538876526
 21
-6336.160579790618
 31
0.0
  0
LINE
  5
36F5F2
330
18
100
AcDbEntity
  8
姿図
100
AcDbLine
 10
12507.1725003526
 20
-6330.543181850791
 30
0.0
 11
12506.10087895022
 21
-6330.53607133799
 31
0.0
  0
LINE
  5
36F5F3
330
18
100
AcDbEntity
  8
姿図
100
AcDbLine
 10
12545.0710883967
 20
-6339.342875138903
 30
0.0
 11
12545.11690522257
 21
-6338.855996769555
 31
0.0
  0
LINE
  5
36F5F4
330
18
100
AcDbEntity
  8
姿図
100
AcDbLine
 10
12505.53116954462
 20
-6334.954046537161
 30
0.0
 11
12505.48610818347
 21
-6335.432860137996
 31
0.0
  0
LINE
  5
36F5F5
330
18
100
AcDbEntity
  8
姿図
100
AcDbLine
 10
12545.07180913869
 20
-6338.615155159182
 30
0.0
 11
12545.11747600041
 21
-6338.12988605248
 31
0.0
  0
LINE
  5
36F5F6
330
18
100
AcDbEntity
  8
姿図
100
AcDbLine
 10
12505.53174032813
 20
-6334.227928606804
 30
0.0
 11
12505.48683287564
 21
-6334.705133282688
 31
0.0
  0
LINE
  5
36F5F7
330
18
100
AcDbEntity
  8
姿図
100
AcDbLine
 10
12545.07253512214
 20
-6337.887436509049
 30
0.0
 11
12545.11804677826
 21
-6337.403775335408
 31
0.0
  0
LINE
  5
36F5F8
330
18
100
AcDbEntity
  8
姿図
100
AcDbLine
 10
12505.53231110597
 20
-6333.50181788973
 30
0.0
 11
12505.48755229385
 21
-6333.977413630064
 31
0.0
  0
LINE
  5
36F5F9
330
18
100
AcDbEntity
  8
姿図
100
AcDbLine
 10
12545.07325619508
 20
-6337.159716447554
 30
0.0
 11
12545.1186175561
 21
-6336.677664618335
 31
0.0
  0
LINE
  5
36F5FA
330
18
100
AcDbEntity
  8
姿図
100
AcDbLine
 10
12505.53288188381
 20
-6332.775707172658
 30
0.0
 11
12505.48827698035
 21
-6333.249693988039
 31
0.0
  0
LINE
  5
36F5FB
330
18
100
AcDbEntity
  8
姿図
100
AcDbLine
 10
12505.53602912208
 20
-6331.090674181375
 30
0.0
 11
12505.49177675865
 21
-6331.560928149857
 31
0.0
  0
LINE
  5
36F5FC
330
18
100
AcDbEntity
  8
姿図
100
AcDbLine
 10
12544.58338317458
 20
-6330.791415770899
 30
0.0
 11
12543.51167913435
 21
-6330.784304679625
 31
0.0
  0
LINE
  5
36F5FD
330
18
100
AcDbEntity
  8
姿図
100
AcDbLine
 10
12545.07397694274
 20
-6336.431989254548
 30
0.0
 11
12545.11918833961
 21
-6335.951546687978
 31
0.0
  0
LINE
  5
36F5FE
330
18
100
AcDbEntity
  8
姿図
100
AcDbLine
 10
12505.53345266732
 20
-6332.049589242298
 30
0.0
 11
12505.48899640423
 21
-6332.521967122133
 31
0.0
  0
LINE
  5
36F5FF
330
18
100
AcDbEntity
  8
姿図
100
AcDbLine
 10
12545.07469768473
 20
-6335.704269274827
 30
0.0
 11
12545.11975911745
 21
-6335.225435970905
 31
0.0
  0
LINE
  5
36F600
330
18
100
AcDbEntity
  8
姿図
100
AcDbLine
 10
12545.07542399912
 20
-6334.976550542919
 30
0.0
 11
12545.12032989529
 21
-6334.499325253831
 31
0.0
  0
LINE
  5
36F601
330
18
100
AcDbEntity
  8
姿図
100
AcDbLine
 10
12545.07614474678
 20
-6334.248823349915
 30
0.0
 11
12545.1209006788
 21
-6333.773207323474
 31
0.0
  0
LINE
  5
36F602
330
18
100
AcDbEntity
  8
姿図
100
AcDbLine
 10
12545.07686548877
 20
-6333.521103370195
 30
0.0
 11
12545.12147145664
 21
-6333.0470966064
 31
0.0
  0
LINE
  5
36F603
330
18
100
AcDbEntity
  8
姿図
100
AcDbLine
 10
12545.07758656171
 20
-6332.793383308697
 30
0.0
 11
12545.12204223448
 21
-6332.320985889327
 31
0.0
  0
LINE
  5
36F604
330
18
100
AcDbEntity
  8
姿図
100
AcDbLine
 10
12545.07831255083
 20
-6332.065657445284
 30
0.0
 11
12545.122613018
 21
-6331.59486795897
 31
0.0
  0
LINE
  5
36F605
330
18
100
AcDbEntity
  8
姿図
100
AcDbLine
 10
12505.34029660909
 20
-6347.783036163732
 30
0.0
 11
12505.29296611681
 21
-6348.285984377822
 31
0.0
  0
LINE
  5
36F606
330
18
100
AcDbEntity
  8
姿図
100
AcDbLine
 10
12505.34071610466
 20
-6347.058527823121
 30
0.0
 11
12505.29353690032
 21
-6347.559866447466
 31
0.0
  0
LINE
  5
36F607
330
18
100
AcDbEntity
  8
姿図
100
AcDbLine
 10
12505.34113562708
 20
-6346.334018163521
 30
0.0
 11
12505.29410768383
 21
-6346.833748517109
 31
0.0
  0
LINE
  5
36F608
330
18
100
AcDbEntity
  8
姿図
100
AcDbLine
 10
12505.34155511699
 20
-6345.609517036193
 30
0.0
 11
12505.29467846168
 21
-6346.107637800035
 31
0.0
  0
LINE
  5
36F609
330
18
100
AcDbEntity
  8
姿図
100
AcDbLine
 10
12505.34197463373
 20
-6344.885014589874
 30
0.0
 11
12505.29524923952
 21
-6345.381527082962
 31
0.0
  0
LINE
  5
36F60A
330
18
100
AcDbEntity
  8
姿図
100
AcDbLine
 10
12505.34239412364
 20
-6344.160513462546
 30
0.0
 11
12505.29582001736
 21
-6344.655416365887
 31
0.0
  0
LINE
  5
36F60B
330
18
100
AcDbEntity
  8
姿図
100
AcDbLine
 10
12505.34281364606
 20
-6343.436003802946
 30
0.0
 11
12505.29639080087
 21
-6343.929298435533
 31
0.0
  0
LINE
  5
36F60C
330
18
100
AcDbEntity
  8
姿図
100
AcDbLine
 10
12505.34323313597
 20
-6342.711502675618
 30
0.0
 11
12505.29696157871
 21
-6343.203187718458
 31
0.0
  0
LINE
  5
36F60D
330
18
100
AcDbEntity
  8
姿図
100
AcDbLine
 10
12505.34365265271
 20
-6341.987000229299
 30
0.0
 11
12505.29753235655
 21
-6342.477077001386
 31
0.0
  0
LINE
  5
36F60E
330
18
100
AcDbEntity
  8
姿図
100
AcDbLine
 10
12505.34407214829
 20
-6341.262491888688
 30
0.0
 11
12505.29810314006
 21
-6341.750959071028
 31
0.0
  0
LINE
  5
36F60F
330
18
100
AcDbEntity
  8
姿図
100
AcDbLine
 10
12505.34449166504
 20
-6340.537989442371
 30
0.0
 11
12505.2986739179
 21
-6341.024848353955
 31
0.0
  0
LINE
  5
36F610
330
18
100
AcDbEntity
  8
姿図
100
AcDbLine
 10
12505.34490853422
 20
-6339.813487650246
 30
0.0
 11
12505.29924469574
 21
-6340.298737636882
 31
0.0
  0
LINE
  5
36F611
330
18
100
AcDbEntity
  8
姿図
100
AcDbLine
 10
12505.34533067169
 20
-6339.088985868726
 30
0.0
 11
12505.29981547358
 21
-6339.572626919808
 31
0.0
  0
LINE
  5
36F612
330
18
100
AcDbEntity
  8
姿図
100
AcDbLine
 10
12505.34574754655
 20
-6338.364476863318
 30
0.0
 11
12505.3003862571
 21
-6338.846508989451
 31
0.0
  0
LINE
  5
36F613
330
18
100
AcDbEntity
  8
姿図
100
AcDbLine
 10
12505.34616703645
 20
-6337.639975735991
 30
0.0
 11
12505.30095703494
 21
-6338.120398272376
 31
0.0
  0
LINE
  5
36F614
330
18
100
AcDbEntity
  8
姿図
100
AcDbLine
 10
12505.3465865532
 20
-6336.915473289673
 30
0.0
 11
12505.30152781278
 21
-6337.394287555304
 31
0.0
  0
LINE
  5
36F615
330
18
100
AcDbEntity
  8
姿図
100
AcDbLine
 10
12505.34700604878
 20
-6336.190964949063
 30
0.0
 11
12505.30209859629
 21
-6336.668169624948
 31
0.0
  0
LINE
  5
36F616
330
18
100
AcDbEntity
  8
姿図
100
AcDbLine
 10
12505.34742556552
 20
-6335.466462502744
 30
0.0
 11
12505.30266937413
 21
-6335.942058907874
 31
0.0
  0
LINE
  5
36F617
330
18
100
AcDbEntity
  8
姿図
100
AcDbLine
 10
12505.34784505543
 20
-6334.741961375417
 30
0.0
 11
12505.30324015197
 21
-6335.2159481908
 31
0.0
  0
LINE
  5
36F618
330
18
100
AcDbEntity
  8
姿図
100
AcDbLine
 10
12505.34826457785
 20
-6334.017451715816
 30
0.0
 11
12505.30381093548
 21
-6334.489830260443
 31
0.0
  0
LINE
  5
36F619
330
18
100
AcDbEntity
  8
姿図
100
AcDbLine
 10
12505.35064237438
 20
-6333.060661895832
 30
0.0
 11
12505.30639001096
 21
-6333.530915864314
 31
0.0
  0
LINE
  5
36F61A
330
18
100
AcDbEntity
  8
姿図
100
AcDbLine
 10
12522.66938085687
 20
-6310.465243762322
 30
0.0
 11
12522.84055695956
 21
-6312.636692238164
 31
0.0
  0
SPLINE
  5
36F61B
330
18
100
AcDbEntity
  8
姿図
100
AcDbSpline
210
0.0
220
0.0
230
1.0
 70
     8
 71
     3
 72
     9
 73
     5
 74
     0
 42
0.000000001
 43
0.0000000001
 40
0.0
 40
0.0
 40
0.0
 40
0.0
 40
0.5000580188662364
 40
1.0
 40
1.0
 40
1.0
 40
1.0
 10
12530.16291654295
 20
-6312.722694339608
 30
0.0
 10
12530.19813568218
 20
-6312.35265559053
 30
0.0
 10
12530.26856578809
 20
-6311.612663959323
 30
0.0
 10
12530.33865689342
 20
-6310.873771154536
 30
0.0
 10
12530.37369837948
 20
-6310.504367621864
 30
0.0
  0
LINE
  5
36F61C
330
18
100
AcDbEntity
  8
姿図
100
AcDbLine
 10
12524.84916072924
 20
-6299.850091166572
 30
0.0
 11
12524.82531525691
 21
-6297.635516882237
 31
0.0
  0
LWPOLYLINE
  5
36F61D
330
18
100
AcDbEntity
  8
姿図
100
AcDbPolyline
 90
        3
 70
   128
 43
0.0
 10
12522.84467592513
 20
-6295.092159615982
 10
12522.73784638504
 20
-6302.734619343372
 10
12522.63092345274
 20
-6310.37687183427
  0
SPLINE
  5
36F61E
330
18
100
AcDbEntity
  8
姿図
100
AcDbSpline
210
0.0
220
0.0
230
1.0
 70
     8
 71
     3
 72
     9
 73
     5
 74
     0
 42
0.000000001
 43
0.0000000001
 40
0.0
 40
0.0
 40
0.0
 40
0.0
 40
0.496870731629234
 40
1.0
 40
1.0
 40
1.0
 40
1.0
 10
12530.37391221341
 20
-6310.508258028569
 30
0.0
 10
12530.33634781995
 20
-6307.977169143281
 30
0.0
 10
12530.26074587548
 20
-6302.883110016498
 30
0.0
 10
12530.18554717289
 20
-6297.788099767393
 30
0.0
 10
12530.14771250467
 20
-6295.224650988417
 30
0.0
  0
LINE
  5
36F61F
330
18
100
AcDbEntity
  8
姿図
100
AcDbLine
 10
12526.64090470037
 20
-6297.683854271539
 30
0.0
 11
12526.61163121919
 21
-6299.981313316976
 31
0.0
  0
LINE
  5
36F620
330
18
100
AcDbEntity
  8
姿図
100
AcDbLine
 10
12516.29988621262
 20
-6310.894685284791
 30
0.0
 11
12516.53426075564
 21
-6313.099760206042
 31
0.0
  0
LINE
  5
36F621
330
18
100
AcDbEntity
  8
姿図
100
AcDbLine
 10
12522.40094482563
 20
-6300.058164779862
 30
0.0
 11
12522.3747585504
 21
-6297.833752054486
 31
0.0
  0
SPLINE
  5
36F622
330
18
100
AcDbEntity
  8
姿図
100
AcDbSpline
210
0.0
220
0.0
230
1.0
 70
     8
 71
     3
 72
     9
 73
     5
 74
     0
 42
0.000000001
 43
0.0000000001
 40
0.0
 40
0.0
 40
0.0
 40
0.0
 40
0.4999970610592264
 40
1.0
 40
1.0
 40
1.0
 40
1.0
 10
12516.60436195393
 20
-6295.600019408777
 30
0.0
 10
12516.55377629951
 20
-6298.148967812378
 30
0.0
 10
12516.45260439599
 20
-6303.246894584591
 30
0.0
 10
12516.3505599435
 20
-6308.343159435837
 30
0.0
 10
12516.29953741736
 20
-6310.891306839081
 30
0.0
  0
SPLINE
  5
36F623
330
18
100
AcDbEntity
  8
姿図
100
AcDbSpline
210
0.0
220
0.0
230
1.0
 70
     8
 71
     3
 72
     9
 73
     5
 74
     0
 42
0.000000001
 43
0.0000000001
 40
0.0
 40
0.0
 40
0.0
 40
0.0
 40
0.5000034343869464
 40
1.0
 40
1.0
 40
1.0
 40
1.0
 10
12536.31720447578
 20
-6311.267261370912
 30
0.0
 10
12536.26495146679
 20
-6308.718326142134
 30
0.0
 10
12536.16044616662
 20
-6303.620490700456
 30
0.0
 10
12536.05691740621
 20
-6298.520581959717
 30
0.0
 10
12536.00515338156
 20
-6295.970645104411
 30
0.0
  0
LINE
  5
36F624
330
18
100
AcDbEntity
  8
姿図
100
AcDbLine
 10
12536.06346153205
 20
-6313.473129845672
 30
0.0
 11
12536.31698569076
 21
-6311.271492673661
 31
0.0
  0
SPLINE
  5
36F625
330
18
100
AcDbEntity
  8
姿図
100
AcDbSpline
210
0.0
220
0.0
230
1.0
 70
     8
 71
     3
 72
    31
 73
    27
 74
     0
 42
0.000000001
 43
0.0000000001
 40
0.0
 40
0.0
 40
0.0
 40
0.0
 40
0.0210710867886974
 40
0.0417160573664794
 40
0.0732377969884839
 40
0.1267277179100265
 40
0.2133135159310727
 40
0.2809561445970075
 40
0.3403831167693709
 40
0.5462764765682059
 40
0.6640881368385001
 40
0.7888097200528473
 40
0.8536385349628307
 40
0.9081539810260997
 40
0.9181796217591379
 40
0.9253907085153246
 40
0.9316988055625126
 40
0.9371681278771123
 40
0.9438354011865687
 40
0.9529842918386663
 40
0.9596948498851183
 40
0.9694586102507138
 40
0.9757478505277823
 40
0.9830069665547879
 40
0.9911509024344315
 40
1.0
 40
1.0
 40
1.0
 40
1.0
 10
12524.82531707276
 20
-6297.635362887412
 30
0.0
 10
12524.81693596342
 20
-6297.611117277996
 30
0.0
 10
12524.80034323416
 20
-6297.563116373089
 30
0.0
 10
12524.76494460817
 20
-6297.479390480682
 30
0.0
 10
12524.71440010022
 20
-6297.359334713249
 30
0.0
 10
12524.62780000559
 20
-6297.167403036418
 30
0.0
 10
12524.51985693205
 20
-6296.944150764927
 30
0.0
 10
12524.41202068165
 20
-6296.727577689778
 30
0.0
 10
12524.26273722761
 20
-6296.417966285603
 30
0.0
 10
12524.09071324023
 20
-6296.061797590336
 30
0.0
 10
12523.89017726606
 20
-6295.643779852905
 30
0.0
 10
12523.73793892952
 20
-6295.342371501488
 30
0.0
 10
12523.62025236846
 20
-6295.100083523269
 30
0.0
 10
12523.53821452806
 20
-6294.967939058206
 30
0.0
 10
12523.50284340454
 20
-6294.88949008059
 30
0.0
 10
12523.4615602324
 20
-6294.863263932078
 30
0.0
 10
12523.41038744248
 20
-6294.84536230418
 30
0.0
 10
12523.34889390182
 20
-6294.830080133034
 30
0.0
 10
12523.27280461746
 20
-6294.821282330242
 30
0.0
 10
12523.18705515759
 20
-6294.818854357631
 30
0.0
 10
12523.09281074272
 20
-6294.836893433711
 30
0.0
 10
12523.01247954091
 20
-6294.868996197698
 30
0.0
 10
12522.9423953616
 20
-6294.914246476242
 30
0.0
 10
12522.89031950514
 20
-6294.964064955871
 30
0.0
 10
12522.85094150408
 20
-6295.026608252459
 30
0.0
 10
12522.84698221324
 20
-6295.072559830337
 30
0.0
 10
12522.84492041827
 20
-6295.096489047992
 30
0.0
  0
SPLINE
  5
36F626
330
18
100
AcDbEntity
  8
姿図
100
AcDbSpline
210
0.0
220
0.0
230
1.0
 70
     8
 71
     3
 72
    34
 73
    30
 74
     0
 42
0.000000001
 43
0.0000000001
 40
0.0
 40
0.0
 40
0.0
 40
0.0
 40
0.0094158716313176
 40
0.017945766457676
 40
0.0253534337356481
 40
0.0315797704619442
 40
0.0408140992991082
 40
0.0470196768498954
 40
0.0518922654639411
 40
0.0557195691824072
 40
0.0607561752386231
 40
0.065883820543485
 40
0.0719170112130058
 40
0.0788835343702981
 40
0.0921194866708262
 40
0.107903473835725
 40
0.1363790227133516
 40
0.1916517997233414
 40
0.2873989017482757
 40
0.4493853173613628
 40
0.5352073377805323
 40
0.6203017090147318
 40
0.708251498572755
 40
0.7772052210541363
 40
0.8560918276339442
 40
0.9337342227693216
 40
0.9703316456148328
 40
0.985115495415626
 40
1.0
 40
1.0
 40
1.0
 40
1.0
 10
12530.14701799926
 20
-6295.229363362409
 30
0.0
 10
12530.14514018919
 20
-6295.202448443971
 30
0.0
 10
12530.14156125968
 20
-6295.151151138803
 30
0.0
 10
12530.09832652494
 20
-6295.083143688273
 30
0.0
 10
12530.04304103653
 20
-6295.031643412537
 30
0.0
 10
12529.97230776274
 20
-6294.988809643768
 30
0.0
 10
12529.89504778198
 20
-6294.960598340583
 30
0.0
 10
12529.82057806624
 20
-6294.951917828448
 30
0.0
 10
12529.76460469566
 20
-6294.950679333813
 30
0.0
 10
12529.71352929097
 20
-6294.952051844052
 30
0.0
 10
12529.66213883984
 20
-6294.957886873021
 30
0.0
 10
12529.60701335489
 20
-6294.967943660022
 30
0.0
 10
12529.55456534895
 20
-6294.982053748669
 30
0.0
 10
12529.50331724328
 20
-6295.007310487154
 30
0.0
 10
12529.47205499652
 20
-6295.042731872721
 30
0.0
 10
12529.40536572607
 20
-6295.097644886093
 30
0.0
 10
12529.3018898257
 20
-6295.191466423684
 30
0.0
 10
12529.11291340535
 20
-6295.358362397839
 30
0.0
 10
12528.7894402451
 20
-6295.648364146246
 30
0.0
 10
12528.4430102991
 20
-6295.958227826311
 30
0.0
 10
12528.10784127488
 20
-6296.258211739941
 30
0.0
 10
12527.84726321588
 20
-6296.491566962751
 30
0.0
 10
12527.60323833794
 20
-6296.709527226262
 30
0.0
 10
12527.34220699245
 20
-6296.945610092445
 30
0.0
 10
12527.09053613256
 20
-6297.185922533884
 30
0.0
 10
12526.8775748211
 20
-6297.40384414667
 30
0.0
 10
12526.74584433735
 20
-6297.553035051032
 30
0.0
 10
12526.67325813849
 20
-6297.62959875492
 30
0.0
 10
12526.65182370573
 20
-6297.664710871107
 30
0.0
 10
12526.64107012942
 20
-6297.682326491023
 30
0.0
  0
LINE
  5
36F627
330
18
100
AcDbEntity
  8
姿図
100
AcDbLine
 10
12511.24364120948
 20
-6311.978596736733
 30
0.0
 11
12511.51545374843
 21
-6314.175642774868
 31
0.0
  0
SPLINE
  5
36F628
330
18
100
AcDbEntity
  8
姿図
100
AcDbSpline
210
0.0
220
0.0
230
1.0
 70
     8
 71
     3
 72
     9
 73
     5
 74
     0
 42
0.000000001
 43
0.0000000001
 40
0.0
 40
0.0
 40
0.0
 40
0.0
 40
0.5000020321807117
 40
1.0
 40
1.0
 40
1.0
 40
1.0
 10
12540.65592975992
 20
-6312.536170143341
 30
0.0
 10
12540.59333210211
 20
-6309.984161778662
 30
0.0
 10
12540.46813729532
 20
-6304.88016579379
 30
0.0
 10
12540.34348265795
 20
-6299.77418956706
 30
0.0
 10
12540.28115559259
 20
-6297.22121182996
 30
0.0
  0
SPLINE
  5
36F629
330
18
100
AcDbEntity
  8
姿図
100
AcDbSpline
210
0.0
220
0.0
230
1.0
 70
     8
 71
     3
 72
     9
 73
     5
 74
     0
 42
0.000000001
 43
0.0000000001
 40
0.0
 40
0.0
 40
0.0
 40
0.0
 40
0.4999971416822437
 40
1.0
 40
1.0
 40
1.0
 40
1.0
 10
12511.62165360027
 20
-6296.666828684023
 30
0.0
 10
12511.55884350998
 20
-6299.218487854126
 30
0.0
 10
12511.43322261126
 20
-6304.321835368309
 30
0.0
 10
12511.30684444265
 20
-6309.422989686607
 30
0.0
 10
12511.24365499711
 20
-6311.973581426478
 30
0.0
  0
SPLINE
  5
36F62A
330
18
100
AcDbEntity
  8
姿図
100
AcDbSpline
210
0.0
220
0.0
230
1.0
 70
     8
 71
     3
 72
    28
 73
    24
 74
     0
 42
0.000000001
 43
0.0000000001
 40
0.0
 40
0.0
 40
0.0
 40
0.0
 40
0.0119363213804681
 40
0.0395660106712609
 40
0.1335370550606758
 40
0.2333820547444853
 40
0.3283571693875302
 40
0.4176927065929775
 40
0.503318794015938
 40
0.633083746430768
 40
0.7717927693677104
 40
0.8951300091392548
 40
0.9220793091417895
 40
0.931549298218676
 40
0.9393604810163616
 40
0.9467440964648002
 40
0.9537163289466066
 40
0.9588243051743498
 40
0.9677361550955264
 40
0.9739727539148813
 40
0.9814859000735427
 40
0.990215195121223
 40
0.9999999999999998
 40
0.9999999999999998
 40
0.9999999999999998
 40
0.9999999999999998
 10
12522.28992878928
 20
-6297.729076060043
 30
0.0
 10
12522.26992198132
 20
-6297.710527184666
 30
0.0
 10
12522.20360426483
 20
-6297.649042161118
 30
0.0
 10
12521.91964538781
 20
-6297.47676418022
 30
0.0
 10
12521.47605251337
 20
-6297.26271996187
 30
0.0
 10
12520.96584524314
 20
-6297.040091870431
 30
0.0
 10
12520.45171734748
 20
-6296.809954600842
 30
0.0
 10
12519.96627961873
 20
-6296.594046446729
 30
0.0
 10
12519.41760458484
 20
-6296.349609077672
 30
0.0
 10
12518.77925288161
 20
-6296.065403123446
 30
0.0
 10
12518.07735619653
 20
-6295.752592553515
 30
0.0
 10
12517.54626866124
 20
-6295.516292838875
 30
0.0
 10
12517.25475096083
 20
-6295.383994777446
 30
0.0
 10
12517.16853492966
 20
-6295.346659094438
 30
0.0
 10
12517.08995099177
 20
-6295.332982412368
 30
0.0
 10
12517.0099422504
 20
-6295.328062797761
 30
0.0
 10
12516.93806028174
 20
-6295.326830904514
 30
0.0
 10
12516.86223745835
 20
-6295.341110948603
 30
0.0
 10
12516.79193283852
 20
-6295.368488164307
 30
0.0
 10
12516.72159949463
 20
-6295.410304788465
 30
0.0
 10
12516.66396488612
 20
-6295.460014524707
 30
0.0
 10
12516.61629431927
 20
-6295.525201791441
 30
0.0
 10
12516.60850954898
 20
-6295.573841539596
 30
0.0
 10
12516.60439525455
 20
-6295.599547917273
 30
0.0
  0
SPLINE
  5
36F62B
330
18
100
AcDbEntity
  8
姿図
100
AcDbSpline
210
0.0
220
0.0
230
1.0
 70
     8
 71
     3
 72
    26
 73
    22
 74
     0
 42
0.000000001
 43
0.0000000001
 40
0.0
 40
0.0
 40
0.0
 40
0.0
 40
0.0121355733748767
 40
0.0227743469741993
 40
0.0316507519000164
 40
0.0387022735731583
 40
0.0478948667327643
 40
0.0529558145057197
 40
0.0622534758320326
 40
0.0714747761771513
 40
0.0805710843704932
 40
0.0976701116593765
 40
0.1177211158366048
 40
0.1514912883856954
 40
0.2186713451625173
 40
0.2861041220361343
 40
0.3559264200793395
 40
0.5864661873347325
 40
0.7315201431557364
 40
0.8865065849569655
 40
1.0
 40
1.0
 40
1.0
 40
1.0
 10
12536.00512520649
 20
-6295.970670439331
 30
0.0
 10
12536.0007373419
 20
-6295.94200055245
 30
0.0
 10
12535.99250281126
 20
-6295.888196918177
 30
0.0
 10
12535.94116583468
 20
-6295.818392044744
 30
0.0
 10
12535.88170316793
 20
-6295.768247273663
 30
0.0
 10
12535.81496360428
 20
-6295.730657263538
 30
0.0
 10
12535.7516699339
 20
-6295.707053651933
 30
0.0
 10
12535.68207934522
 20
-6295.6993720619
 30
0.0
 10
12535.60861727296
 20
-6295.697102159195
 30
0.0
 10
12535.52411312002
 20
-6295.701878148217
 30
0.0
 10
12535.43162086585
 20
-6295.71814492774
 30
0.0
 10
12535.35014948305
 20
-6295.749241300677
 30
0.0
 10
12535.20980060127
 20
-6295.792276593594
 30
0.0
 10
12534.97886415739
 20
-6295.867520310602
 30
0.0
 10
12534.65536041592
 20
-6295.970408505715
 30
0.0
 10
12534.26609218892
 20
-6296.094664589952
 30
0.0
 10
12533.56605640731
 20
-6296.317442098126
 30
0.0
 10
12532.71895801707
 20
-6296.586951311749
 30
0.0
 10
12531.70689656415
 20
-6296.910008614504
 30
0.0
 10
12530.92676893578
 20
-6297.155714383993
 30
0.0
 10
12530.40178938361
 20
-6297.328237962976
 30
0.0
 10
12530.17986687924
 20
-6297.401168164834
 30
0.0
  0
LINE
  5
36F62C
330
18
100
AcDbEntity
  8
姿図
100
AcDbLine
 10
12540.36968781182
 20
-6314.734055496582
 30
0.0
 11
12540.65566677911
 21
-6312.541845463873
 31
0.0
  0
SPLINE
  5
36F62D
330
18
100
AcDbEntity
  8
姿図
100
AcDbSpline
210
0.0
220
0.0
230
1.0
 70
     8
 71
     3
 72
    24
 73
    20
 74
     0
 42
0.000000001
 43
0.0000000001
 40
0.0
 40
0.0
 40
0.0
 40
0.0
 40
0.016850342411611
 40
0.0320274058756099
 40
0.044982594682608
 40
0.0555160932759742
 40
0.063739921326839
 40
0.0700088913665959
 40
0.0799449881228711
 40
0.0988529145497996
 40
0.1171086455813622
 40
0.1445488957988851
 40
0.1845679419399491
 40
0.2525425349690094
 40
0.3893914971622191
 40
0.5281990536438183
 40
0.670077018248469
 40
0.9105332508670841
 40
1.0
 40
1.0
 40
1.0
 40
1.0
 10
12540.28111700615
 20
-6297.221263359947
 30
0.0
 10
12540.27821671102
 20
-6297.196250223032
 30
0.0
 10
12540.27270412696
 20
-6297.148707812993
 30
0.0
 10
12540.23986705663
 20
-6297.086837574524
 30
0.0
 10
12540.20001514233
 20
-6297.040414077004
 30
0.0
 10
12540.15990034775
 20
-6297.008622159578
 30
0.0
 10
12540.12498331281
 20
-6296.988340728326
 30
0.0
 10
12540.08928234952
 20
-6296.973015471302
 30
0.0
 10
12540.04325676372
 20
-6296.962170115225
 30
0.0
 10
12539.96813833098
 20
-6296.950449078902
 30
0.0
 10
12539.85840056598
 20
-6296.946225055522
 30
0.0
 10
12539.72791555469
 20
-6296.962781894815
 30
0.0
 10
12539.53489356656
 20
-6296.990880139046
 30
0.0
 10
12539.1786095003
 20
-6297.040496786405
 30
0.0
 10
12538.68241743283
 20
-6297.110513392023
 30
0.0
 10
12538.07822811744
 20
-6297.19518508428
 30
0.0
 10
12537.32470460528
 20
-6297.300888113871
 30
0.0
 10
12536.64236889556
 20
-6297.396577031566
 30
0.0
 10
12536.16525745501
 20
-6297.463492719384
 30
0.0
 10
12536.03587692707
 20
-6297.481638557616
 30
0.0
  0
SPLINE
  5
36F62E
330
18
100
AcDbEntity
  8
姿図
100
AcDbSpline
210
0.0
220
0.0
230
1.0
 70
     8
 71
     3
 72
     9
 73
     5
 74
     0
 42
0.000000001
 43
0.0000000001
 40
0.0
 40
0.0
 40
0.0
 40
0.0
 40
0.4999995030876172
 40
1.0
 40
1.0
 40
1.0
 40
1.0
 10
12508.65439961488
 20
-6298.131038288591
 30
0.0
 10
12508.58419911482
 20
-6300.686006688669
 30
0.0
 10
12508.44379797517
 20
-6305.795948567213
 30
0.0
 10
12508.30325477575
 20
-6310.904714207723
 30
0.0
 10
12508.2329831062
 20
-6313.459099566586
 30
0.0
  0
SPLINE
  5
36F62F
330
18
100
AcDbEntity
  8
姿図
100
AcDbSpline
210
0.0
220
0.0
230
1.0
 70
     8
 71
     3
 72
    24
 73
    20
 74
     0
 42
0.000000001
 43
0.0000000001
 40
0.0
 40
0.0
 40
0.0
 40
0.0
 40
0.1036421355234187
 40
0.330814714489372
 40
0.5675207098987404
 40
0.6917900109258815
 40
0.814996495197157
 40
0.8707548758082877
 40
0.8880301772394819
 40
0.8989424696758247
 40
0.9099040852715711
 40
0.9198454913949019
 40
0.9290241612375538
 40
0.9360061188419944
 40
0.9448547545296117
 40
0.9556803840112367
 40
0.9685502425476339
 40
0.98340569329934
 40
1.0
 40
1.0
 40
1.0
 40
1.0
 10
12516.57097653348
 20
-6297.279698254262
 30
0.0
 10
12516.39858719733
 20
-6297.245702420774
 30
0.0
 10
12515.84833870302
 20
-6297.137191322534
 30
0.0
 10
12514.90443465929
 20
-6296.951227713151
 30
0.0
 10
12513.92644752711
 20
-6296.757928197376
 30
0.0
 10
12513.11923372401
 20
-6296.599201829143
 30
0.0
 10
12512.61749158069
 20
-6296.498358092264
 30
0.0
 10
12512.28576639882
 20
-6296.435534292725
 30
0.0
 10
12512.15114410638
 20
-6296.406264050915
 30
0.0
 10
12512.07610659084
 20
-6296.396619206188
 30
0.0
 10
12512.00854114029
 20
-6296.394477269842
 30
0.0
 10
12511.94472725874
 20
-6296.394631514503
 30
0.0
 10
12511.89143918371
 20
-6296.407865073142
 30
0.0
 10
12511.84145429914
 20
-6296.425165363982
 30
0.0
 10
12511.79014335209
 20
-6296.448831283451
 30
0.0
 10
12511.73304716141
 20
-6296.484221721752
 30
0.0
 10
12511.67763171992
 20
-6296.533313982433
 30
0.0
 10
12511.63270913264
 20
-6296.596125651585
 30
0.0
 10
12511.62547560377
 20
-6296.642408029937
 30
0.0
 10
12511.62165886856
 20
-6296.666828694625
 30
0.0
  0
SPLINE
  5
36F630
330
18
100
AcDbEntity
  8
姿図
100
AcDbSpline
210
0.0
220
0.0
230
1.0
 70
     8
 71
     3
 72
     9
 73
     5
 74
     0
 42
0.000000001
 43
0.0000000001
 40
0.0
 40
0.0
 40
0.0
 40
0.0
 40
0.4999999116432514
 40
1.0
 40
1.0
 40
1.0
 40
1.0
 10
12542.72955412944
 20
-6314.122845209435
 30
0.0
 10
12542.66211305608
 20
-6311.566664777585
 30
0.0
 10
12542.52723088554
 20
-6306.454303010465
 30
0.0
 10
12542.39237630576
 20
-6301.341425995737
 30
0.0
 10
12542.32494900395
 20
-6298.784987036615
 30
0.0
  0
LINE
  5
36F631
330
18
100
AcDbEntity
  8
姿図
100
AcDbLine
 10
12508.23335553987
 20
-6313.464617880247
 30
0.0
 11
12508.52698731797
 21
-6315.649570300023
 31
0.0
  0
LINE
  5
36F632
330
18
100
AcDbEntity
  8
姿図
100
AcDbLine
 10
12542.42877625648
 20
-6316.308581849495
 30
0.0
 11
12542.72922389529
 21
-6314.128459718588
 31
0.0
  0
SPLINE
  5
36F633
330
18
100
AcDbEntity
  8
姿図
100
AcDbSpline
210
0.0
220
0.0
230
1.0
 70
     8
 71
     3
 72
     9
 73
     5
 74
     0
 42
0.000000001
 43
0.0000000001
 40
0.0
 40
0.0
 40
0.0
 40
0.0
 40
0.5000000529100502
 40
1.0
 40
1.0
 40
1.0
 40
1.0
 10
12508.15456253233
 20
-6299.7699336779
 30
0.0
 10
12508.08312608541
 20
-6302.328443888718
 30
0.0
 10
12507.9402532067
 20
-6307.445463768872
 30
0.0
 10
12507.79731341904
 20
-6312.563045774512
 30
0.0
 10
12507.72584353278
 20
-6315.121836506562
 30
0.0
  0
SPLINE
  5
36F634
330
18
100
AcDbEntity
  8
姿図
100
AcDbSpline
210
0.0
220
0.0
230
1.0
 70
     8
 71
     3
 72
    18
 73
    14
 74
     0
 42
0.000000001
 43
0.0000000001
 40
0.0
 40
0.0
 40
0.0
 40
0.0
 40
0.1522591134369378
 40
0.6048925162982468
 40
0.7028023010511575
 40
0.7951629849024267
 40
0.831464024491521
 40
0.8518907003409623
 40
0.875299916239838
 40
0.9019008631918083
 40
0.9318746412914448
 40
0.9648571638043183
 40
1.0
 40
1.0
 40
1.0
 40
1.0
 10
12511.58790555478
 20
-6298.036396718185
 30
0.0
 10
12511.43025160508
 20
-6298.025306999615
 30
0.0
 10
12510.80392657148
 20
-6297.98124994701
 30
0.0
 10
12510.07523403643
 20
-6297.926762864546
 30
0.0
 10
12509.41112131191
 20
-6297.884550113238
 30
0.0
 10
12509.17439802372
 20
-6297.861055141005
 30
0.0
 10
12509.02482746109
 20
-6297.862501173085
 30
0.0
 10
12508.94026721534
 20
-6297.879733775558
 30
0.0
 10
12508.86764120262
 20
-6297.902777846474
 30
0.0
 10
12508.79148226235
 20
-6297.939277148805
 30
0.0
 10
12508.72143737897
 20
-6297.990578454552
 30
0.0
 10
12508.667286934
 20
-6298.056144066155
 30
0.0
 10
12508.65879028043
 20
-6298.105560446021
 30
0.0
 10
12508.65440723555
 20
-6298.131052153895
 30
0.0
  0
SPLINE
  5
36F635
330
18
100
AcDbEntity
  8
姿図
100
AcDbSpline
210
0.0
220
0.0
230
1.0
 70
     8
 71
     3
 72
    21
 73
    17
 74
     0
 42
0.000000001
 43
0.0000000001
 40
0.0
 40
0.0
 40
0.0
 40
0.0
 40
0.0396837570707186
 40
0.0744595998838801
 40
0.1033354923667221
 40
0.1260066859143017
 40
0.1426638303916858
 40
0.153860739785525
 40
0.1672949952091675
 40
0.1960337036767312
 40
0.2291729239062158
 40
0.2907695114159039
 40
0.3860887982828166
 40
0.5647963901664383
 40
0.9121568599616708
 40
1.0
 40
1.0
 40
1.0
 40
1.0
 10
12542.32490893289
 20
-6298.784852578302
 30
0.0
 10
12542.32177650853
 20
-6298.759478132375
 30
0.0
 10
12542.31589906443
 20
-6298.711867441491
 30
0.0
 10
12542.28179151757
 20
-6298.649456013064
 30
0.0
 10
12542.24185848284
 20
-6298.60343635813
 30
0.0
 10
12542.20322131664
 20
-6298.572456786775
 30
0.0
 10
12542.17211534101
 20
-6298.553594541434
 30
0.0
 10
12542.14436148572
 20
-6298.540170000682
 30
0.0
 10
12542.11486614196
 20
-6298.531845961914
 30
0.0
 10
12542.06795225683
 20
-6298.522005478899
 30
0.0
 10
12541.98044169541
 20
-6298.511865909355
 30
0.0
 10
12541.83902857049
 20
-6298.515033687372
 30
0.0
 10
12541.59651059207
 20
-6298.521373153418
 30
0.0
 10
12541.14240204396
 20
-6298.53439582664
 30
0.0
 10
12540.69524020037
 20
-6298.547699107471
 30
0.0
 10
12540.37789466701
 20
-6298.557051204429
 30
0.0
 10
12540.31384044619
 20
-6298.558938866997
 30
0.0
  0
LINE
  5
36F636
330
18
100
AcDbEntity
  8
姿図
100
AcDbLine
 10
12507.7260958243
 20
-6315.12756298756
 30
0.0
 11
12508.02305162341
 21
-6317.301011451275
 31
0.0
  0
SPLINE
  5
36F637
330
18
100
AcDbEntity
  8
姿図
100
AcDbSpline
210
0.0
220
0.0
230
1.0
 70
     8
 71
     3
 72
    15
 73
    11
 74
     0
 42
0.000000001
 43
0.0000000001
 40
0.0
 40
0.0
 40
0.0
 40
0.0
 40
0.0759856734630463
 40
0.311365886985973
 40
0.4229525822306833
 40
0.5366570119147884
 40
0.6517845370764447
 40
0.7677564859396553
 40
0.8841666552037128
 40
1.0
 40
1.0
 40
1.0
 40
1.0
 10
12508.61623154546
 20
-6299.519903998554
 30
0.0
 10
12508.59951870117
 20
-6299.520830471983
 30
0.0
 10
12508.53103461266
 20
-6299.524626874759
 30
0.0
 10
12508.4382360354
 20
-6299.543135395817
 30
0.0
 10
12508.34350993665
 20
-6299.575170788255
 30
0.0
 10
12508.2810234816
 20
-6299.604887642384
 30
0.0
 10
12508.22774002863
 20
-6299.640216280693
 30
0.0
 10
12508.18740026864
 20
-6299.68041758156
 30
0.0
 10
12508.16060702696
 20
-6299.724009666533
 30
0.0
 10
12508.156593343
 20
-6299.754738210121
 30
0.0
 10
12508.15459148543
 20
-6299.770064321588
 30
0.0
  0
LINE
  5
36F638
330
18
100
AcDbEntity
  8
姿図
100
AcDbLine
 10
12541.92499685736
 20
-6317.960044749703
 30
0.0
 11
12542.13931403279
 21
-6316.395278450201
 31
0.0
  0
LINE
  5
36F639
330
18
100
AcDbEntity
  8
姿図
100
AcDbLine
 10
12541.02179800672
 20
-6354.202656138269
 30
0.0
 11
12541.0343669672
 21
-6353.538177486445
 31
0.0
  0
LINE
  5
36F63A
330
18
100
AcDbEntity
  8
姿図
100
AcDbLine
 10
12540.8128695035
 20
-6355.329196940562
 30
0.0
 11
12541.00190547821
 21
-6354.381468362006
 31
0.0
  0
SPLINE
  5
36F63B
330
18
100
AcDbEntity
  8
姿図
100
AcDbSpline
210
0.0
220
0.0
230
1.0
 70
     8
 71
     3
 72
    17
 73
    13
 74
     0
 42
0.000000001
 43
0.0000000001
 40
0.0
 40
0.0
 40
0.0
 40
0.0
 40
0.0283451759022782
 40
0.1777079598979634
 40
0.3136537861561928
 40
0.4341942441019579
 40
0.5467729995533479
 40
0.6551936977448894
 40
0.7616487736645117
 40
0.8671712449077265
 40
0.9722177798170367
 40
1.0
 40
1.0
 40
1.0
 40
1.0
 10
12538.60109725359
 20
-6357.931271973018
 30
0.0
 10
12538.62386570943
 20
-6357.921040983299
 30
0.0
 10
12538.76661084008
 20
-6357.85689855862
 30
0.0
 10
12539.02185975919
 20
-6357.713562747763
 30
0.0
 10
12539.36188872149
 20
-6357.495895756938
 30
0.0
 10
12539.67714300944
 20
-6357.247941545995
 30
0.0
 10
12539.96789300672
 20
-6356.967890077083
 30
0.0
 10
12540.2330062317
 20
-6356.64744865976
 30
0.0
 10
12540.46640690371
 20
-6356.285401570591
 30
0.0
 10
12540.65150951873
 20
-6355.883573586143
 30
0.0
 10
12540.7649500507
 20
-6355.560248121104
 30
0.0
 10
12540.79409807404
 20
-6355.369611875925
 30
0.0
 10
12540.80019462144
 20
-6355.329738746535
 30
0.0
  0
SPLINE
  5
36F63C
330
18
100
AcDbEntity
  8
姿図
100
AcDbSpline
210
0.0
220
0.0
230
1.0
 70
     8
 71
     3
 72
    23
 73
    19
 74
     0
 42
0.000000001
 43
0.0000000001
 40
0.0
 40
0.0
 40
0.0
 40
0.0
 40
0.0299050849547463
 40
0.0899004345010973
 40
0.1499796615142856
 40
0.2102884553769795
 40
0.2710022184589982
 40
0.3323208156510699
 40
0.3944839998393926
 40
0.4577924502272868
 40
0.5226378636905636
 40
0.5895471965816883
 40
0.6592395398822003
 40
0.7326717531832779
 40
0.8109005926604828
 40
0.8845510660782592
 40
0.9518984234912412
 40
1.0
 40
1.0
 40
1.0
 40
1.0
 10
12520.5715952327
 20
-6361.057268564064
 30
0.0
 10
12520.77254009716
 20
-6361.059155360003
 30
0.0
 10
12521.37661899055
 20
-6361.064827431317
 30
0.0
 10
12522.38460849338
 20
-6361.050566043527
 30
0.0
 10
12523.59162126402
 20
-6361.015750357393
 30
0.0
 10
12524.7942312744
 20
-6360.957586772427
 30
0.0
 10
12525.99160561902
 20
-6360.877047411741
 30
0.0
 10
12527.18367645075
 20
-6360.772934692082
 30
0.0
 10
12528.37117723999
 20
-6360.644075949152
 30
0.0
 10
12529.55607196454
 20
-6360.488488637226
 30
0.0
 10
12530.74209340384
 20
-6360.303231740477
 30
0.0
 10
12531.93546798962
 20
-6360.083578356686
 30
0.0
 10
12533.14575850977
 20
-6359.822456648742
 30
0.0
 10
12534.38563125809
 20
-6359.508465859997
 30
0.0
 10
12535.61364672564
 20
-6359.142630906668
 30
0.0
 10
12536.78066604377
 20
-6358.730535963701
 30
0.0
 10
12537.77159201546
 20
-6358.330690412127
 30
0.0
 10
12538.36604049293
 20
-6358.042461356657
 30
0.0
 10
12538.61371630897
 20
-6357.922371274462
 30
0.0
  0
SPLINE
  5
36F63D
330
18
100
AcDbEntity
  8
姿図
100
AcDbSpline
210
0.0
220
0.0
230
1.0
 70
     8
 71
     3
 72
    14
 73
    10
 74
     0
 42
0.000000001
 43
0.0000000001
 40
0.0
 40
0.0
 40
0.0
 40
0.0
 40
0.1216796621159953
 40
0.2760629686658343
 40
0.4351385027295231
 40
0.593966981885833
 40
0.7509880202018563
 40
0.9055413128827536
 40
0.9999999999999998
 40
0.9999999999999998
 40
0.9999999999999998
 40
0.9999999999999998
 10
12514.2104591753
 20
-6360.124498762381
 30
0.0
 10
12514.41690643588
 20
-6360.196897861647
 30
0.0
 10
12514.88528745073
 20
-6360.361154648066
 30
0.0
 10
12515.66810278088
 20
-6360.560886933964
 30
0.0
 10
12516.55130451706
 20
-6360.739061770271
 30
0.0
 10
12517.47813199879
 20
-6360.87562921314
 30
0.0
 10
12518.43287682982
 20
-6360.972234195645
 30
0.0
 10
12519.28198017008
 20
-6361.029574569099
 30
0.0
 10
12519.82283982387
 20
-6361.042282937185
 30
0.0
 10
12520.02800622934
 20
-6361.047103652098
 30
0.0
  0
SPLINE
  5
36F63E
330
18
100
AcDbEntity
  8
姿図
100
AcDbSpline
210
0.0
220
0.0
230
1.0
 70
     8
 71
     3
 72
     9
 73
     5
 74
     0
 42
0.000000001
 43
0.0000000001
 40
0.0
 40
0.0
 40
0.0
 40
0.0
 40
0.2032568999150345
 40
1.0
 40
1.0
 40
1.0
 40
1.0
 10
12520.34756554509
 20
-6361.056329812591
 30
0.0
 10
12520.36489733603
 20
-6361.056888803111
 30
0.0
 10
12520.45016770543
 20
-6361.059638970618
 30
0.0
 10
12520.53877127353
 20
-6361.058390883999
 30
0.0
 10
12520.60936555506
 20
-6361.057396479597
 30
0.0
  0
SPLINE
  5
36F63F
330
18
100
AcDbEntity
  8
姿図
100
AcDbSpline
210
0.0
220
0.0
230
1.0
 70
     8
 71
     3
 72
    10
 73
     6
 74
     0
 42
0.000000001
 43
0.0000000001
 40
0.0
 40
0.0
 40
0.0
 40
0.0
 40
0.1649185755677314
 40
0.5875033612083918
 40
1.0
 40
1.0
 40
1.0
 40
1.0
 10
12509.90780071494
 20
-6355.368485240576
 30
0.0
 10
12509.95908935491
 20
-6355.489319281798
 30
0.0
 10
12510.14179920593
 20
-6355.919776585484
 30
0.0
 10
12510.49578681788
 20
-6356.651482332776
 30
0.0
 10
12510.83724146054
 20
-6357.258510350266
 30
0.0
 10
12511.00590632156
 20
-6357.558357777763
 30
0.0
  0
SPLINE
  5
36F640
330
18
100
AcDbEntity
  8
姿図
100
AcDbSpline
210
0.0
220
0.0
230
1.0
 70
     8
 71
     3
 72
    12
 73
     8
 74
     0
 42
0.000000001
 43
0.0000000001
 40
0.0
 40
0.0
 40
0.0
 40
0.0
 40
0.02699729290873
 40
0.3081980341221287
 40
0.5939462106510431
 40
0.8914513623633443
 40
1.0
 40
1.0
 40
1.0
 40
1.0
 10
12511.13780265437
 20
-6357.773605393409
 30
0.0
 10
12511.14667626987
 20
-6357.788883532458
 30
0.0
 10
12511.24797645804
 20
-6357.96329703519
 30
0.0
 10
12511.48483561008
 20
-6358.272240474164
 30
0.0
 10
12511.86153164833
 20
-6358.68296797558
 30
0.0
 10
12512.19294435256
 20
-6358.978330410679
 30
0.0
 10
12512.39915429314
 20
-6359.125729177922
 30
0.0
 10
12512.45427952212
 20
-6359.165132665324
 30
0.0
  0
SPLINE
  5
36F641
330
18
100
AcDbEntity
  8
姿図
100
AcDbSpline
210
0.0
220
0.0
230
1.0
 70
     8
 71
     3
 72
     9
 73
     5
 74
     0
 42
0.000000001
 43
0.0000000001
 40
0.0
 40
0.0
 40
0.0
 40
0.0
 40
0.7011928463784433
 40
1.0
 40
1.0
 40
1.0
 40
1.0
 10
12511.0066081021
 20
-6357.557408357673
 30
0.0
 10
12511.03587574163
 20
-6357.609544273977
 30
0.0
 10
12511.07761552787
 20
-6357.68389745167
 30
0.0
 10
12511.12436757719
 20
-6357.752215314699
 30
0.0
 10
12511.13833742398
 20
-6357.772629180892
 30
0.0
  0
SPLINE
  5
36F642
330
18
100
AcDbEntity
  8
姿図
100
AcDbSpline
210
0.0
220
0.0
230
1.0
 70
     8
 71
     3
 72
    13
 73
     9
 74
     0
 42
0.000000001
 43
0.0000000001
 40
0.0
 40
0.0
 40
0.0
 40
0.0
 40
0.059517892620448
 40
0.3288857356970876
 40
0.5852964512115664
 40
0.8070167481980783
 40
0.9943658079291076
 40
1.0
 40
1.0
 40
1.0
 40
1.0
 10
12512.45523987426
 20
-6359.168563814829
 30
0.0
 10
12512.48396682387
 20
-6359.189953648718
 30
0.0
 10
12512.64270705378
 20
-6359.308150227008
 30
0.0
 10
12512.95026091427
 20
-6359.510506972441
 30
0.0
 10
12513.37362787239
 20
-6359.75862958847
 30
0.0
 10
12513.78141141481
 20
-6359.955337191045
 30
0.0
 10
12514.04629654317
 20
-6360.075625606665
 30
0.0
 10
12514.17786783943
 20
-6360.118025723137
 30
0.0
 10
12514.18170909481
 20
-6360.119263604651
 30
0.0
  0
LINE
  5
36F643
330
18
100
AcDbEntity
  8
姿図
100
AcDbLine
 10
12542.9671024799
 20
-6337.505502091151
 30
0.0
 11
12542.35035831211
 21
-6336.520659882694
 31
0.0
  0
LINE
  5
36F644
330
18
100
AcDbEntity
  8
姿図
100
AcDbLine
 10
12508.07062079022
 20
-6336.493713618922
 30
0.0
 11
12507.5169032772
 21
-6337.374821755705
 31
0.0
  0
LINE
  5
36F645
330
18
100
AcDbEntity
  8
姿図
100
AcDbLine
 10
12539.92595889514
 20
-6316.228884691472
 30
0.0
 11
12539.90236083895
 21
-6314.860281143844
 31
0.0
  0
LINE
  5
36F646
330
18
100
AcDbEntity
  8
姿図
100
AcDbLine
 10
12510.55266956129
 20
-6314.837209806068
 30
0.0
 11
12510.5269170225
 21
-6316.205775062511
 31
0.0
  0
LINE
  5
36F647
330
18
100
AcDbEntity
  8
姿図
100
AcDbLine
 10
12508.4946964899
 20
-6323.632687832454
 30
0.0
 11
12508.0821609021
 21
-6336.484732047697
 31
0.0
  0
LINE
  5
36F648
330
18
100
AcDbEntity
  8
姿図
100
AcDbLine
 10
12507.80169648603
 20
-6318.105224511292
 30
0.0
 11
12507.47495331981
 21
-6335.470574444524
 31
0.0
  0
LINE
  5
36F649
330
18
100
AcDbEntity
  8
姿図
100
AcDbLine
 10
12542.97770813932
 20
-6337.522649198648
 30
0.0
 11
12542.64797972597
 21
-6318.400454866289
 31
0.0
  0
LINE
  5
36F64A
330
18
100
AcDbEntity
  8
姿図
100
AcDbLine
 10
12544.09583793874
 20
-6355.155243586426
 30
0.0
 11
12544.09627816057
 21
-6354.595218712818
 31
0.0
  0
LINE
  5
36F64B
330
18
100
AcDbEntity
  8
姿図
100
AcDbLine
 10
12506.29628740648
 20
-6354.56550453222
 30
0.0
 11
12506.29584718465
 21
-6355.125529405829
 31
0.0
  0
LINE
  5
36F64C
330
18
100
AcDbEntity
  8
姿図
100
AcDbLine
 10
12508.12426866583
 20
-6344.649489099616
 30
0.0
 11
12508.05529978931
 21
-6345.108612783466
 31
0.0
  0
SPLINE
  5
36F64D
330
18
100
AcDbEntity
  8
姿図
100
AcDbSpline
210
0.0
220
0.0
230
1.0
 70
     8
 71
     3
 72
     9
 73
     5
 74
     0
 42
0.000000001
 43
0.0000000001
 40
0.0
 40
0.0
 40
0.0
 40
0.0
 40
0.3379605536642429
 40
1.0
 40
1.0
 40
1.0
 40
1.0
 10
12542.57795548813
 20
-6346.713907332997
 30
0.0
 10
12542.54976527357
 20
-6346.483034906042
 30
0.0
 10
12542.46635253723
 20
-6345.799900663148
 30
0.0
 10
12542.35507645635
 20
-6345.12102973431
 30
0.0
 10
12542.28140730138
 20
-6344.671590400448
 30
0.0
  0
SPLINE
  5
36F64E
330
18
100
AcDbEntity
  8
姿図
100
AcDbSpline
210
0.0
220
0.0
230
1.0
 70
     8
 71
     3
 72
     9
 73
     5
 74
     0
 42
0.000000001
 43
0.0000000001
 40
0.0
 40
0.0
 40
0.0
 40
0.0
 40
0.0124129528974832
 40
1.0
 40
1.0
 40
1.0
 40
1.0
 10
12542.41603690284
 20
-6345.542203512054
 30
0.0
 10
12542.41735960776
 20
-6345.541186635263
 30
0.0
 10
12542.52391804949
 20
-6345.459266015954
 30
0.0
 10
12542.60114776838
 20
-6345.371949481894
 30
0.0
 10
12542.6774188384
 20
-6345.285716803862
 30
0.0
  0
LINE
  5
36F64F
330
18
100
AcDbEntity
  8
姿図
100
AcDbLine
 10
12543.12650802068
 20
-6339.995696398863
 30
0.0
 11
12543.10805289091
 21
-6339.201426491222
 31
0.0
  0
LWPOLYLINE
  5
36F650
330
18
100
AcDbEntity
  8
姿図
100
AcDbPolyline
 90
       25
 70
   128
 43
0.0
 10
12525.64551138664
 20
-6350.360222519078
 10
12524.4091031094
 20
-6350.362045743297
 10
12523.17599429195
 20
-6350.383903157739
 10
12521.95135717498
 20
-6350.425703108239
 10
12520.74032947363
 20
-6350.487270606469
 10
12519.54798869796
 20
-6350.568347113371
 10
12518.37933828009
 20
-6350.668592654714
 10
12517.23927858523
 20
-6350.787586422271
 10
12516.13259039122
 20
-6350.924829543554
 10
12515.06391707118
 20
-6351.079746859655
 10
12514.03773954906
 20
-6351.251687864131
 10
12513.05836631759
 20
-6351.439931794225
 10
12512.1298978572
 20
-6351.643688548554
 10
12511.25623441775
 20
-6351.862104638466
 10
12510.44103914048
 20
-6352.094263113841
 10
12509.68772871106
 20
-6352.339189809754
 10
12508.99946798399
 20
-6352.595858611818
 10
12508.37913704904
 20
-6352.86319171971
 10
12507.82934290384
 20
-6353.140068574177
 10
12507.35239043799
 20
-6353.425327777248
 10
12506.95027835443
 20
-6353.717773349472
 10
12506.62469384744
 20
-6354.01617735731
 10
12506.37700582276
 20
-6354.319289462566
 10
12506.20824909273
 20
-6354.62583689058
 10
12506.16019975131
 20
-6354.758196050056
  0
LWPOLYLINE
  5
36F651
330
18
100
AcDbEntity
  8
姿図
100
AcDbPolyline
 90
       13
 70
   128
 43
0.0
 10
12506.16074766054
 20
-6355.492612264492
 10
12506.18097887503
 20
-6355.553201083503
 10
12506.33168731682
 20
-6355.860573326983
 10
12506.56151387266
 20
-6356.164917290197
 10
12506.86950194273
 20
-6356.464956191615
 10
12507.25435738117
 20
-6356.759431037176
 10
12507.71446416684
 20
-6357.047107247027
 10
12508.24789221176
 20
-6357.326779287904
 10
12508.85241049164
 20
-6357.597272678101
 10
12509.52547632142
 20
-6357.857453199226
 10
12510.26426691134
 20
-6358.106229597768
 10
12511.06568979616
 20
-6358.342558882268
 10
12511.67699089426
 20
-6358.503788996046
  0
LWPOLYLINE
  5
36F652
330
18
100
AcDbEntity
  8
姿図
100
AcDbPolyline
 90
       17
 70
   128
 43
0.0
 10
12535.51566318249
 20
-6359.167633301179
 10
12535.84644210341
 20
-6359.113446375569
 10
12536.84974559243
 20
-6358.933259505018
 10
12537.80416641133
 20
-6358.737155964252
 10
12538.70570350624
 20
-6358.525959030826
 10
12539.55057977458
 20
-6358.300554757772
 10
12540.33524349621
 20
-6358.061886370526
 10
12541.05640777848
 20
-6357.810957643921
 10
12541.7110455831
 20
-6357.548818382674
 10
12542.29641593343
 20
-6357.276571069355
 10
12542.81005502367
 20
-6356.995354688186
 10
12543.24982217551
 20
-6356.706351742502
 10
12543.61385999953
 20
-6356.410771851414
 10
12543.9006437149
 20
-6356.10985531153
 10
12544.10897800099
 20
-6355.804866000767
 10
12544.23798336596
 20
-6355.497081622948
 10
12544.24789090511
 20
-6355.460853382808
  0
LWPOLYLINE
  5
36F653
330
18
100
AcDbEntity
  8
姿図
100
AcDbPolyline
 90
       24
 70
   128
 43
0.0
 10
12544.21274072843
 20
-6354.72958024451
 10
12544.14529080682
 20
-6354.56989435822
 10
12543.95492514718
 20
-6354.263876123188
 10
12543.68587453519
 20
-6353.961525869849
 10
12543.33927319869
 20
-6353.664113235065
 10
12542.91656932502
 20
-6353.372884085072
 10
12542.41953954205
 20
-6353.089060874387
 10
12541.85026899887
 20
-6352.813834444141
 10
12541.21114292229
 20
-6352.548358234262
 10
12540.50484369193
 20
-6352.293746381467
 10
12539.73433254886
 20
-6352.051066427716
 10
12538.90284142927
 20
-6351.821336088598
 10
12538.01385986087
 20
-6351.605519929368
 10
12537.07111567866
 20
-6351.404522318707
 10
12536.07855957779
 20
-6351.219185996169
 10
12535.04036022994
 20
-6351.050289341808
 10
12533.96086753948
 20
-6350.898539707044
 10
12532.84461294756
 20
-6350.764574651861
 10
12531.69627434303
 20
-6350.648954866787
 10
12530.52067272613
 20
-6350.552166309638
 10
12529.32273643069
 20
-6350.474614610009
 10
12528.10749058753
 20
-6350.416625048091
 10
12526.88003213364
 20
-6350.378440855582
 10
12525.64551138664
 20
-6350.360222519078
  0
LWPOLYLINE
  5
36F654
330
18
100
AcDbEntity
  8
姿図
100
AcDbPolyline
 90
       45
 70
   128
 43
0.0
 10
12525.73824421096
 20
-6348.512583815743
 10
12524.37513684429
 20
-6348.513655244451
 10
12523.01491527392
 20
-6348.534943130962
 10
12521.66235398044
 20
-6348.576371426412
 10
12520.32221005649
 20
-6348.637796198583
 10
12518.99918478132
 20
-6348.719000690611
 10
12517.69792879519
 20
-6348.819699948062
 10
12516.42301247533
 20
-6348.939540264675
 10
12515.17891338683
 20
-6349.078100970801
 10
12513.97000178817
 20
-6349.234894734006
 10
12512.80052211173
 20
-6349.409371478934
 10
12511.67458573662
 20
-6349.600917548368
 10
12510.59614453996
 20
-6349.808860926192
 10
12509.56898827611
 20
-6350.032470572598
 10
12508.59672339624
 20
-6350.270961657639
 10
12507.68276776656
 20
-6350.523496210134
 10
12506.83032819097
 20
-6350.789187359333
 10
12506.04240037072
 20
-6351.0671013134
 10
12505.32175300571
 20
-6351.356261944093
 10
12504.67091586701
 20
-6351.655654390121
 10
12504.09217713589
 20
-6351.964226370845
 10
12503.5875674782
 20
-6352.280894089935
 10
12503.15885866694
 20
-6352.604545200449
 10
12502.80755823345
 20
-6352.934042751202
 10
12502.53490278143
 20
-6353.268230119734
 10
12502.34184346562
 20
-6353.605932631901
 10
12502.22906562038
 20
-6353.945963866824
 10
12502.19695969025
 20
-6354.287130215059
 10
12502.24564224934
 20
-6354.628233558987
 10
12502.37493749536
 20
-6354.968074533177
 10
12502.58439551406
 20
-6355.305461134939
 10
12502.8732791489
 20
-6355.639206719327
 10
12503.24057697039
 20
-6355.968139918081
 10
12503.68499273962
 20
-6356.291104618414
 10
12504.20497161543
 20
-6356.606966610979
 10
12504.79868164838
 20
-6356.914616850235
 10
12505.46404006851
 20
-6357.212974145439
 10
12506.19870788283
 20
-6357.500991744995
 10
12507.00010835464
 20
-6357.777655395064
 10
12507.86542673514
 20
-6358.041996529482
 10
12508.79161569273
 20
-6358.293084366407
 10
12509.77543194953
 20
-6358.530037853441
 10
12510.81341523503
 20
-6358.752024306236
 10
12511.90191716778
 20
-6358.958264083266
 10
12512.23234148971
 20
-6359.016027731406
  0
LWPOLYLINE
  5
36F655
330
18
100
AcDbEntity
  8
姿図
100
AcDbPolyline
 90
       47
 70
   128
 43
0.0
 10
12534.06719297681
 20
-6359.588529331254
 10
12535.21413963566
 20
-6359.460000361004
 10
12536.42305386846
 20
-6359.303206603098
 10
12537.5925296004
 20
-6359.128729520472
 10
12538.71846729928
 20
-6358.93718312394
 10
12539.79690979289
 20
-6358.729240738008
 10
12540.82406344943
 20
-6358.505629767312
 10
12541.79632962625
 20
-6358.267139674165
 10
12542.71028789007
 20
-6358.014605126969
 10
12543.56272614189
 20
-6357.74891430487
 10
12544.35065396213
 20
-6357.471000350801
 10
12545.07130001678
 20
-6357.18183938771
 10
12545.72213715548
 20
-6356.882446941683
 10
12546.30087457624
 20
-6356.573874628562
 10
12546.8054888269
 20
-6356.257207743115
 10
12547.23419566591
 20
-6355.933556463752
 10
12547.58549347867
 20
-6355.604058248204
 10
12547.85814893069
 20
-6355.26987087967
 10
12548.05121020534
 20
-6354.93216919585
 10
12548.16398741552
 20
-6354.592136805486
 10
12548.19609629733
 20
-6354.250971040271
 10
12548.14741373823
 20
-6353.909867696343
 10
12548.01811849222
 20
-6353.570026722152
 10
12547.80865652901
 20
-6353.232639782692
 10
12547.51977518396
 20
-6352.898894944873
 10
12547.15247769341
 20
-6352.569961664347
 10
12546.70806159323
 20
-6352.246997045789
 10
12546.18808428941
 20
-6351.931134664797
 10
12545.59437400825
 20
-6351.623484486871
 10
12544.92901608454
 20
-6351.325127069003
 10
12544.19434599497
 20
-6351.037110031647
 10
12543.39294497084
 20
-6350.760445205692
 10
12542.52762929381
 20
-6350.496104715624
 10
12541.60143635034
 20
-6350.245016551223
 10
12540.61762316932
 20
-6350.008063616545
 10
12539.57964060776
 20
-6349.786076984869
 10
12538.49113824064
 20
-6349.579837315168
 10
12537.35593716083
 20
-6349.390068449481
 10
12536.17802562084
 20
-6349.217437177432
 10
12534.96154097127
 20
-6349.062549824985
 10
12533.71075593038
 20
-6348.925950397685
 10
12532.43006716437
 20
-6348.808119465329
 10
12531.12396673662
 20
-6348.709469405438
 10
12529.79704828827
 20
-6348.6303481255
 10
12528.45396913617
 20
-6348.571032680029
 10
12527.09944922629
 20
-6348.531732153863
 10
12525.73824421096
 20
-6348.512583815743
  0
LWPOLYLINE
  5
36F656
330
18
100
AcDbEntity
  8
姿図
100
AcDbPolyline
 90
       28
 70
   128
 43
0.0
 10
12525.73862472575
 20
-6348.028514813216
 10
12524.37551735907
 20
-6348.029586241923
 10
12523.0152957887
 20
-6348.050874128436
 10
12521.66273449523
 20
-6348.092302423886
 10
12520.32259057128
 20
-6348.153727196056
 10
12518.9995652961
 20
-6348.234931688085
 10
12517.69830930997
 20
-6348.335630945536
 10
12516.42339299011
 20
-6348.455471262148
 10
12515.17929390161
 20
-6348.594031968275
 10
12513.97038230295
 20
-6348.750825731478
 10
12512.80090262651
 20
-6348.925302476406
 10
12511.6749662514
 20
-6349.11684854584
 10
12510.59652505474
 20
-6349.324791923667
 10
12509.5693687909
 20
-6349.54840157007
 10
12508.59710391102
 20
-6349.786892655114
 10
12507.68314828134
 20
-6350.039427207607
 10
12506.83070870575
 20
-6350.305118356805
 10
12506.0427808855
 20
-6350.583032310874
 10
12505.32213352049
 20
-6350.872192941566
 10
12504.67129638179
 20
-6351.171585387594
 10
12504.09255765067
 20
-6351.480157368317
 10
12503.58794799298
 20
-6351.796825087408
 10
12503.15923918172
 20
-6352.120476197923
 10
12502.80793874823
 20
-6352.449973748676
 10
12502.53528329621
 20
-6352.784161117208
 10
12502.3422239804
 20
-6353.121863629374
 10
12502.22944613516
 20
-6353.461894864295
 10
12502.1969141483
 20
-6353.766902040366
  0
LWPOLYLINE
  5
36F657
330
18
100
AcDbEntity
  8
姿図
100
AcDbPolyline
 90
       28
 70
   128
 43
0.0
 10
12548.19689859338
 20
-6353.803060953985
 10
12548.19647681211
 20
-6353.766902037744
 10
12548.14779425301
 20
-6353.425798693816
 10
12548.018499007
 20
-6353.085957719625
 10
12547.80903704379
 20
-6352.748570780165
 10
12547.52015569874
 20
-6352.414825942346
 10
12547.15285820819
 20
-6352.085892661818
 10
12546.70844210802
 20
-6351.76292804326
 10
12546.18846480419
 20
-6351.447065662269
 10
12545.59475452303
 20
-6351.139415484343
 10
12544.92939659932
 20
-6350.841058066476
 10
12544.19472650975
 20
-6350.553041029119
 10
12543.39332548562
 20
-6350.276376203164
 10
12542.52800980859
 20
-6350.012035713097
 10
12541.60181686512
 20
-6349.760947548696
 10
12540.6180036841
 20
-6349.523994614018
 10
12539.58002112254
 20
-6349.302007982343
 10
12538.49151875543
 20
-6349.095768312642
 10
12537.35631767561
 20
-6348.905999446954
 10
12536.17840613563
 20
-6348.733368174904
 10
12534.96192148605
 20
-6348.578480822459
 10
12533.71113644516
 20
-6348.441881395157
 10
12532.43044767916
 20
-6348.3240504628
 10
12531.1243472514
 20
-6348.22540040291
 10
12529.79742880305
 20
-6348.146279122975
 10
12528.45434965095
 20
-6348.086963677502
 10
12527.09982974107
 20
-6348.047663151337
 10
12525.73862472575
 20
-6348.028514813216
  0
ARC
  5
36F658
330
18
100
AcDbEntity
  8
姿図
100
AcDbCircle
 10
12524.91090800707
 20
-6412.896057943124
 30
0.0
 40
72.5398238396931
100
AcDbArc
 50
91.57544295864734
 51
95.39588163402107
  0
ELLIPSE
  5
36F659
330
18
100
AcDbEntity
  8
姿図
100
AcDbEllipse
 10
12648.63788367272
 20
-11876.53796223319
 30
0.0
 11
-134.7865575145738
 21
5908.523129889036
 31
0.0
210
0.0
220
0.0
230
1.0
 40
0.0002762879166027
 41
5.92258005313515
 42
5.926259847438696
  0
ELLIPSE
  5
36F65A
330
18
100
AcDbEntity
  8
姿図
100
AcDbEllipse
 10
12520.2747598584
 20
-6441.274789978033
 30
0.0
 11
19.24614394945757
 21
258.2957914927691
 31
0.0
210
0.0
220
0.0
230
1.0
 40
0.0404171981089585
 41
1.173759395067436
 42
1.205849566643899
  0
LWPOLYLINE
  5
36F65B
330
18
100
AcDbEntity
  8
姿図
100
AcDbPolyline
 90
       12
 70
   128
 43
0.0
 10
12507.18411811529
 20
-6353.540336744933
 10
12506.96422934385
 20
-6353.71526263459
 10
12506.65345609793
 20
-6354.016441375948
 10
12506.42209030403
 20
-6354.322122845829
 10
12506.27111222227
 20
-6354.630996567036
 10
12506.20117569368
 20
-6354.941740853237
 10
12506.21257647687
 20
-6355.253025383341
 10
12506.30526532477
 20
-6355.563515844466
 10
12506.47885041753
 20
-6355.871883829681
 10
12506.73258415158
 20
-6356.176808789975
 10
12507.06537881027
 20
-6356.476984661017
 10
12507.40723781759
 20
-6356.726020937622
  0
LINE
  5
36F65C
330
18
100
AcDbEntity
  8
姿図
100
AcDbLine
 10
12539.58353444385
 20
-6358.185321428726
 30
0.0
 11
12539.86232248787
 21
-6358.102712640427
 31
0.0
  0
LWPOLYLINE
  5
36F65D
330
18
100
AcDbEntity
  8
姿図
100
AcDbPolyline
 90
       17
 70
   128
 43
0.0
 10
12542.98192999843
 20
-6356.753984944716
 10
12543.03872863178
 20
-6356.715679575423
 10
12543.42756797287
 20
-6356.420291713876
 10
12543.73834251573
 20
-6356.11911396441
 10
12543.96971159225
 20
-6355.813432995777
 10
12544.12068705329
 20
-6355.504558609774
 10
12544.19062162304
 20
-6355.19381349523
 10
12544.17922213679
 20
-6354.882529957019
 10
12544.08653066817
 20
-6354.572038831097
 10
12543.91294951991
 20
-6354.263671183581
 10
12543.65921611681
 20
-6353.958746141514
 10
12543.32642079623
 20
-6353.658570434019
 10
12542.91598953637
 20
-6353.36442953643
 10
12542.42967551269
 20
-6353.077581882491
 10
12541.86956571684
 20
-6352.799257228852
 10
12541.23805449892
 20
-6352.530646131941
 10
12541.01012734021
 20
-6352.442708228999
  0
LWPOLYLINE
  5
36F65E
330
18
100
AcDbEntity
  8
姿図
100
AcDbPolyline
 90
        3
 70
   128
 43
0.0
 10
12544.14076084933
 20
-6354.719607490083
 10
12544.1212578368
 20
-6354.778440679416
 10
12544.09608088335
 20
-6354.843930553469
  0
LINE
  5
36F65F
330
18
100
AcDbEntity
  8
姿図
100
AcDbLine
 10
12506.2960920881
 20
-6354.814217201217
 30
0.0
 11
12506.2516067305
 21
-6354.689823551873
 31
0.0
  0
SPLINE
  5
36F660
330
18
100
AcDbEntity
  8
姿図
100
AcDbSpline
210
0.0
220
0.0
230
1.0
 70
     8
 71
     3
 72
    12
 73
     8
 74
     0
 42
0.000000001
 43
0.0000000001
 40
0.0
 40
0.0
 40
0.0
 40
0.0
 40
0.2219305131035181
 40
0.4438144365210042
 40
0.667051948251483
 40
0.8925024959745231
 40
1.0
 40
1.0
 40
1.0
 40
1.0
 10
12541.12068315579
 20
-6342.59385267953
 30
0.0
 10
12541.11742231049
 20
-6342.566127718288
 30
0.0
 10
12541.11090130445
 20
-6342.510683616084
 30
0.0
 10
12541.08097100523
 20
-6342.431951570414
 30
0.0
 10
12541.0397448529
 20
-6342.367918249942
 30
0.0
 10
12540.99857913729
 20
-6342.331566925778
 30
0.0
 10
12540.97320311934
 20
-6342.321271882527
 30
0.0
 10
12540.96501007368
 20
-6342.317947966236
 30
0.0
  0
ELLIPSE
  5
36F661
330
18
100
AcDbEntity
  8
姿図
100
AcDbEllipse
 10
12528.54670457295
 20
-6491.53899037384
 30
0.0
 11
-10.62677558944144
 21
338.2887802063485
 31
0.0
210
0.0
220
0.0
230
1.0
 40
0.056696924358835
 41
5.155970682227677
 42
5.166528719675619
  0
SPLINE
  5
36F662
330
18
100
AcDbEntity
  8
姿図
100
AcDbSpline
210
0.0
220
0.0
230
1.0
 70
     8
 71
     3
 72
    12
 73
     8
 74
     0
 42
0.000000001
 43
0.0000000001
 40
0.0
 40
0.0
 40
0.0
 40
0.0
 40
0.226207372002617
 40
0.4524265962983355
 40
0.6784406182527726
 40
0.9031662867490295
 40
1.0
 40
1.0
 40
1.0
 40
1.0
 10
12541.45988358325
 20
-6346.085571593539
 30
0.0
 10
12541.44338795877
 20
-6346.077033076638
 30
0.0
 10
12541.41039584552
 20
-6346.059955595455
 30
0.0
 10
12541.36551643787
 20
-6346.002337274497
 30
0.0
 10
12541.331031037
 20
-6345.928753710093
 30
0.0
 10
12541.3139995572
 20
-6345.860500285281
 30
0.0
 10
12541.31064838421
 20
-6345.820870427775
 30
0.0
 10
12541.30963921905
 20
-6345.808936376165
 30
0.0
  0
ARC
  5
36F663
330
18
100
AcDbEntity
  8
姿図
100
AcDbCircle
 10
12535.48075347639
 20
-6362.892626449245
 30
0.0
 40
17.83892064440889
100
AcDbArc
 50
69.9925731026144
 51
70.41692272834639
  0
ELLIPSE
  5
36F664
330
18
100
AcDbEntity
  8
姿図
100
AcDbEllipse
 10
12538.34350642249
 20
-7359.223788093771
 30
0.0
 11
-18.83562067774447
 21
1352.162916794926
 31
0.0
210
0.0
220
0.0
230
1.0
 40
0.0193676182213769
 41
5.554954493921754
 42
5.559031761608205
  0
ELLIPSE
  5
36F665
330
18
100
AcDbEntity
  8
姿図
100
AcDbEllipse
 10
12393.07466266702
 20
-11874.84221432806
 30
0.0
 11
144.0803522328405
 21
5906.672754321515
 31
0.0
210
0.0
220
0.0
230
1.0
 40
0.0001647774669351
 41
5.922577960150547
 42
5.926270910268549
  0
ARC
  5
36F666
330
18
100
AcDbEntity
  8
姿図
100
AcDbCircle
 10
12527.25648259804
 20
-6390.526123784307
 30
0.0
 40
50.11937690411182
100
AcDbArc
 50
74.12631273495211
 51
88.67544906222032
  0
LINE
  5
36F667
330
18
100
AcDbEntity
  8
姿図
100
AcDbLine
 10
12528.41129965698
 20
-6340.459748567319
 30
0.0
 11
12528.22834096087
 21
-6348.078979019025
 31
0.0
  0
LINE
  5
36F668
330
18
100
AcDbEntity
  8
姿図
100
AcDbLine
 10
12528.41129965698
 20
-6340.459748567319
 30
0.0
 11
12528.41502787492
 21
-6340.420138971134
 31
0.0
  0
LINE
  5
36F669
330
18
100
AcDbEntity
  8
姿図
100
AcDbLine
 10
12522.91748810477
 20
-6340.423295337856
 30
0.0
 11
12528.41129965698
 21
-6340.459748567319
 31
0.0
  0
ELLIPSE
  5
36F66A
330
18
100
AcDbEntity
  8
姿図
100
AcDbEllipse
 10
12525.66039141244
 20
-6346.459681805726
 30
0.0
 11
0.5479029729133397
 21
-0.0479922688014061
 31
0.0
210
0.0
220
0.0
230
1.0
 40
0.9626392589527561
 41
0.0
 42
6.283185307179585
  0
SPLINE
  5
36F66B
330
18
100
AcDbEntity
  8
姿図
100
AcDbSpline
210
0.0
220
0.0
230
1.0
 70
     8
 71
     3
 72
    16
 73
    12
 74
     0
 42
0.000000001
 43
0.0000000001
 40
0.0
 40
0.0
 40
0.0
 40
0.0
 40
0.0663798193350913
 40
0.1990407545489846
 40
0.3317243236294894
 40
0.4642984287974972
 40
0.596732616518506
 40
0.7291510689948254
 40
0.8616972398291562
 40
0.9943680282645122
 40
1.0
 40
1.0
 40
1.0
 40
1.0
 10
12525.13063704952
 20
-6346.528447706965
 30
0.0
 10
12525.14050114292
 20
-6346.499828871605
 30
0.0
 10
12525.1700787557
 20
-6346.414014920299
 30
0.0
 10
12525.27982726738
 20
-6346.300944153998
 30
0.0
 10
12525.44043223016
 20
-6346.208628708621
 30
0.0
 10
12525.62610954429
 20
-6346.175667718255
 30
0.0
 10
12525.81139554277
 20
-6346.204417588119
 30
0.0
 10
12525.9789133988
 20
-6346.291563163589
 30
0.0
 10
12526.1008038497
 20
-6346.428072399812
 30
0.0
 10
12526.16594428485
 20
-6346.541586534478
 30
0.0
 10
12526.17009591823
 20
-6346.604045301734
 30
0.0
 10
12526.17026498125
 20
-6346.606588750699
 30
0.0
  0
ELLIPSE
  5
36F66C
330
18
100
AcDbEntity
  8
姿図
100
AcDbEllipse
 10
12515.80245611654
 20
-6347.051815885168
 30
0.0
 11
0.2462445612659549
 21
0.491897539852325
 31
0.0
210
0.0
220
0.0
230
1.0
 40
0.843998306644297
 41
0.0
 42
6.283185307179585
  0
LINE
  5
36F66D
330
18
100
AcDbEntity
  8
姿図
100
AcDbLine
 10
12514.04658576721
 20
-6348.740255763722
 30
0.0
 11
12513.56638324956
 21
-6341.343099137978
 31
0.0
  0
LINE
  5
36F66E
330
18
100
AcDbEntity
  8
姿図
100
AcDbLine
 10
12518.08485816927
 20
-6340.728342477671
 30
0.0
 11
12513.56638324956
 21
-6341.343099137978
 31
0.0
  0
ELLIPSE
  5
36F66F
330
18
100
AcDbEntity
  8
姿図
100
AcDbEllipse
 10
12516.13581043284
 20
-6347.204820474299
 30
0.0
 11
0.2112963935874564
 21
0.5078976086908844
 31
0.0
210
0.0
220
0.0
230
1.0
 40
0.8544652141848642
 41
0.3610677829304023
 42
2.695996107117468
  0
ELLIPSE
  5
36F670
330
18
100
AcDbEntity
  8
姿図
100
AcDbEllipse
 10
12509.29427190373
 20
-7359.031036654376
 30
0.0
 11
22.64106703401231
 21
1351.887787699822
 31
0.0
210
0.0
220
0.0
230
1.0
 40
0.018862660419651
 41
0.7239459329854886
 42
0.728084295867445
  0
ARC
  5
36F671
330
18
100
AcDbEntity
  8
姿図
100
AcDbCircle
 10
12515.88231092993
 20
-6365.760076106028
 30
0.0
 40
20.8857763686531
100
AcDbArc
 50
107.7945237623058
 51
108.1768941685015
  0
SPLINE
  5
36F672
330
18
100
AcDbEntity
  8
姿図
100
AcDbSpline
210
0.0
220
0.0
230
1.0
 70
     8
 71
     3
 72
    12
 73
     8
 74
     0
 42
0.000000001
 43
0.0000000001
 40
0.0
 40
0.0
 40
0.0
 40
0.0
 40
0.2226394038804358
 40
0.4451985532235502
 40
0.6690037279491441
 40
0.8944658333055157
 40
1.0
 40
1.0
 40
1.0
 40
1.0
 10
12509.65947850836
 20
-6345.598926819131
 30
0.0
 10
12509.65605682063
 20
-6345.626649186088
 30
0.0
 10
12509.64921467859
 20
-6345.682083926956
 30
0.0
 10
12509.61795143744
 20
-6345.760609698267
 30
0.0
 10
12509.57526500836
 20
-6345.824305651146
 30
0.0
 10
12509.53322744488
 20
-6345.860222616352
 30
0.0
 10
12509.50767495398
 20
-6345.870293430692
 30
0.0
 10
12509.49952785064
 20
-6345.873504388304
 30
0.0
  0
ELLIPSE
  5
36F673
330
18
100
AcDbEntity
  8
姿図
100
AcDbEllipse
 10
12521.33891223293
 20
-6491.491164248019
 30
0.0
 11
12.07946113191033
 21
338.1384674279459
 31
0.0
210
0.0
220
0.0
230
1.0
 40
0.0552499924824153
 41
1.116105632954517
 42
1.126663670402452
  0
SPLINE
  5
36F674
330
18
100
AcDbEntity
  8
姿図
100
AcDbSpline
210
0.0
220
0.0
230
1.0
 70
     8
 71
     3
 72
    12
 73
     8
 74
     0
 42
0.000000001
 43
0.0000000001
 40
0.0
 40
0.0
 40
0.0
 40
0.0
 40
0.2274526911068796
 40
0.4549355153073086
 40
0.6814604423770172
 40
0.9058317947932156
 40
1.0
 40
1.0
 40
1.0
 40
1.0
 10
12510.0252693863
 20
-6342.112652124068
 30
0.0
 10
12510.00679715779
 20
-6342.120866612148
 30
0.0
 10
12509.96985025356
 20
-6342.137296676572
 30
0.0
 10
12509.92037268719
 20
-6342.194381130401
 30
0.0
 10
12509.88283934033
 20
-6342.26771992451
 30
0.0
 10
12509.86464285911
 20
-6342.335544034375
 30
0.0
 10
12509.86108949569
 20
-6342.374817160479
 30
0.0
 10
12509.86003903321
 20
-6342.386427272032
 30
0.0
  0
ELLIPSE
  5
36F675
330
18
100
AcDbEntity
  8
姿図
100
AcDbEllipse
 10
12529.98254610516
 20
-6439.954005969084
 30
0.0
 11
-19.21105314495022
 21
253.0723109300045
 31
0.0
210
0.0
220
0.0
230
1.0
 40
0.0384938766002295
 41
1.167453412192752
 42
1.199220104126952
  0
ARC
  5
36F676
330
18
100
AcDbEntity
  8
姿図
100
AcDbCircle
 10
12519.28852027782
 20
-6373.940126928927
 30
0.0
 40
33.1480914915641
100
AcDbArc
 50
100.0879689147333
 51
106.2274118485101
  0
LINE
  5
36F677
330
18
100
AcDbEntity
  8
姿図
100
AcDbLine
 10
12513.56638324956
 20
-6341.343099137978
 30
0.0
 11
12513.48230076339
 21
-6341.304505524036
 31
0.0
  0
LINE
  5
36F678
330
18
100
AcDbEntity
  8
姿図
100
AcDbLine
 10
12507.44236099986
 20
-6346.823568144452
 30
0.0
 11
12507.43192141723
 21
-6350.114409946238
 31
0.0
  0
LINE
  5
36F679
330
18
100
AcDbEntity
  8
姿図
100
AcDbLine
 10
12509.36241101267
 20
-6346.035879580703
 30
0.0
 11
12507.44236099986
 21
-6346.823568144452
 31
0.0
  0
ELLIPSE
  5
36F67A
330
18
100
AcDbEntity
  8
姿図
100
AcDbEllipse
 10
12508.46226627178
 20
-6348.799557045276
 30
0.0
 11
0.09583920064503032
 21
0.541696931943633
 31
0.0
210
0.0
220
0.0
230
1.0
 40
0.4980829209777962
 41
0.0
 42
6.283185307179585
  0
LINE
  5
36F67B
330
18
100
AcDbEntity
  8
姿図
100
AcDbLine
 10
12543.33578196668
 20
-6347.061733068501
 30
0.0
 11
12541.58884013468
 21
-6346.259913151958
 31
0.0
  0
LINE
  5
36F67C
330
18
100
AcDbEntity
  8
姿図
100
AcDbLine
 10
12543.34658232732
 20
-6350.261256110353
 30
0.0
 11
12543.33578196668
 21
-6347.061733068501
 31
0.0
  0
ELLIPSE
  5
36F67D
330
18
100
AcDbEntity
  8
姿図
100
AcDbEllipse
 10
12542.39693520136
 20
-6349.024724984239
 30
0.0
 11
-0.08642872171833521
 21
0.5432784152351421
 31
0.0
210
0.0
220
0.0
230
1.0
 40
0.4589319342913197
 41
0.0
 42
6.283185307179585
  0
LINE
  5
36F67E
330
18
100
AcDbEntity
  8
姿図
100
AcDbLine
 10
12506.48630543466
 20
-6342.718681030119
 30
0.0
 11
12506.30352939765
 21
-6350.503873117671
 31
0.0
  0
SPLINE
  5
36F67F
330
18
100
AcDbEntity
  8
姿図
100
AcDbSpline
210
0.0
220
0.0
230
1.0
 70
     8
 71
     3
 72
    12
 73
     8
 74
     0
 42
0.000000001
 43
0.0000000001
 40
0.0
 40
0.0
 40
0.0
 40
0.0
 40
0.1518298223429717
 40
0.4066211148773932
 40
0.6501722054741212
 40
0.8801741549564452
 40
1.0
 40
1.0
 40
1.0
 40
1.0
 10
12506.77867544447
 20
-6343.46397957313
 30
0.0
 10
12506.75245356547
 20
-6343.46727504357
 30
0.0
 10
12506.68222777251
 20
-6343.476100765975
 30
0.0
 10
12506.58711288789
 20
-6343.387482033252
 30
0.0
 10
12506.51408866257
 20
-6343.179302979851
 30
0.0
 10
12506.48521356816
 20
-6342.9368103214
 30
0.0
 10
12506.48602685952
 20
-6342.774333801552
 30
0.0
 10
12506.48630543466
 20
-6342.718681030119
 30
0.0
  0
ELLIPSE
  5
36F680
330
18
100
AcDbEntity
  8
姿図
100
AcDbEllipse
 10
12525.38506487437
 20
-6500.05036114331
 30
0.0
 11
-0.07994198940568792
 21
594.0480953492453
 31
0.0
210
0.0
220
0.0
230
1.0
 40
0.0324329301151302
 41
1.30404785807033
 42
1.309931140898024
  0
SPLINE
  5
36F681
330
18
100
AcDbEntity
  8
姿図
100
AcDbSpline
210
0.0
220
0.0
230
1.0
 70
     8
 71
     3
 72
    12
 73
     8
 74
     0
 42
0.000000001
 43
0.0000000001
 40
0.0
 40
0.0
 40
0.0
 40
0.0
 40
0.2394540913028957
 40
0.4792600767055847
 40
0.708537727480581
 40
0.9221874404689682
 40
1.0
 40
1.0
 40
1.0
 40
1.0
 10
12506.84555150226
 20
-6347.00905898192
 30
0.0
 10
12506.83344975585
 20
-6347.013445274718
 30
0.0
 10
12506.80922847869
 20
-6347.022224306271
 30
0.0
 10
12506.77860834002
 20
-6346.995351554982
 30
0.0
 10
12506.75768395556
 20
-6346.942206519429
 30
0.0
 10
12506.74991179005
 20
-6346.884038837569
 30
0.0
 10
12506.74964351542
 20
-6346.847721734145
 30
0.0
 10
12506.74957189333
 20
-6346.838026047812
 30
0.0
  0
ELLIPSE
  5
36F682
330
18
100
AcDbEntity
  8
姿図
100
AcDbEllipse
 10
12539.52889458386
 20
-7346.627455500442
 30
0.0
 11
-20.67684010649999
 21
1334.123648667194
 31
0.0
210
0.0
220
0.0
230
1.0
 40
0.019020402836232
 41
0.7232968342957521
 42
0.7271265518983097
  0
ARC
  5
36F683
330
18
100
AcDbEntity
  8
姿図
100
AcDbCircle
 10
12510.99957048749
 20
-6353.972566497263
 30
0.0
 40
8.108409871606057
100
AcDbArc
 50
117.6724247586631
 51
120.8178166292386
  0
LINE
  5
36F684
330
18
100
AcDbEntity
  8
姿図
100
AcDbLine
 10
12507.44236099986
 20
-6346.823568144452
 30
0.0
 11
12507.23389625645
 21
-6346.791618911352
 31
0.0
  0
ELLIPSE
  5
36F685
330
18
100
AcDbEntity
  8
姿図
100
AcDbEllipse
 10
12510.4796600651
 20
-7346.434704062011
 30
0.0
 11
21.08649657893647
 21
1333.846631669865
 31
0.0
210
0.0
220
0.0
230
1.0
 40
0.0195532239661299
 41
5.555916598421436
 42
5.559646787913342
  0
LINE
  5
36F686
330
18
100
AcDbEntity
  8
姿図
100
AcDbLine
 10
12543.33578196668
 20
-6347.061733068501
 30
0.0
 11
12543.54999751186
 21
-6347.032588299008
 31
0.0
  0
SPLINE
  5
36F687
330
18
100
AcDbEntity
  8
姿図
100
AcDbSpline
210
0.0
220
0.0
230
1.0
 70
     8
 71
     3
 72
    12
 73
     8
 74
     0
 42
0.000000001
 43
0.0000000001
 40
0.0
 40
0.0
 40
0.0
 40
0.0
 40
0.2020233191115247
 40
0.4038578974359499
 40
0.6107130492709164
 40
0.8300113171863017
 40
1.0
 40
1.0
 40
1.0
 40
1.0
 10
12543.98153419987
 20
-6347.085072925686
 30
0.0
 10
12543.98087668083
 20
-6347.109947440261
 30
0.0
 10
12543.97956225705
 20
-6347.159673230333
 30
0.0
 10
12543.96642986547
 20
-6347.217109957934
 30
0.0
 10
12543.94629172209
 20
-6347.254458109103
 30
0.0
 10
12543.92200329358
 20
-6347.267398796688
 30
0.0
 10
12543.9045710456
 20
-6347.258704468868
 30
0.0
 10
12543.89695896185
 20
-6347.254907944655
 30
0.0
  0
ELLIPSE
  5
36F688
330
18
100
AcDbEntity
  8
姿図
100
AcDbEllipse
 10
12525.38506487437
 20
-6500.05036114331
 30
0.0
 11
-0.07994198940568792
 21
594.0480953492453
 31
0.0
210
0.0
220
0.0
230
1.0
 40
0.0324329301151302
 41
4.972815030001449
 42
4.978698312829141
  0
SPLINE
  5
36F689
330
18
100
AcDbEntity
  8
姿図
100
AcDbSpline
210
0.0
220
0.0
230
1.0
 70
     8
 71
     3
 72
    12
 73
     8
 74
     0
 42
0.000000001
 43
0.0000000001
 40
0.0
 40
0.0
 40
0.0
 40
0.0
 40
0.2209042905633401
 40
0.4417112297482996
 40
0.6656024127839939
 40
0.8989512860478486
 40
1.0
 40
1.0
 40
1.0
 40
1.0
 10
12544.20498625754
 20
-6342.968957264305
 30
0.0
 10
12544.20428669151
 20
-6343.070864760196
 30
0.0
 10
12544.20288786775
 20
-6343.274634841876
 30
0.0
 10
12544.16167113713
 20
-6343.514664034106
 30
0.0
 10
12544.09354562757
 20
-6343.673599078854
 30
0.0
 10
12544.01802254449
 20
-6343.724949911616
 30
0.0
 10
12543.96699134976
 20
-6343.71395642361
 30
0.0
 10
12543.95157067451
 20
-6343.710634396577
 30
0.0
  0
LINE
  5
36F68A
330
18
100
AcDbEntity
  8
姿図
100
AcDbLine
 10
12544.20498625754
 20
-6342.968957264305
 30
0.0
 11
12544.37264927792
 21
-6350.625465980712
 31
0.0
  0
ARC
  5
36F68B
330
18
100
AcDbEntity
  8
姿図
100
AcDbCircle
 10
12540.25332462893
 20
-6352.559416737104
 30
0.0
 40
6.435362047407584
100
AcDbArc
 50
55.51506779408353
 51
59.18453739648489
  0
ARC
  5
36F68C
330
18
100
AcDbEntity
  8
姿図
100
AcDbCircle
 10
12506.65667413485
 20
-6348.95784591039
 30
0.0
 40
1.456252866855724
100
AcDbArc
 50
146.8449836504926
 51
178.8452358181943
  0
SPLINE
  5
36F68D
330
18
100
AcDbEntity
  8
姿図
100
AcDbSpline
210
0.0
220
0.0
230
1.0
 70
     8
 71
     3
 72
    12
 73
     8
 74
     0
 42
0.000000001
 43
0.0000000001
 40
0.0
 40
0.0
 40
0.0
 40
0.0
 40
0.21328280586518
 40
0.4265324528421875
 40
0.6408449085032815
 40
0.8571946530791816
 40
1.0
 40
1.0
 40
1.0
 40
1.0
 10
12505.477983479
 20
-6347.859115162132
 30
0.0
 10
12505.47746547659
 20
-6347.886842417724
 30
0.0
 10
12505.47642955229
 20
-6347.94229261818
 30
0.0
 10
12505.46919285445
 20
-6348.024752914845
 30
0.0
 10
12505.45883683838
 20
-6348.094752299739
 30
0.0
 10
12505.44760375292
 20
-6348.141102197395
 30
0.0
 10
12505.44038022111
 20
-6348.155634196977
 30
0.0
 10
12505.43750803861
 20
-6348.161412333752
 30
0.0
  0
ELLIPSE
  5
36F68E
330
18
100
AcDbEntity
  8
姿図
100
AcDbEllipse
 10
12524.94766707212
 20
-6670.854255194146
 30
0.0
 11
2.24582028398097
 21
2264.023389653123
 31
0.0
210
0.0
220
0.0
230
1.0
 40
0.0088314273096831
 41
1.427314863702676
 42
1.427652433106584
  0
SPLINE
  5
36F68F
330
18
100
AcDbEntity
  8
姿図
100
AcDbSpline
210
0.0
220
0.0
230
1.0
 70
     8
 71
     3
 72
     9
 73
     5
 74
     0
 42
0.000000001
 43
0.0000000001
 40
0.0
 40
0.0
 40
0.0
 40
0.0
 40
0.1935475670756753
 40
1.0
 40
1.0
 40
1.0
 40
1.0
 10
12505.4796986178
 20
-6347.102680396379
 30
0.0
 10
12505.48283977543
 20
-6347.102049772794
 30
0.0
 10
12505.49906915862
 20
-6347.098791537132
 30
0.0
 10
12505.5168596204
 20
-6347.075144518018
 30
0.0
 10
12505.53120678158
 20
-6347.05607432192
 30
0.0
  0
ARC
  5
36F690
330
18
100
AcDbEntity
  8
姿図
100
AcDbCircle
 10
12507.85403058401
 20
-6348.793694574297
 30
0.0
 40
2.900833424826793
100
AcDbArc
 50
131.683858454809
 51
143.2011698011696
  0
LINE
  5
36F691
330
18
100
AcDbEntity
  8
姿図
100
AcDbLine
 10
12505.92491838906
 20
-6346.627278017419
 30
0.0
 11
12505.93746834012
 21
-6330.661952618362
 31
0.0
  0
SPLINE
  5
36F692
330
18
100
AcDbEntity
  8
姿図
100
AcDbSpline
210
0.0
220
0.0
230
1.0
 70
     8
 71
     3
 72
     9
 73
     5
 74
     0
 42
0.000000001
 43
0.0000000001
 40
0.0
 40
0.0
 40
0.0
 40
0.0
 40
0.5681482875133695
 40
1.0
 40
1.0
 40
1.0
 40
1.0
 10
12506.04292520936
 20
-6330.560837604692
 30
0.0
 10
12506.02246963901
 20
-6330.578760731718
 30
0.0
 10
12505.98646571046
 20
-6330.610307296969
 30
0.0
 10
12505.95224612619
 20
-6330.646376200572
 30
0.0
 10
12505.93746834012
 20
-6330.661952618362
 30
0.0
  0
ARC
  5
36F693
330
18
100
AcDbEntity
  8
姿図
100
AcDbCircle
 10
12506.13469094185
 20
-6330.668373709105
 30
0.0
 40
0.1413681838743892
100
AcDbArc
 50
129.6934305677555
 51
130.4757217454283
  0
SPLINE
  5
36F694
330
18
100
AcDbEntity
  8
姿図
100
AcDbSpline
210
0.0
220
0.0
230
1.0
 70
     8
 71
     3
 72
    12
 73
     8
 74
     0
 42
0.000000001
 43
0.0000000001
 40
0.0
 40
0.0
 40
0.0
 40
0.0
 40
0.2033890811058808
 40
0.4066157419442313
 40
0.6142072329073811
 40
0.8306911675346418
 40
1.0
 40
1.0
 40
1.0
 40
1.0
 10
12506.28129165819
 20
-6331.099460542324
 30
0.0
 10
12506.27871607039
 20
-6331.022440266313
 30
0.0
 10
12506.27356695158
 20
-6330.86846122032
 30
0.0
 10
12506.23334419977
 20
-6330.687029857612
 30
0.0
 10
12506.17509017832
 20
-6330.567035221243
 30
0.0
 10
12506.10834148199
 20
-6330.522375959468
 30
0.0
 10
12506.06390384699
 20
-6330.548242819993
 30
0.0
 10
12506.04440196738
 20
-6330.559594738247
 30
0.0
  0
LINE
  5
36F695
330
18
100
AcDbEntity
  8
姿図
100
AcDbLine
 10
12506.28129165819
 20
-6331.099460542324
 30
0.0
 11
12506.26604084488
 21
-6350.500667442346
 31
0.0
  0
LINE
  5
36F696
330
18
100
AcDbEntity
  8
姿図
100
AcDbLine
 10
12506.48630543466
 20
-6342.718681030119
 30
0.0
 11
12507.63479839524
 21
-6342.726301366923
 31
0.0
  0
LINE
  5
36F697
330
18
100
AcDbEntity
  8
姿図
100
AcDbLine
 10
12507.37881742942
 20
-6331.106742550162
 30
0.0
 11
12506.28129165819
 21
-6331.099460542324
 31
0.0
  0
LINE
  5
36F698
330
18
100
AcDbEntity
  8
姿図
100
AcDbLine
 10
12507.37881742942
 20
-6331.106742550162
 30
0.0
 11
12507.63479839524
 21
-6342.726301366923
 31
0.0
  0
LINE
  5
36F699
330
18
100
AcDbEntity
  8
姿図
100
AcDbLine
 10
12506.77867544447
 20
-6343.46397957313
 30
0.0
 11
12507.99102323562
 21
-6343.472024186315
 31
0.0
  0
LINE
  5
36F69A
330
18
100
AcDbEntity
  8
姿図
100
AcDbLine
 10
12507.98916590898
 20
-6343.481591251208
 30
0.0
 11
12507.99139682693
 21
-6343.481605632813
 31
0.0
  0
LINE
  5
36F69B
330
18
100
AcDbEntity
  8
姿図
100
AcDbLine
 10
12507.99408459249
 20
-6343.550506679302
 30
0.0
 11
12507.98916590898
 21
-6343.481591251208
 31
0.0
  0
ELLIPSE
  5
36F69C
330
18
100
AcDbEntity
  8
姿図
100
AcDbEllipse
 10
12525.28320636725
 20
-5700.848823652746
 30
0.0
 11
-0.1125970547033271
 21
836.7075473817777
 31
0.0
210
0.0
220
0.0
230
1.0
 40
0.0324329301151302
 41
2.446710275623297
 42
2.452326036682175
  0
LINE
  5
36F69D
330
18
100
AcDbEntity
  8
姿図
100
AcDbLine
 10
12507.99102213278
 20
-6343.472025970888
 30
0.0
 11
12507.99139609352
 21
-6343.481606843783
 31
0.0
  0
LINE
  5
36F69E
330
18
100
AcDbEntity
  8
姿図
100
AcDbLine
 10
12544.42826265366
 20
-6331.352577671902
 30
0.0
 11
12543.33073754432
 21
-6331.345295500514
 31
0.0
  0
LINE
  5
36F69F
330
18
100
AcDbEntity
  8
姿図
100
AcDbLine
 10
12544.42826265366
 20
-6331.352577671902
 30
0.0
 11
12544.41310537572
 21
-6350.634794253844
 31
0.0
  0
LINE
  5
36F6A0
330
18
100
AcDbEntity
  8
姿図
100
AcDbLine
 10
12543.05649001433
 20
-6342.961336426254
 30
0.0
 11
12544.20498625754
 21
-6342.968957264305
 31
0.0
  0
LINE
  5
36F6A1
330
18
100
AcDbEntity
  8
姿図
100
AcDbLine
 10
12543.05649001433
 20
-6342.961336426254
 30
0.0
 11
12543.33073754432
 21
-6331.345295500514
 31
0.0
  0
ARC
  5
36F6A2
330
18
100
AcDbEntity
  8
姿図
100
AcDbCircle
 10
12543.05394909498
 20
-6348.406474104319
 30
0.0
 40
2.247409165008625
100
AcDbArc
 50
28.96536631205612
 51
42.62224996278386
  0
SPLINE
  5
36F6A3
330
18
100
AcDbEntity
  8
姿図
100
AcDbSpline
210
0.0
220
0.0
230
1.0
 70
     8
 71
     3
 72
    11
 73
     7
 74
     0
 42
0.000000001
 43
0.0000000001
 40
0.0
 40
0.0
 40
0.0
 40
0.0
 40
0.6876002212126409
 40
0.8363688084819804
 40
0.9373379257853471
 40
1.0
 40
1.0
 40
1.0
 40
1.0
 10
12545.02023569332
 20
-6347.318096886552
 30
0.0
 10
12545.02926418328
 20
-6347.333690367197
 30
0.0
 10
12545.04024606949
 20
-6347.352657639788
 30
0.0
 10
12545.05161573355
 20
-6347.363177103488
 30
0.0
 10
12545.05533587502
 20
-6347.365367897464
 30
0.0
 10
12545.05723189368
 20
-6347.365315565459
 30
0.0
 10
12545.05795796834
 20
-6347.365295525073
 30
0.0
  0
ELLIPSE
  5
36F6A4
330
18
100
AcDbEntity
  8
姿図
100
AcDbEllipse
 10
12524.94766707212
 20
-6670.854255194146
 30
0.0
 11
2.24582028398097
 21
2264.023389653123
 31
0.0
210
0.0
220
0.0
230
1.0
 40
0.0088314273096831
 41
4.85532587602003
 42
4.855770765996
  0
ARC
  5
36F6A5
330
18
100
AcDbEntity
  8
姿図
100
AcDbCircle
 10
12543.83830258214
 20
-6348.968848077486
 30
0.0
 40
1.362432662249571
100
AcDbArc
 50
0.3745921799050758
 51
26.43889106026403
  0
SPLINE
  5
36F6A6
330
18
100
AcDbEntity
  8
姿図
100
AcDbSpline
210
0.0
220
0.0
230
1.0
 70
     8
 71
     3
 72
    12
 73
     8
 74
     0
 42
0.000000001
 43
0.0000000001
 40
0.0
 40
0.0
 40
0.0
 40
0.0
 40
0.2254819432619517
 40
0.4510415068630132
 40
0.6736116069292529
 40
0.8875151081258135
 40
1.0
 40
1.0
 40
1.0
 40
1.0
 10
12544.63096416384
 20
-6330.815629170345
 30
0.0
 10
12544.60894121737
 20
-6330.802233695145
 30
0.0
 10
12544.56488774321
 20
-6330.775438133454
 30
0.0
 10
12544.50227335524
 20
-6330.850660194874
 30
0.0
 10
12544.45441572517
 20
-6331.002676211067
 30
0.0
 10
12544.43115441651
 20
-6331.18531434029
 30
0.0
 10
12544.42900382348
 20
-6331.309707443942
 30
0.0
 10
12544.42826265366
 20
-6331.352577671902
 30
0.0
  0
ARC
  5
36F6A7
330
18
100
AcDbEntity
  8
姿図
100
AcDbCircle
 10
12544.76449227765
 20
-6330.685298977773
 30
0.0
 40
0.1865897003387792
100
AcDbArc
 50
224.3056181499694
 51
224.8493139068405
  0
LINE
  5
36F6A8
330
18
100
AcDbEntity
  8
姿図
100
AcDbLine
 10
12544.72021951918
 20
-6330.919289134966
 30
0.0
 11
12544.63220689694
 21
-6330.816890369293
 31
0.0
  0
LINE
  5
36F6A9
330
18
100
AcDbEntity
  8
姿図
100
AcDbLine
 10
12544.70766956812
 20
-6346.884614534022
 30
0.0
 11
12544.72021951918
 21
-6330.919289134966
 31
0.0
  0
LINE
  5
36F6AA
330
18
100
AcDbEntity
  8
姿図
100
AcDbLine
 10
12542.74108428697
 20
-6343.712181560666
 30
0.0
 11
12542.73618247361
 21
-6343.781032711442
 31
0.0
  0
LINE
  5
36F6AB
330
18
100
AcDbEntity
  8
姿図
100
AcDbLine
 10
12542.73885436186
 20
-6343.712166933737
 30
0.0
 11
12542.74108428697
 21
-6343.712181560666
 31
0.0
  0
LINE
  5
36F6AC
330
18
100
AcDbEntity
  8
姿図
100
AcDbLine
 10
12542.73922616597
 20
-6343.70259028464
 30
0.0
 11
12543.95157067451
 21
-6343.710634396577
 31
0.0
  0
LINE
  5
36F6AD
330
18
100
AcDbEntity
  8
姿図
100
AcDbLine
 10
12542.73885355859
 20
-6343.712167907844
 30
0.0
 11
12542.73922507779
 21
-6343.702591981462
 31
0.0
  0
ELLIPSE
  5
36F6AE
330
18
100
AcDbEntity
  8
姿図
100
AcDbEllipse
 10
12525.28320636725
 20
-5700.848823652746
 30
0.0
 11
-0.1125970547033271
 21
836.7075473817777
 31
0.0
210
0.0
220
0.0
230
1.0
 40
0.0324329301151302
 41
3.830503349627868
 42
3.836035895276481
  0
SPLINE
  5
36F6AF
330
18
100
AcDbEntity
  8
姿図
100
AcDbSpline
210
0.0
220
0.0
230
1.0
 70
     8
 71
     3
 72
    12
 73
     8
 74
     0
 42
0.000000001
 43
0.0000000001
 40
0.0
 40
0.0
 40
0.0
 40
0.0
 40
0.2397143781806294
 40
0.4792099538224395
 40
0.7245240516128091
 40
0.9829078547740778
 40
1.0
 40
1.0
 40
1.0
 40
1.0
 10
12507.63479839524
 20
-6342.726301366923
 30
0.0
 10
12507.64083757081
 20
-6342.828608186088
 30
0.0
 10
12507.65291040961
 20
-6343.033128442487
 30
0.0
 10
12507.7174448389
 20
-6343.274205634699
 30
0.0
 10
12507.81231109936
 20
-6343.432142121812
 30
0.0
 10
12507.89494591615
 20
-6343.482664319806
 30
0.0
 10
12507.94239802141
 20
-6343.477092160551
 30
0.0
 10
12507.94534222863
 20
-6343.476746431075
 30
0.0
  0
LINE
  5
36F6B0
330
18
100
AcDbEntity
  8
姿図
100
AcDbLine
 10
12507.98916590898
 20
-6343.481591251208
 30
0.0
 11
12507.99095689351
 21
-6343.481865258979
 31
0.0
  0
ELLIPSE
  5
36F6B1
330
18
100
AcDbEntity
  8
姿図
100
AcDbEllipse
 10
12522.01114422688
 20
-6296.360728923557
 30
0.0
 11
-10.23163641843082
 21
282.9116218127264
 31
0.0
210
0.0
220
0.0
230
1.0
 40
0.0562749160872506
 41
1.736098440921582
 42
1.736344515208964
  0
ARC
  5
36F6B2
330
18
100
AcDbEntity
  8
姿図
100
AcDbCircle
 10
12507.98537388608
 20
-6343.471902375828
 30
0.0
 40
0.0114205522008436
100
AcDbArc
 50
299.2654287294192
 51
301.8284253183464
  0
SPLINE
  5
36F6B3
330
18
100
AcDbEntity
  8
姿図
100
AcDbSpline
210
0.0
220
0.0
230
1.0
 70
     8
 71
     3
 72
    12
 73
     8
 74
     0
 42
0.000000001
 43
0.0000000001
 40
0.0
 40
0.0
 40
0.0
 40
0.0
 40
0.0819116675450708
 40
0.3642642533532448
 40
0.6343771346052425
 40
0.8876983338604238
 40
1.0
 40
1.0
 40
1.0
 40
1.0
 10
12542.77918870838
 20
-6343.703308685966
 30
0.0
 10
12542.79166547785
 20
-6343.704457796659
 30
0.0
 10
12542.84715013894
 20
-6343.709567934951
 30
0.0
 10
12542.93173887483
 20
-6343.622440719984
 30
0.0
 10
12543.01190812576
 20
-6343.410251155926
 30
0.0
 10
12543.04843889272
 20
-6343.167088945762
 30
0.0
 10
12543.0545981793
 20
-6343.009683705433
 30
0.0
 10
12543.05649001433
 20
-6342.961336426254
 30
0.0
  0
LINE
  5
36F6B4
330
18
100
AcDbEntity
  8
姿図
100
AcDbLine
 10
12542.74108428697
 20
-6343.712181560666
 30
0.0
 11
12542.73924213076
 21
-6343.712432017555
 31
0.0
  0
ELLIPSE
  5
36F6B5
330
18
100
AcDbEntity
  8
姿図
100
AcDbEllipse
 10
12528.22160944631
 20
-6296.401937448568
 30
0.0
 11
9.868579495440683
 21
282.7786923495172
 31
0.0
210
0.0
220
0.0
230
1.0
 40
0.0579050922366841
 41
4.546067812140493
 42
4.546313886427754
  0
ARC
  5
36F6B6
330
18
100
AcDbEntity
  8
姿図
100
AcDbCircle
 10
12542.75020283473
 20
-6343.695982363161
 30
0.0
 40
0.0197668449965141
100
AcDbArc
 50
234.9622128540937
 51
236.3237574116072
  0
ARC
  5
36F6B7
330
18
100
AcDbEntity
  8
姿図
100
AcDbCircle
 10
12505.57094210841
 20
-6346.576056514255
 30
0.0
 40
0.048885804350271
100
AcDbArc
 50
158.8202066083785
 51
270.9807494057845
  0
LINE
  5
36F6B8
330
18
100
AcDbEntity
  8
姿図
100
AcDbLine
 10
12505.53120678158
 20
-6347.05607432192
 30
0.0
 11
12505.57177886083
 21
-6346.624935156956
 31
0.0
  0
ELLIPSE
  5
36F6B9
330
18
100
AcDbEntity
  8
姿図
100
AcDbEllipse
 10
12505.52433406754
 20
-6347.08110068724
 30
0.0
 11
0.049764430212905
 21
-0.0048479971499831
 31
0.0
210
0.0
220
0.0
230
1.0
 40
0.9700320578726122
 41
3.144777266000146
 42
3.702736958935318
  0
LINE
  5
36F6BA
330
18
100
AcDbEntity
  8
姿図
100
AcDbLine
 10
12505.52535847766
 20
-6346.558394281236
 30
0.0
 11
12505.76872558366
 21
-6345.966367408482
 31
0.0
  0
ARC
  5
36F6BB
330
18
100
AcDbEntity
  8
姿図
100
AcDbCircle
 10
12505.72313634937
 20
-6345.948708637056
 30
0.0
 40
0.048889779013832
100
AcDbArc
 50
338.8263619852169
 51
90.9709984702483
  0
LINE
  5
36F6BC
330
18
100
AcDbEntity
  8
姿図
100
AcDbLine
 10
12505.72230784806
 20
-6345.899825878567
 30
0.0
 11
12505.572349633
 21
-6345.898831653165
 31
0.0
  0
ARC
  5
36F6BD
330
18
100
AcDbEntity
  8
姿図
100
AcDbCircle
 10
12505.57152348297
 20
-6345.849941793332
 30
0.0
 40
0.048896839553186
100
AcDbArc
 50
158.8211836991647
 51
270.9681026983849
  0
LINE
  5
36F6BE
330
18
100
AcDbEntity
  8
姿図
100
AcDbLine
 10
12505.52592926118
 20
-6345.83227635088
 30
0.0
 11
12505.7692963615
 21
-6345.240256691408
 31
0.0
  0
ARC
  5
36F6BF
330
18
100
AcDbEntity
  8
姿図
100
AcDbCircle
 10
12505.72369955358
 20
-6345.222597903813
 30
0.0
 40
0.0488968472596155
100
AcDbArc
 50
338.8295497602527
 51
90.9619756534265
  0
LINE
  5
36F6C0
330
18
100
AcDbEntity
  8
姿図
100
AcDbLine
 10
12505.72287863157
 20
-6345.173707948211
 30
0.0
 11
12505.57292041651
 21
-6345.172713722807
 31
0.0
  0
ARC
  5
36F6C1
330
18
100
AcDbEntity
  8
姿図
100
AcDbCircle
 10
12505.57208959578
 20
-6345.123829031525
 30
0.0
 40
0.0488917508885246
100
AcDbArc
 50
158.8214429745
 51
270.9736778061023
  0
LINE
  5
36F6C2
330
18
100
AcDbEntity
  8
姿図
100
AcDbLine
 10
12505.52650003902
 20
-6345.106165633807
 30
0.0
 11
12505.76986713935
 21
-6344.514145974334
 31
0.0
  0
ARC
  5
36F6C3
330
18
100
AcDbEntity
  8
姿図
100
AcDbCircle
 10
12505.72427574244
 20
-6344.496483412559
 30
0.0
 40
0.048893164760816
100
AcDbArc
 50
338.8231354656199
 51
90.96838994793751
  0
LINE
  5
36F6C4
330
18
100
AcDbEntity
  8
姿図
100
AcDbLine
 10
12505.72344940941
 20
-6344.447597231137
 30
0.0
 11
12505.57349119435
 21
-6344.446603005735
 31
0.0
  0
ARC
  5
36F6C5
330
18
100
AcDbEntity
  8
姿図
100
AcDbCircle
 10
12505.57266287642
 20
-6344.397716568638
 30
0.0
 40
0.04889345398581
100
AcDbArc
 50
158.8244102128405
 51
270.9707105678565
  0
LINE
  5
36F6C6
330
18
100
AcDbEntity
  8
姿図
100
AcDbLine
 10
12505.52707081686
 20
-6344.380054916733
 30
0.0
 11
12505.77043791719
 21
-6343.788035257261
 31
0.0
  0
ARC
  5
36F6C7
330
18
100
AcDbEntity
  8
姿図
100
AcDbCircle
 10
12505.72484902274
 20
-6343.770370950018
 30
0.0
 40
0.0488914619021006
100
AcDbArc
 50
338.8201686840056
 51
90.9713567296793
  0
LINE
  5
36F6C8
330
18
100
AcDbEntity
  8
姿図
100
AcDbLine
 10
12505.72402018725
 20
-6343.721486514063
 30
0.0
 11
12505.5740619722
 21
-6343.720492288661
 31
0.0
  0
ARC
  5
36F6C9
330
18
100
AcDbEntity
  8
姿図
100
AcDbCircle
 10
12505.57323906441
 20
-6343.671602077733
 30
0.0
 40
0.0488971359279489
100
AcDbArc
 50
158.8308236263732
 51
270.9642971542329
  0
LINE
  5
36F6CA
330
18
100
AcDbEntity
  8
姿図
100
AcDbLine
 10
12505.5276415947
 20
-6343.653944199659
 30
0.0
 11
12505.77100869503
 21
-6343.061924540186
 31
0.0
  0
ARC
  5
36F6CB
330
18
100
AcDbEntity
  8
姿図
100
AcDbCircle
 10
12505.7254097245
 20
-6343.044261961868
 30
0.0
 40
0.0489002329824112
100
AcDbArc
 50
338.8263230739521
 51
90.95936814817729
  0
LINE
  5
36F6CC
330
18
100
AcDbEntity
  8
姿図
100
AcDbLine
 10
12505.72459097076
 20
-6342.995368583706
 30
0.0
 11
12505.57463275571
 21
-6342.994374358305
 31
0.0
  0
ARC
  5
36F6CD
330
18
100
AcDbEntity
  8
姿図
100
AcDbCircle
 10
12505.57380130406
 20
-6342.945490107112
 30
0.0
 40
0.0488913215862729
100
AcDbArc
 50
158.820694949582
 51
270.9744258309551
  0
LINE
  5
36F6CE
330
18
100
AcDbEntity
  8
姿図
100
AcDbLine
 10
12505.52821237821
 20
-6342.927826269303
 30
0.0
 11
12505.77157947854
 21
-6342.335806609828
 31
0.0
  0
ARC
  5
36F6CF
330
18
100
AcDbEntity
  8
姿図
100
AcDbCircle
 10
12505.72598808163
 20
-6342.318144048054
 30
0.0
 40
0.0488931647607446
100
AcDbArc
 50
338.8231354656199
 51
90.9683899480419
  0
LINE
  5
36F6D0
330
18
100
AcDbEntity
  8
姿図
100
AcDbLine
 10
12505.7251617486
 20
-6342.269257866632
 30
0.0
 11
12505.57520353355
 21
-6342.26826364123
 31
0.0
  0
ARC
  5
36F6D1
330
18
100
AcDbEntity
  8
姿図
100
AcDbCircle
 10
12505.57437271281
 20
-6342.219378949948
 30
0.0
 40
0.048891750888631
100
AcDbArc
 50
158.8214429746327
 51
270.9736778058923
  0
LINE
  5
36F6D2
330
18
100
AcDbEntity
  8
姿図
100
AcDbLine
 10
12505.52878315605
 20
-6342.20171555223
 30
0.0
 11
12505.77215025638
 21
-6341.609695892755
 31
0.0
  0
ARC
  5
36F6D3
330
18
100
AcDbEntity
  8
姿図
100
AcDbCircle
 10
12505.72656136194
 20
-6341.592031585514
 30
0.0
 40
0.0488914619020951
100
AcDbArc
 50
338.8201686840056
 51
90.9713567296793
  0
LINE
  5
36F6D4
330
18
100
AcDbEntity
  8
姿図
100
AcDbLine
 10
12505.72573252644
 20
-6341.543147149559
 30
0.0
 11
12505.57577431139
 21
-6341.542152924158
 31
0.0
  0
ARC
  5
36F6D5
330
18
100
AcDbEntity
  8
姿図
100
AcDbCircle
 10
12505.57494599345
 20
-6341.49326648706
 30
0.0
 40
0.0488934539858876
100
AcDbArc
 50
158.8244102128825
 51
270.9707105676474
  0
LINE
  5
36F6D6
330
18
100
AcDbEntity
  8
姿図
100
AcDbLine
 10
12505.52935393389
 20
-6341.475604835157
 30
0.0
 11
12505.77272103422
 21
-6340.883585175681
 31
0.0
  0
ARC
  5
36F6D7
330
18
100
AcDbEntity
  8
姿図
100
AcDbCircle
 10
12505.72713277072
 20
-6340.86592042836
 30
0.0
 40
0.0488910325853391
100
AcDbArc
 50
338.8194206441329
 51
90.97210476944504
  0
LINE
  5
36F6D8
330
18
100
AcDbEntity
  8
姿図
100
AcDbLine
 10
12505.72630330428
 20
-6340.817036432486
 30
0.0
 11
12505.57634508923
 21
-6340.816042207084
 31
0.0
  0
ARC
  5
36F6D9
330
18
100
AcDbEntity
  8
姿図
100
AcDbCircle
 10
12505.57552434951
 20
-6340.767148573719
 30
0.0
 40
0.0489005214421853
100
AcDbArc
 50
158.8275966508646
 51
270.9616897465466
  0
LINE
  5
36F6DA
330
18
100
AcDbEntity
  8
姿図
100
AcDbLine
 10
12505.5299247174
 20
-6340.749486904798
 30
0.0
 11
12505.77329181773
 21
-6340.157467245326
 31
0.0
  0
ARC
  5
36F6DB
330
18
100
AcDbEntity
  8
姿図
100
AcDbCircle
 10
12505.72770042083
 20
-6340.139804683551
 30
0.0
 40
0.0488931647607446
100
AcDbArc
 50
338.8231354656199
 51
90.9683899480419
  0
LINE
  5
36F6DC
330
18
100
AcDbEntity
  8
姿図
100
AcDbLine
 10
12505.7268740878
 20
-6340.090918502129
 30
0.0
 11
12505.57691587274
 21
-6340.089924276727
 31
0.0
  0
ARC
  5
36F6DD
330
18
100
AcDbEntity
  8
姿図
100
AcDbCircle
 10
12505.57608505201
 20
-6340.041039585444
 30
0.0
 40
0.0488917508885515
100
AcDbArc
 50
158.8214429745
 51
270.9736778061007
  0
LINE
  5
36F6DE
330
18
100
AcDbEntity
  8
姿図
100
AcDbLine
 10
12505.53049549524
 20
-6340.023376187724
 30
0.0
 11
12505.77386259557
 21
-6339.431356528252
 31
0.0
  0
ARC
  5
36F6DF
330
18
100
AcDbEntity
  8
姿図
100
AcDbCircle
 10
12505.72827119867
 20
-6339.413693966477
 30
0.0
 40
0.048893164760816
100
AcDbArc
 50
338.8231354656199
 51
90.9683899480419
  0
LINE
  5
36F6E0
330
18
100
AcDbEntity
  8
姿図
100
AcDbLine
 10
12505.72744486564
 20
-6339.364807785056
 30
0.0
 11
12505.57748665058
 21
-6339.363813559653
 31
0.0
  0
ARC
  5
36F6E1
330
18
100
AcDbEntity
  8
姿図
100
AcDbCircle
 10
12505.57665833264
 20
-6339.314927122558
 30
0.0
 40
0.0488934539858682
100
AcDbArc
 50
158.8244102129314
 51
270.9707105677515
  0
LINE
  5
36F6E2
330
18
100
AcDbEntity
  8
姿図
100
AcDbLine
 10
12505.53106627309
 20
-6339.297265470651
 30
0.0
 11
12505.77443337341
 21
-6338.70524581118
 31
0.0
  0
ARC
  5
36F6E3
330
18
100
AcDbEntity
  8
姿図
100
AcDbCircle
 10
12505.72884447897
 20
-6338.687581503936
 30
0.0
 40
0.0488914619021543
100
AcDbArc
 50
338.8201686840056
 51
90.97135672957491
  0
LINE
  5
36F6E4
330
18
100
AcDbEntity
  8
姿図
100
AcDbLine
 10
12505.72801564348
 20
-6338.638697067981
 30
0.0
 11
12505.57805742842
 21
-6338.637702842579
 31
0.0
  0
ARC
  5
36F6E5
330
18
100
AcDbEntity
  8
姿図
100
AcDbCircle
 10
12505.57723452064
 20
-6338.588812631651
 30
0.0
 40
0.0488971359279803
100
AcDbArc
 50
158.8308236264221
 51
270.9642971541287
  0
LINE
  5
36F6E6
330
18
100
AcDbEntity
  8
姿図
100
AcDbLine
 10
12505.53163705093
 20
-6338.571154753577
 30
0.0
 11
12505.77500415693
 21
-6337.979127880823
 31
0.0
  0
ARC
  5
36F6E7
330
18
100
AcDbEntity
  8
姿図
100
AcDbCircle
 10
12505.729407349
 20
-6337.961469093229
 30
0.0
 40
0.0488968472595886
100
AcDbArc
 50
338.8295497602039
 51
90.9619756534265
  0
LINE
  5
36F6E8
330
18
100
AcDbEntity
  8
姿図
100
AcDbLine
 10
12505.72858642699
 20
-6337.912579137626
 30
0.0
 11
12505.57862821193
 21
-6337.911584912223
 31
0.0
  0
ARC
  5
36F6E9
330
18
100
AcDbEntity
  8
姿図
100
AcDbCircle
 10
12505.5777973912
 20
-6337.862700220942
 30
0.0
 40
0.0488917508886048
100
AcDbArc
 50
158.8214429746327
 51
270.9736778059965
  0
LINE
  5
36F6EA
330
18
100
AcDbEntity
  8
姿図
100
AcDbLine
 10
12505.53220783444
 20
-6337.845036823221
 30
0.0
 11
12505.77557493477
 21
-6337.25301716375
 31
0.0
  0
ARC
  5
36F6EB
330
18
100
AcDbEntity
  8
姿図
100
AcDbCircle
 10
12505.72998353786
 20
-6337.235354601974
 30
0.0
 40
0.0488931647608068
100
AcDbArc
 50
338.8231354656688
 51
90.96838994793751
  0
LINE
  5
36F6EC
330
18
100
AcDbEntity
  8
姿図
100
AcDbLine
 10
12505.72915720483
 20
-6337.186468420552
 30
0.0
 11
12505.57919898978
 21
-6337.18547419515
 31
0.0
  0
ARC
  5
36F6ED
330
18
100
AcDbEntity
  8
姿図
100
AcDbCircle
 10
12505.57837067184
 20
-6337.136587758052
 30
0.0
 40
0.0488934539857887
100
AcDbArc
 50
158.8244102127916
 51
270.9707105677533
  0
LINE
  5
36F6EE
330
18
100
AcDbEntity
  8
姿図
100
AcDbLine
 10
12505.53277861228
 20
-6337.118926106147
 30
0.0
 11
12505.77614571261
 21
-6336.526906446675
 31
0.0
  0
ARC
  5
36F6EF
330
18
100
AcDbEntity
  8
姿図
100
AcDbCircle
 10
12505.73055681817
 20
-6336.509242139434
 30
0.0
 40
0.0488914619021503
100
AcDbArc
 50
338.8201686840545
 51
90.97135672957491
  0
LINE
  5
36F6F0
330
18
100
AcDbEntity
  8
姿図
100
AcDbLine
 10
12505.72972798267
 20
-6336.460357703478
 30
0.0
 11
12505.57976976762
 21
-6336.459363478077
 31
0.0
  0
ARC
  5
36F6F1
330
18
100
AcDbEntity
  8
姿図
100
AcDbCircle
 10
12505.57894144968
 20
-6336.410477040979
 30
0.0
 40
0.0488934539857801
100
AcDbArc
 50
158.8244102128405
 51
270.9707105678565
  0
LINE
  5
36F6F2
330
18
100
AcDbEntity
  8
姿図
100
AcDbLine
 10
12505.53334939012
 20
-6336.392815389075
 30
0.0
 11
12505.77671649045
 21
-6335.800795729602
 31
0.0
  0
ARC
  5
36F6F3
330
18
100
AcDbEntity
  8
姿図
100
AcDbCircle
 10
12505.73111751992
 20
-6335.783133151283
 30
0.0
 40
0.0489002329823873
100
AcDbArc
 50
338.8263230738544
 51
90.95936814828309
  0
LINE
  5
36F6F4
330
18
100
AcDbEntity
  8
姿図
100
AcDbLine
 10
12505.73029876618
 20
-6335.734239773121
 30
0.0
 11
12505.58034055113
 21
-6335.73324554772
 31
0.0
  0
ARC
  5
36F6F5
330
18
100
AcDbEntity
  8
姿図
100
AcDbCircle
 10
12505.57950909948
 20
-6335.684361296529
 30
0.0
 40
0.0488913215861721
100
AcDbArc
 50
158.820694949533
 51
270.9744258310595
  0
LINE
  5
36F6F6
330
18
100
AcDbEntity
  8
姿図
100
AcDbLine
 10
12505.53392017363
 20
-6335.666697458718
 30
0.0
 11
12505.77728727396
 21
-6335.074677799244
 31
0.0
  0
ARC
  5
36F6F7
330
18
100
AcDbEntity
  8
姿図
100
AcDbCircle
 10
12505.73169587706
 20
-6335.05701523747
 30
0.0
 40
0.0488931647607809
100
AcDbArc
 50
338.8231354655709
 51
90.9683899480419
  0
LINE
  5
36F6F8
330
18
100
AcDbEntity
  8
姿図
100
AcDbLine
 10
12505.73086954403
 20
-6335.008129056047
 30
0.0
 11
12505.58091132897
 21
-6335.007134830648
 31
0.0
  0
ARC
  5
36F6F9
330
18
100
AcDbEntity
  8
姿図
100
AcDbCircle
 10
12505.58008050824
 20
-6334.958250139361
 30
0.0
 40
0.0488917508884885
100
AcDbArc
 50
158.8214429745
 51
270.9736778062057
  0
LINE
  5
36F6FA
330
18
100
AcDbEntity
  8
姿図
100
AcDbLine
 10
12505.53449095147
 20
-6334.940586741645
 30
0.0
 11
12505.7778580518
 21
-6334.348567082169
 31
0.0
  0
ARC
  5
36F6FB
330
18
100
AcDbEntity
  8
姿図
100
AcDbCircle
 10
12505.73226915736
 20
-6334.330902774929
 30
0.0
 40
0.0488914619021543
100
AcDbArc
 50
338.8201686840056
 51
90.97135672957491
  0
LINE
  5
36F6FC
330
18
100
AcDbEntity
  8
姿図
100
AcDbLine
 10
12505.73144032187
 20
-6334.282018338974
 30
0.0
 11
12505.58148210681
 21
-6334.281024113573
 31
0.0
  0
ARC
  5
36F6FD
330
18
100
AcDbEntity
  8
姿図
100
AcDbCircle
 10
12505.58065378887
 20
-6334.232137676476
 30
0.0
 40
0.048893453985807
100
AcDbArc
 50
158.8244102127916
 51
270.9707105677515
  0
LINE
  5
36F6FE
330
18
100
AcDbEntity
  8
姿図
100
AcDbLine
 10
12505.53506172931
 20
-6334.214476024572
 30
0.0
 11
12505.77842882964
 21
-6333.622456365098
 31
0.0
  0
ARC
  5
36F6FF
330
18
100
AcDbEntity
  8
姿図
100
AcDbCircle
 10
12505.73284056614
 20
-6333.604791617776
 30
0.0
 40
0.0488910325853309
100
AcDbArc
 50
338.8194206440841
 51
90.97210476944504
  0
LINE
  5
36F700
330
18
100
AcDbEntity
  8
姿図
100
AcDbLine
 10
12505.73201109971
 20
-6333.555907621899
 30
0.0
 11
12505.58205288465
 21
-6333.554913396499
 31
0.0
  0
ARC
  5
36F701
330
18
100
AcDbEntity
  8
姿図
100
AcDbCircle
 10
12505.58123214493
 20
-6333.506019763134
 30
0.0
 40
0.0489005214421853
100
AcDbArc
 50
158.8275966508646
 51
270.9616897465466
  0
LINE
  5
36F702
330
18
100
AcDbEntity
  8
姿図
100
AcDbLine
 10
12505.53563251282
 20
-6333.488358094214
 30
0.0
 11
12505.77899961315
 21
-6332.896338434742
 31
0.0
  0
ARC
  5
36F703
330
18
100
AcDbEntity
  8
姿図
100
AcDbCircle
 10
12505.73340280523
 20
-6332.878679647149
 30
0.0
 40
0.0488968472596155
100
AcDbArc
 50
338.8295497602039
 51
90.9619756534265
  0
LINE
  5
36F704
330
18
100
AcDbEntity
  8
姿図
100
AcDbLine
 10
12505.73258188322
 20
-6332.829789691544
 30
0.0
 11
12505.58262366816
 21
-6332.828795466142
 31
0.0
  0
ARC
  5
36F705
330
18
100
AcDbEntity
  8
姿図
100
AcDbCircle
 10
12505.58179284743
 20
-6332.779910774859
 30
0.0
 40
0.0488917508885511
100
AcDbArc
 50
158.8214429745
 51
270.9736778061023
  0
LINE
  5
36F706
330
18
100
AcDbEntity
  8
姿図
100
AcDbLine
 10
12505.53620329067
 20
-6332.762247377139
 30
0.0
 11
12505.779570391
 21
-6332.170227717668
 31
0.0
  0
ARC
  5
36F707
330
18
100
AcDbEntity
  8
姿図
100
AcDbCircle
 10
12505.73397899409
 20
-6332.152565155894
 30
0.0
 40
0.0488931647607985
100
AcDbArc
 50
338.8231354656199
 51
90.96838994793751
  0
LINE
  5
36F708
330
18
100
AcDbEntity
  8
姿図
100
AcDbLine
 10
12505.73315266106
 20
-6332.10367897447
 30
0.0
 11
12505.583194446
 21
-6332.102684749068
 31
0.0
  0
ARC
  5
36F709
330
18
100
AcDbEntity
  8
姿図
100
AcDbCircle
 10
12505.58236612806
 20
-6332.053798311971
 30
0.0
 40
0.0488934539858951
100
AcDbArc
 50
158.8244102129314
 51
270.9707105676474
  0
LINE
  5
36F70A
330
18
100
AcDbEntity
  8
姿図
100
AcDbLine
 10
12505.53677406851
 20
-6332.036136660067
 30
0.0
 11
12505.78014116884
 21
-6331.444117000595
 31
0.0
  0
ARC
  5
36F70B
330
18
100
AcDbEntity
  8
姿図
100
AcDbCircle
 10
12505.73455227439
 20
-6331.426452693352
 30
0.0
 40
0.0488914619020981
100
AcDbArc
 50
338.8201686839566
 51
90.9713567296793
  0
LINE
  5
36F70C
330
18
100
AcDbEntity
  8
姿図
100
AcDbLine
 10
12505.7337234389
 20
-6331.377568257398
 30
0.0
 11
12505.58376522385
 21
-6331.376574031995
 31
0.0
  0
ARC
  5
36F70D
330
18
100
AcDbEntity
  8
姿図
100
AcDbCircle
 10
12505.58336678837
 20
-6331.327019349092
 30
0.0
 40
0.0495562846521725
100
AcDbArc
 50
180.9422466218196
 51
270.4606664325877
  0
LINE
  5
36F70E
330
18
100
AcDbEntity
  8
姿図
100
AcDbLine
 10
12505.53381720477
 20
-6331.327834280619
 30
0.0
 11
12505.53396941522
 21
-6331.13420090898
 31
0.0
  0
ARC
  5
36F70F
330
18
100
AcDbEntity
  8
姿図
100
AcDbCircle
 10
12506.01885181755
 20
-6331.139991534176
 30
0.0
 40
0.4849169778755253
100
AcDbArc
 50
99.66165791375344
 51
179.3157874744028
  0
LINE
  5
36F710
330
18
100
AcDbEntity
  8
姿図
100
AcDbLine
 10
12505.92491838906
 20
-6346.627278017419
 30
0.0
 11
12505.57177886083
 21
-6346.624935156956
 31
0.0
  0
LINE
  5
36F711
330
18
100
AcDbEntity
  8
姿図
100
AcDbLine
 10
12505.52500886345
 20
-6346.40189658204
 30
0.0
 11
12505.572349633
 21
-6345.898831653165
 31
0.0
  0
ELLIPSE
  5
36F712
330
18
100
AcDbEntity
  8
姿図
100
AcDbEllipse
 10
12505.52505625865
 20
-6346.353378884645
 30
0.0
 11
0.0497644302128776
 21
-0.0048479971499537
 31
0.0
210
0.0
220
0.0
230
1.0
 40
0.9700320578726632
 41
3.144777265999631
 42
4.805645468666802
  0
LINE
  5
36F713
330
18
100
AcDbEntity
  8
姿図
100
AcDbLine
 10
12505.52500886345
 20
-6346.40189658204
 30
0.0
 11
12505.58951823162
 21
-6346.402324483726
 31
0.0
  0
LINE
  5
36F714
330
18
100
AcDbEntity
  8
姿図
100
AcDbLine
 10
12505.52572828733
 20
-6345.674169716133
 30
0.0
 11
12505.57292041651
 21
-6345.172713722807
 31
0.0
  0
ELLIPSE
  5
36F715
330
18
100
AcDbEntity
  8
姿図
100
AcDbEllipse
 10
12505.52577844975
 20
-6345.62565708205
 30
0.0
 11
0.0497644302128766
 21
-0.0048479971499821
 31
0.0
210
0.0
220
0.0
230
1.0
 40
0.9700320578731972
 41
3.144777266000764
 42
4.805645468667385
  0
LINE
  5
36F716
330
18
100
AcDbEntity
  8
姿図
100
AcDbLine
 10
12505.52572828733
 20
-6345.674169716133
 30
0.0
 11
12505.59074862559
 21
-6345.674601284017
 31
0.0
  0
LINE
  5
36F717
330
18
100
AcDbEntity
  8
姿図
100
AcDbLine
 10
12505.52645297383
 20
-6344.946450074106
 30
0.0
 11
12505.57349119435
 21
-6344.446603005735
 31
0.0
  0
ELLIPSE
  5
36F718
330
18
100
AcDbEntity
  8
姿図
100
AcDbEllipse
 10
12505.52650064086
 20
-6344.897935279453
 30
0.0
 11
0.0497644302128776
 21
-0.0048479971499537
 31
0.0
210
0.0
220
0.0
230
1.0
 40
0.9700320578732305
 41
3.144777265999662
 42
4.805645468666289
  0
LINE
  5
36F719
330
18
100
AcDbEntity
  8
姿図
100
AcDbLine
 10
12505.52645297383
 20
-6344.946450074106
 30
0.0
 11
12505.5919790139
 21
-6344.94688529759
 31
0.0
  0
LINE
  5
36F71A
330
18
100
AcDbEntity
  8
姿図
100
AcDbLine
 10
12505.5271750396
 20
-6344.218729767289
 30
0.0
 11
12505.5740619722
 21
-6343.720492288661
 31
0.0
  0
ELLIPSE
  5
36F71B
330
18
100
AcDbEntity
  8
姿図
100
AcDbEllipse
 10
12505.52722283197
 20
-6344.170213476857
 30
0.0
 11
0.0497644302128766
 21
-0.0048479971499821
 31
0.0
210
0.0
220
0.0
230
1.0
 40
0.9700320578731972
 41
3.144777266001383
 42
4.805645468666816
  0
LINE
  5
36F71C
330
18
100
AcDbEntity
  8
姿図
100
AcDbLine
 10
12505.5271750396
 20
-6344.218729767289
 30
0.0
 11
12505.59320942904
 21
-6344.219167992174
 31
0.0
  0
LINE
  5
36F71D
330
18
100
AcDbEntity
  8
姿図
100
AcDbLine
 10
12545.02023569332
 20
-6347.318096886552
 30
0.0
 11
12545.06080843446
 21
-6346.886957558037
 31
0.0
  0
LINE
  5
36F71E
330
18
100
AcDbEntity
  8
姿図
100
AcDbLine
 10
12544.70766956812
 20
-6346.884614534022
 30
0.0
 11
12545.06080843446
 21
-6346.886957558037
 31
0.0
  0
ARC
  5
36F71F
330
18
100
AcDbEntity
  8
姿図
100
AcDbCircle
 10
12544.63110448801
 20
-6331.403057295922
 30
0.0
 40
0.4919076359798816
100
AcDbArc
 50
0.718729300096032
 51
79.56254256208659
  0
LINE
  5
36F720
330
18
100
AcDbEntity
  8
姿図
100
AcDbLine
 10
12545.12282121155
 20
-6331.590520245205
 30
0.0
 11
12545.122973422
 21
-6331.396886873569
 31
0.0
  0
ARC
  5
36F721
330
18
100
AcDbEntity
  8
姿図
100
AcDbCircle
 10
12545.07394225324
 20
-6331.589724465903
 30
0.0
 40
0.0488854357672794
100
AcDbArc
 50
268.6550102263359
 51
359.0672721108032
  0
LINE
  5
36F722
330
18
100
AcDbEntity
  8
姿図
100
AcDbLine
 10
12544.92283823715
 20
-6331.637601798803
 30
0.0
 11
12545.07279479748
 21
-6331.638596433077
 31
0.0
  0
ARC
  5
36F723
330
18
100
AcDbEntity
  8
姿図
100
AcDbCircle
 10
12544.92134830065
 20
-6331.685930808954
 30
0.0
 40
0.0483519713451406
100
AcDbArc
 50
88.23418599692508
 51
201.3484190667075
  0
LINE
  5
36F724
330
18
100
AcDbEntity
  8
姿図
100
AcDbLine
 10
12545.11874787386
 20
-6332.298776245218
 30
0.0
 11
12544.87631405198
 21
-6331.70353278551
 31
0.0
  0
ARC
  5
36F725
330
18
100
AcDbEntity
  8
姿図
100
AcDbCircle
 10
12545.0737138804
 20
-6332.316378334446
 30
0.0
 40
0.0483517746565175
100
AcDbArc
 50
268.2342685885102
 51
21.34865351602093
  0
LINE
  5
36F726
330
18
100
AcDbEntity
  8
姿図
100
AcDbLine
 10
12544.9222674593
 20
-6332.363712515877
 30
0.0
 11
12545.07222401963
 21
-6332.364707150151
 31
0.0
  0
ARC
  5
36F727
330
18
100
AcDbEntity
  8
姿図
100
AcDbCircle
 10
12544.92077999389
 20
-6332.412043269743
 30
0.0
 40
0.0483536381515134
100
AcDbArc
 50
88.23717633029074
 51
201.3454287332996
  0
LINE
  5
36F728
330
18
100
AcDbEntity
  8
姿図
100
AcDbLine
 10
12545.11817709602
 20
-6333.024886962292
 30
0.0
 11
12544.87574327413
 21
-6332.429643502584
 31
0.0
  0
ARC
  5
36F729
330
18
100
AcDbEntity
  8
姿図
100
AcDbCircle
 10
12545.07314557359
 20
-6333.042490795193
 30
0.0
 40
0.0483501080174029
100
AcDbArc
 50
268.2312780919753
 51
21.35164401258178
  0
LINE
  5
36F72A
330
18
100
AcDbEntity
  8
姿図
100
AcDbLine
 10
12544.92169668146
 20
-6333.08982323295
 30
0.0
 11
12545.07165324179
 21
-6333.090817867224
 31
0.0
  0
ARC
  5
36F72B
330
18
100
AcDbEntity
  8
姿図
100
AcDbCircle
 10
12544.92021453613
 20
-6333.138157740933
 30
0.0
 40
0.0483572271395918
100
AcDbArc
 50
88.24361365148718
 51
201.3389914121186
  0
LINE
  5
36F72C
330
18
100
AcDbEntity
  8
姿図
100
AcDbLine
 10
12545.11760631818
 20
-6333.750997679366
 30
0.0
 11
12544.87517249629
 21
-6333.155754219657
 31
0.0
  0
ARC
  5
36F72D
330
18
100
AcDbEntity
  8
姿図
100
AcDbCircle
 10
12545.07256487923
 20
-6333.768599802738
 30
0.0
 40
0.0483587217505231
100
AcDbArc
 50
268.2433412386835
 51
21.34547980936246
  0
LINE
  5
36F72E
330
18
100
AcDbEntity
  8
姿図
100
AcDbLine
 10
12544.92112589795
 20
-6333.815941163307
 30
0.0
 11
12545.07108245828
 21
-6333.816935797582
 31
0.0
  0
ARC
  5
36F72F
330
18
100
AcDbEntity
  8
姿図
100
AcDbCircle
 10
12544.91963532454
 20
-6333.86426972401
 30
0.0
 40
0.0483515417415991
100
AcDbArc
 50
88.23341519516848
 51
201.3491898684824
  0
LINE
  5
36F730
330
18
100
AcDbEntity
  8
姿図
100
AcDbLine
 10
12545.11703553466
 20
-6334.477115609722
 30
0.0
 11
12544.87460171278
 21
-6333.881872150015
 31
0.0
  0
ARC
  5
36F731
330
18
100
AcDbEntity
  8
姿図
100
AcDbCircle
 10
12545.0720015412
 20
-6334.494717698952
 30
0.0
 40
0.0483517746565411
100
AcDbArc
 50
268.2342685886143
 51
21.34865351593695
  0
LINE
  5
36F732
330
18
100
AcDbEntity
  8
姿図
100
AcDbLine
 10
12544.92055512011
 20
-6334.542051880379
 30
0.0
 11
12545.07051168044
 21
-6334.543046514655
 31
0.0
  0
ARC
  5
36F733
330
18
100
AcDbEntity
  8
姿図
100
AcDbCircle
 10
12544.91906518362
 20
-6334.590380890532
 30
0.0
 40
0.0483519713451553
100
AcDbArc
 50
88.23418599702838
 51
201.3484190666236
  0
LINE
  5
36F734
330
18
100
AcDbEntity
  8
姿図
100
AcDbLine
 10
12545.11646475683
 20
-6335.203226326795
 30
0.0
 11
12544.87403093494
 21
-6334.607982867087
 31
0.0
  0
ARC
  5
36F735
330
18
100
AcDbEntity
  8
姿図
100
AcDbCircle
 10
12545.07143323439
 20
-6335.220830159697
 30
0.0
 40
0.0483501080174192
100
AcDbArc
 50
268.2312780919753
 51
21.35164401253283
  0
LINE
  5
36F736
330
18
100
AcDbEntity
  8
姿図
100
AcDbLine
 10
12544.91998434227
 20
-6335.268162597454
 30
0.0
 11
12545.0699409026
 21
-6335.269157231729
 31
0.0
  0
ARC
  5
36F737
330
18
100
AcDbEntity
  8
姿図
100
AcDbCircle
 10
12544.91849687686
 20
-6335.31649335132
 30
0.0
 40
0.0483536381514848
100
AcDbArc
 50
88.23717633029074
 51
201.3454287332996
  0
LINE
  5
36F738
330
18
100
AcDbEntity
  8
姿図
100
AcDbLine
 10
12545.11589397898
 20
-6335.929337043868
 30
0.0
 11
12544.8734601571
 21
-6335.334093584163
 31
0.0
  0
ARC
  5
36F739
330
18
100
AcDbEntity
  8
姿図
100
AcDbCircle
 10
12545.07086309281
 20
-6335.946941325741
 30
0.0
 40
0.0483496789032392
100
AcDbArc
 50
268.2305080489322
 51
21.35241405565678
  0
LINE
  5
36F73A
330
18
100
AcDbEntity
  8
姿図
100
AcDbLine
 10
12544.91941356443
 20
-6335.994273314527
 30
0.0
 11
12545.06937012476
 21
-6335.995267948803
 31
0.0
  0
ARC
  5
36F73B
330
18
100
AcDbEntity
  8
姿図
100
AcDbCircle
 10
12544.9179335386
 20
-6336.042611247201
 30
0.0
 40
0.0483605853111638
100
AcDbArc
 50
88.24624794041318
 51
201.342256070957
  0
LINE
  5
36F73C
330
18
100
AcDbEntity
  8
姿図
100
AcDbLine
 10
12545.11532319547
 20
-6336.655454974225
 30
0.0
 11
12544.87288937359
 21
-6336.060211514517
 31
0.0
  0
ARC
  5
36F73D
330
18
100
AcDbEntity
  8
姿図
100
AcDbCircle
 10
12545.07028920201
 20
-6336.673057063454
 30
0.0
 40
0.0483517746565401
100
AcDbArc
 50
268.2342685885102
 51
21.34865351606987
  0
LINE
  5
36F73E
330
18
100
AcDbEntity
  8
姿図
100
AcDbLine
 10
12544.91884278092
 20
-6336.720391244885
 30
0.0
 11
12545.06879934125
 21
-6336.721385879157
 31
0.0
  0
ARC
  5
36F73F
330
18
100
AcDbEntity
  8
姿図
100
AcDbCircle
 10
12544.91735284443
 20
-6336.768720255037
 30
0.0
 40
0.0483519713451553
100
AcDbArc
 50
88.23418599702838
 51
201.3484190666236
  0
LINE
  5
36F740
330
18
100
AcDbEntity
  8
姿図
100
AcDbLine
 10
12545.11475241763
 20
-6337.381565691297
 30
0.0
 11
12544.87231859575
 21
-6336.786322231592
 31
0.0
  0
ARC
  5
36F741
330
18
100
AcDbEntity
  8
姿図
100
AcDbCircle
 10
12545.06971842417
 20
-6337.399167780529
 30
0.0
 40
0.0483517746564914
100
AcDbArc
 50
268.2342685885102
 51
21.34865351602093
  0
LINE
  5
36F742
330
18
100
AcDbEntity
  8
姿図
100
AcDbLine
 10
12544.91827200308
 20
-6337.446501961959
 30
0.0
 11
12545.06822856341
 21
-6337.447496596232
 31
0.0
  0
ARC
  5
36F743
330
18
100
AcDbEntity
  8
姿図
100
AcDbCircle
 10
12544.91678453766
 20
-6337.494832715822
 30
0.0
 40
0.0483536381514976
100
AcDbArc
 50
88.23717633029074
 51
201.3454287332996
  0
LINE
  5
36F744
330
18
100
AcDbEntity
  8
姿図
100
AcDbLine
 10
12545.11418163979
 20
-6338.107676408372
 30
0.0
 11
12544.87174781791
 21
-6337.512432948664
 31
0.0
  0
ARC
  5
36F745
330
18
100
AcDbEntity
  8
姿図
100
AcDbCircle
 10
12545.06915011736
 20
-6338.125280241275
 30
0.0
 40
0.0483501080174599
100
AcDbArc
 50
268.2312780919753
 51
21.35164401253283
  0
LINE
  5
36F746
330
18
100
AcDbEntity
  8
姿図
100
AcDbLine
 10
12544.91770122523
 20
-6338.172612679032
 30
0.0
 11
12545.06765778556
 21
-6338.173607313304
 31
0.0
  0
ARC
  5
36F747
330
18
100
AcDbEntity
  8
姿図
100
AcDbCircle
 10
12544.9162190799
 20
-6338.220947187014
 30
0.0
 40
0.0483572271396031
100
AcDbArc
 50
88.24361365148718
 51
201.3389914121186
  0
LINE
  5
36F748
330
18
100
AcDbEntity
  8
姿図
100
AcDbLine
 10
12545.11361085628
 20
-6338.83379433873
 30
0.0
 11
12544.87117704006
 21
-6338.238543665738
 31
0.0
  0
ARC
  5
36F749
330
18
100
AcDbEntity
  8
姿図
100
AcDbCircle
 10
12545.06857154267
 20
-6338.85139267382
 30
0.0
 40
0.0483553633865207
100
AcDbArc
 50
268.2407064439141
 51
21.34221566064841
  0
LINE
  5
36F74A
330
18
100
AcDbEntity
  8
姿図
100
AcDbLine
 10
12544.91713044172
 20
-6338.898730609389
 30
0.0
 11
12545.06708700205
 21
-6338.899725243662
 31
0.0
  0
ARC
  5
36F74B
330
18
100
AcDbEntity
  8
姿図
100
AcDbCircle
 10
12544.91564050523
 20
-6338.94705961954
 30
0.0
 40
0.0483519713451696
100
AcDbArc
 50
88.23418599702838
 51
201.3484190665746
  0
LINE
  5
36F74C
330
18
100
AcDbEntity
  8
姿図
100
AcDbLine
 10
12545.11304007844
 20
-6339.559905055804
 30
0.0
 11
12544.87060625655
 21
-6338.964661596095
 31
0.0
  0
ARC
  5
36F74D
330
18
100
AcDbEntity
  8
姿図
100
AcDbCircle
 10
12545.06800608498
 20
-6339.577507145031
 30
0.0
 40
0.0483517746565957
100
AcDbArc
 50
268.2342685886143
 51
21.34865351598591
  0
LINE
  5
36F74E
330
18
100
AcDbEntity
  8
姿図
100
AcDbLine
 10
12544.91655966388
 20
-6339.624841326462
 30
0.0
 11
12545.06651622421
 21
-6339.625835960736
 31
0.0
  0
ARC
  5
36F74F
330
18
100
AcDbEntity
  8
姿図
100
AcDbCircle
 10
12544.91507219847
 20
-6339.673172080328
 30
0.0
 40
0.0483536381514715
100
AcDbArc
 50
88.23717633029074
 51
201.3454287332996
  0
LINE
  5
36F750
330
18
100
AcDbEntity
  8
姿図
100
AcDbLine
 10
12545.1124693006
 20
-6340.286015772876
 30
0.0
 11
12544.87003547871
 21
-6339.690772313169
 31
0.0
  0
ARC
  5
36F751
330
18
100
AcDbEntity
  8
姿図
100
AcDbCircle
 10
12545.06743777817
 20
-6340.303619605777
 30
0.0
 40
0.0483501080174026
100
AcDbArc
 50
268.2312780918711
 51
21.35164401262367
  0
LINE
  5
36F752
330
18
100
AcDbEntity
  8
姿図
100
AcDbLine
 10
12544.91598888604
 20
-6340.350952043536
 30
0.0
 11
12545.06594544637
 21
-6340.351946677809
 31
0.0
  0
ARC
  5
36F753
330
18
100
AcDbEntity
  8
姿図
100
AcDbCircle
 10
12544.91450142062
 20
-6340.3992827974
 30
0.0
 40
0.0483536381514863
100
AcDbArc
 50
88.2371763303952
 51
201.3454287332506
  0
LINE
  5
36F754
330
18
100
AcDbEntity
  8
姿図
100
AcDbLine
 10
12545.11189852276
 20
-6341.01212648995
 30
0.0
 11
12544.86946470087
 21
-6340.416883030242
 31
0.0
  0
ARC
  5
36F755
330
18
100
AcDbEntity
  8
姿図
100
AcDbCircle
 10
12545.06685708381
 20
-6341.029728613323
 30
0.0
 40
0.0483587217505935
100
AcDbArc
 50
268.2433412387877
 51
21.34547980921563
  0
LINE
  5
36F756
330
18
100
AcDbEntity
  8
姿図
100
AcDbLine
 10
12544.91541810253
 20
-6341.077069973891
 30
0.0
 11
12545.06537466286
 21
-6341.078064608167
 31
0.0
  0
ARC
  5
36F757
330
18
100
AcDbEntity
  8
姿図
100
AcDbCircle
 10
12544.91392752911
 20
-6341.125398534596
 30
0.0
 40
0.0483515417415674
100
AcDbArc
 50
88.233415195064
 51
201.3491898685314
  0
LINE
  5
36F758
330
18
100
AcDbEntity
  8
姿図
100
AcDbLine
 10
12545.11132773924
 20
-6341.738244420305
 30
0.0
 11
12544.86889391736
 21
-6341.143000960599
 31
0.0
  0
ARC
  5
36F759
330
18
100
AcDbEntity
  8
姿図
100
AcDbCircle
 10
12545.06629374578
 20
-6341.755846509535
 30
0.0
 40
0.0483517746565692
100
AcDbArc
 50
268.2342685885102
 51
21.34865351593695
  0
LINE
  5
36F75A
330
18
100
AcDbEntity
  8
姿図
100
AcDbLine
 10
12544.91484732469
 20
-6341.803180690966
 30
0.0
 11
12545.06480388502
 21
-6341.80417532524
 31
0.0
  0
ARC
  5
36F75B
330
18
100
AcDbEntity
  8
姿図
100
AcDbCircle
 10
12544.9133573882
 20
-6341.851509701116
 30
0.0
 40
0.048351971345144
100
AcDbArc
 50
88.23418599702838
 51
201.3484190665746
  0
LINE
  5
36F75C
330
18
100
AcDbEntity
  8
姿図
100
AcDbLine
 10
12545.1107569614
 20
-6342.464355137379
 30
0.0
 11
12544.86832313952
 21
-6341.869111677674
 31
0.0
  0
ARC
  5
36F75D
330
18
100
AcDbEntity
  8
姿図
100
AcDbCircle
 10
12545.06572543897
 20
-6342.481958970282
 30
0.0
 40
0.0483501080174026
100
AcDbArc
 50
268.2312780918711
 51
21.35164401253283
  0
LINE
  5
36F75E
330
18
100
AcDbEntity
  8
姿図
100
AcDbLine
 10
12544.91427654685
 20
-6342.529291408039
 30
0.0
 11
12545.06423310718
 21
-6342.530286042314
 31
0.0
  0
ARC
  5
36F75F
330
18
100
AcDbEntity
  8
姿図
100
AcDbCircle
 10
12544.91278908143
 20
-6342.577622161904
 30
0.0
 40
0.0483536381514561
100
AcDbArc
 50
88.23717633018745
 51
201.3454287333485
  0
LINE
  5
36F760
330
18
100
AcDbEntity
  8
姿図
100
AcDbLine
 10
12545.11018618356
 20
-6343.190465854451
 30
0.0
 11
12544.86775236168
 21
-6342.595222394747
 31
0.0
  0
ARC
  5
36F761
330
18
100
AcDbEntity
  8
姿図
100
AcDbCircle
 10
12545.06515529739
 20
-6343.208070136324
 30
0.0
 40
0.0483496789032122
100
AcDbArc
 50
268.2305080488277
 51
21.35241405565678
  0
LINE
  5
36F762
330
18
100
AcDbEntity
  8
姿図
100
AcDbLine
 10
12544.913705769
 20
-6343.255402125112
 30
0.0
 11
12545.06366232934
 21
-6343.256396759386
 31
0.0
  0
ARC
  5
36F763
330
18
100
AcDbEntity
  8
姿図
100
AcDbCircle
 10
12544.91222574318
 20
-6343.303740057787
 30
0.0
 40
0.0483605853111229
100
AcDbArc
 50
88.24624794041318
 51
201.3422560710059
  0
LINE
  5
36F764
330
18
100
AcDbEntity
  8
姿図
100
AcDbLine
 10
12545.10961540005
 20
-6343.916583784809
 30
0.0
 11
12544.86718157816
 21
-6343.321340325103
 31
0.0
  0
ARC
  5
36F765
330
18
100
AcDbEntity
  8
姿図
100
AcDbCircle
 10
12545.06457608644
 20
-6343.934182119902
 30
0.0
 40
0.0483553633864675
100
AcDbArc
 50
268.2407064438097
 51
21.34221566069736
  0
LINE
  5
36F766
330
18
100
AcDbEntity
  8
姿図
100
AcDbLine
 10
12544.9131349855
 20
-6343.981520055471
 30
0.0
 11
12545.06309154583
 21
-6343.982514689742
 31
0.0
  0
ARC
  5
36F767
330
18
100
AcDbEntity
  8
姿図
100
AcDbCircle
 10
12544.91164504901
 20
-6344.02984906562
 30
0.0
 40
0.0483519713451406
100
AcDbArc
 50
88.23418599692508
 51
201.3484190667075
  0
LINE
  5
36F768
330
18
100
AcDbEntity
  8
姿図
100
AcDbLine
 10
12545.10904462221
 20
-6344.642694501884
 30
0.0
 11
12544.86661080032
 21
-6344.047451042176
 31
0.0
  0
ARC
  5
36F769
330
18
100
AcDbEntity
  8
姿図
100
AcDbCircle
 10
12545.06401062875
 20
-6344.660296591112
 30
0.0
 40
0.0483517746565583
100
AcDbArc
 50
268.2342685886143
 51
21.34865351593695
  0
LINE
  5
36F76A
330
18
100
AcDbEntity
  8
姿図
100
AcDbLine
 10
12544.91256420765
 20
-6344.707630772543
 30
0.0
 11
12545.06252076798
 21
-6344.708625406816
 31
0.0
  0
ARC
  5
36F76B
330
18
100
AcDbEntity
  8
姿図
100
AcDbCircle
 10
12544.91107674224
 20
-6344.755961526407
 30
0.0
 40
0.0483536381515237
100
AcDbArc
 50
88.2371763303952
 51
201.3454287332996
  0
LINE
  5
36F76C
330
18
100
AcDbEntity
  8
姿図
100
AcDbLine
 10
12545.10847384437
 20
-6345.368805218957
 30
0.0
 11
12544.86604002248
 21
-6344.77356175925
 31
0.0
  0
ARC
  5
36F76D
330
18
100
AcDbEntity
  8
姿図
100
AcDbCircle
 10
12545.06344232194
 20
-6345.386409051859
 30
0.0
 40
0.0483501080174192
100
AcDbArc
 50
268.2312780919753
 51
21.35164401253283
  0
LINE
  5
36F76E
330
18
100
AcDbEntity
  8
姿図
100
AcDbLine
 10
12544.91199342981
 20
-6345.433741489617
 30
0.0
 11
12545.06194999014
 21
-6345.434736123888
 31
0.0
  0
ARC
  5
36F76F
330
18
100
AcDbEntity
  8
姿図
100
AcDbCircle
 10
12544.91051128448
 20
-6345.482075997598
 30
0.0
 40
0.0483572271395771
100
AcDbArc
 50
88.24361365148718
 51
201.3389914121186
  0
LINE
  5
36F770
330
18
100
AcDbEntity
  8
姿図
100
AcDbLine
 10
12545.10790306653
 20
-6346.094915936031
 30
0.0
 11
12544.86546924464
 21
-6345.499672476324
 31
0.0
  0
ARC
  5
36F771
330
18
100
AcDbEntity
  8
姿図
100
AcDbCircle
 10
12545.06286694789
 20
-6346.112521813246
 30
0.0
 40
0.0483551330706174
100
AcDbArc
 50
268.2369038434534
 51
21.35191720454413
  0
LINE
  5
36F772
330
18
100
AcDbEntity
  8
姿図
100
AcDbLine
 10
12544.9114226463
 20
-6346.159859419973
 30
0.0
 11
12545.06137920663
 21
-6346.160854054247
 31
0.0
  0
ARC
  5
36F773
330
18
100
AcDbEntity
  8
姿図
100
AcDbCircle
 10
12544.90993306139
 20
-6346.208186748777
 30
0.0
 40
0.0483502799634942
100
AcDbArc
 50
88.23454102182485
 51
201.342164231663
  0
LINE
  5
36F774
330
18
100
AcDbEntity
  8
姿図
100
AcDbLine
 10
12545.10733228302
 20
-6346.821033866387
 30
0.0
 11
12544.8648984668
 21
-6346.225783193397
 31
0.0
  0
ARC
  5
36F775
330
18
100
AcDbEntity
  8
姿図
100
AcDbCircle
 10
12545.06230662846
 20
-6346.838636552767
 30
0.0
 40
0.0483442254627419
100
AcDbArc
 50
268.2241118064085
 51
21.35291049254959
  0
ELLIPSE
  5
36F776
330
18
100
AcDbEntity
  8
姿図
100
AcDbEllipse
 10
12545.01336499546
 20
-6347.343123685732
 30
0.0
 11
0.0497644302128482
 21
-0.004847997149981
 31
0.0
210
0.0
220
0.0
230
1.0
 40
0.9700320578737475
 41
5.908553978399579
 42
6.286369919591161
  0
LINE
  5
36F777
330
18
100
AcDbEntity
  8
姿図
100
AcDbLine
 10
12505.52789708421
 20
-6343.491003566177
 30
0.0
 11
12505.57463275571
 21
-6342.994374358305
 31
0.0
  0
ELLIPSE
  5
36F778
330
18
100
AcDbEntity
  8
姿図
100
AcDbEllipse
 10
12505.52794502308
 20
-6343.442491674262
 30
0.0
 11
0.0497644302128766
 21
-0.0048479971499821
 31
0.0
210
0.0
220
0.0
230
1.0
 40
0.9700320578737646
 41
3.144777266001347
 42
4.805645468667418
  0
LINE
  5
36F779
330
18
100
AcDbEntity
  8
姿図
100
AcDbLine
 10
12505.52789708421
 20
-6343.491003566177
 30
0.0
 11
12505.59443982301
 21
-6343.491444792466
 31
0.0
  0
ELLIPSE
  5
36F77A
330
18
100
AcDbEntity
  8
姿図
100
AcDbEllipse
 10
12545.01408718657
 20
-6346.615401883134
 30
0.0
 11
0.0497644302128482
 21
-0.004847997149981
 31
0.0
210
0.0
220
0.0
230
1.0
 40
0.9700320578743147
 41
5.361799342221552
 42
6.286369919589991
  0
LINE
  5
36F77B
330
18
100
AcDbEntity
  8
姿図
100
AcDbLine
 10
12505.52861914998
 20
-6342.763283259357
 30
0.0
 11
12505.57520353355
 21
-6342.26826364123
 31
0.0
  0
ELLIPSE
  5
36F77C
330
18
100
AcDbEntity
  8
姿図
100
AcDbEllipse
 10
12505.52866721419
 20
-6342.714769871666
 30
0.0
 11
0.0497644302128776
 21
-0.0048479971499537
 31
0.0
210
0.0
220
0.0
230
1.0
 40
0.9700320578726632
 41
3.144777266000768
 42
4.805645468666802
  0
LINE
  5
36F77D
330
18
100
AcDbEntity
  8
姿図
100
AcDbLine
 10
12505.52861914998
 20
-6342.763283259357
 30
0.0
 11
12505.59567021131
 21
-6342.763728806041
 31
0.0
  0
ELLIPSE
  5
36F77E
330
18
100
AcDbEntity
  8
姿図
100
AcDbEllipse
 10
12545.01480937768
 20
-6345.887680080539
 30
0.0
 11
0.0497644302128766
 21
-0.0048479971499821
 31
0.0
210
0.0
220
0.0
230
1.0
 40
0.9700320578731972
 41
5.346539597269806
 42
6.28636991959113
  0
LINE
  5
36F77F
330
18
100
AcDbEntity
  8
姿図
100
AcDbLine
 10
12505.52934118892
 20
-6342.03556427153
 30
0.0
 11
12505.57577431139
 21
-6341.542152924158
 31
0.0
  0
ELLIPSE
  5
36F780
330
18
100
AcDbEntity
  8
姿図
100
AcDbEllipse
 10
12505.5293894053
 20
-6341.98704806907
 30
0.0
 11
0.0497644302128756
 21
-0.0048479971500105
 31
0.0
210
0.0
220
0.0
230
1.0
 40
0.9700320578737311
 41
3.144777266001933
 42
4.805645468668535
  0
LINE
  5
36F781
330
18
100
AcDbEntity
  8
姿図
100
AcDbLine
 10
12505.52934118892
 20
-6342.03556427153
 30
0.0
 11
12505.59690324718
 21
-6342.03601216542
 31
0.0
  0
ELLIPSE
  5
36F782
330
18
100
AcDbEntity
  8
姿図
100
AcDbEllipse
 10
12545.01553156879
 20
-6345.159958277942
 30
0.0
 11
0.049764430212905
 21
-0.0048479971499831
 31
0.0
210
0.0
220
0.0
230
1.0
 40
0.9700320578732142
 41
5.331317982318678
 42
6.286369919589406
  0
LINE
  5
36F783
330
18
100
AcDbEntity
  8
姿図
100
AcDbLine
 10
12505.53006325469
 20
-6341.30784396471
 30
0.0
 11
12505.57634508923
 21
-6340.816042207084
 31
0.0
  0
ELLIPSE
  5
36F784
330
18
100
AcDbEntity
  8
姿図
100
AcDbEllipse
 10
12505.53011159641
 20
-6341.259326266475
 30
0.0
 11
0.0497644302128492
 21
-0.0048479971499526
 31
0.0
210
0.0
220
0.0
230
1.0
 40
0.9700320578732134
 41
3.144777265999665
 42
4.805645468666889
  0
LINE
  5
36F785
330
18
100
AcDbEntity
  8
姿図
100
AcDbLine
 10
12505.53006325469
 20
-6341.30784396471
 30
0.0
 11
12505.59813363548
 21
-6341.308296178993
 31
0.0
  0
ELLIPSE
  5
36F786
330
18
100
AcDbEntity
  8
姿図
100
AcDbEllipse
 10
12545.0162537599
 20
-6344.432236475348
 30
0.0
 11
0.049764430212906
 21
-0.004847997149954701
 31
0.0
210
0.0
220
0.0
230
1.0
 40
0.9700320578721127
 41
5.316130710951623
 42
6.286369919590545
  0
LINE
  5
36F787
330
18
100
AcDbEntity
  8
姿図
100
AcDbLine
 10
12505.5307852993
 20
-6340.580117763598
 30
0.0
 11
12505.57691587274
 21
-6340.089924276727
 31
0.0
  0
ELLIPSE
  5
36F788
330
18
100
AcDbEntity
  8
姿図
100
AcDbEllipse
 10
12505.53083378752
 20
-6340.53160446388
 30
0.0
 11
0.0497644302128766
 21
-0.0048479971499821
 31
0.0
210
0.0
220
0.0
230
1.0
 40
0.9700320578731972
 41
3.144777266000799
 42
4.805645468667385
  0
LINE
  5
36F789
330
18
100
AcDbEntity
  8
姿図
100
AcDbLine
 10
12505.5307852993
 20
-6340.580117763598
 30
0.0
 11
12505.59936402946
 21
-6340.580572979284
 31
0.0
  0
ELLIPSE
  5
36F78A
330
18
100
AcDbEntity
  8
姿図
100
AcDbEllipse
 10
12545.01697595101
 20
-6343.704514672753
 30
0.0
 11
0.0497644302128776
 21
-0.0048479971499537
 31
0.0
210
0.0
220
0.0
230
1.0
 40
0.9700320578726632
 41
5.3009740708885
 42
6.28636991959058
  0
LINE
  5
36F78B
330
18
100
AcDbEntity
  8
姿図
100
AcDbLine
 10
12505.53150736507
 20
-6339.852397456777
 30
0.0
 11
12505.57748665058
 21
-6339.363813559653
 31
0.0
  0
ELLIPSE
  5
36F78C
330
18
100
AcDbEntity
  8
姿図
100
AcDbEllipse
 10
12505.53155597863
 20
-6339.803882661284
 30
0.0
 11
0.0497644302128492
 21
-0.0048479971499526
 31
0.0
210
0.0
220
0.0
230
1.0
 40
0.9700320578737806
 41
3.144777265999662
 42
4.805645468666943
  0
LINE
  5
36F78D
330
18
100
AcDbEntity
  8
姿図
100
AcDbLine
 10
12505.53150736507
 20
-6339.852397456777
 30
0.0
 11
12505.60059444459
 21
-6339.852855673868
 31
0.0
  0
ELLIPSE
  5
36F78E
330
18
100
AcDbEntity
  8
姿図
100
AcDbEllipse
 10
12545.01769814212
 20
-6342.976792870158
 30
0.0
 11
0.0497644302128766
 21
-0.0048479971499821
 31
0.0
210
0.0
220
0.0
230
1.0
 40
0.9700320578737646
 41
5.285844415232128
 42
6.286369919589991
  0
LINE
  5
36F78F
330
18
100
AcDbEntity
  8
姿図
100
AcDbLine
 10
12505.53222940401
 20
-6339.124678468948
 30
0.0
 11
12505.57805742842
 21
-6338.637702842579
 31
0.0
  0
ELLIPSE
  5
36F790
330
18
100
AcDbEntity
  8
姿図
100
AcDbEllipse
 10
12505.53227816974
 20
-6339.076160858688
 30
0.0
 11
0.049764430212906
 21
-0.004847997149954701
 31
0.0
210
0.0
220
0.0
230
1.0
 40
0.9700320578721127
 41
3.144777266000768
 42
4.805645468666738
  0
LINE
  5
36F791
330
18
100
AcDbEntity
  8
姿図
100
AcDbLine
 10
12505.53222940401
 20
-6339.124678468948
 30
0.0
 11
12505.6018248329
 21
-6339.125139687443
 31
0.0
  0
ELLIPSE
  5
36F792
330
18
100
AcDbEntity
  8
姿図
100
AcDbEllipse
 10
12545.01842033323
 20
-6342.249071067561
 30
0.0
 11
0.0497644302128492
 21
-0.0048479971499526
 31
0.0
210
0.0
220
0.0
230
1.0
 40
0.9700320578732134
 41
5.270738154098111
 42
6.28636991959058
  0
LINE
  5
36F793
330
18
100
AcDbEntity
  8
姿図
100
AcDbLine
 10
12505.53295147545
 20
-6338.396950948845
 30
0.0
 11
12505.57862821193
 21
-6337.911584912223
 31
0.0
  0
ELLIPSE
  5
36F794
330
18
100
AcDbEntity
  8
姿図
100
AcDbEllipse
 10
12505.53300036085
 20
-6338.348439056092
 30
0.0
 11
0.0497644302128766
 21
-0.0048479971499821
 31
0.0
210
0.0
220
0.0
230
1.0
 40
0.9700320578737992
 41
3.144777266001415
 42
4.805645468666853
  0
LINE
  5
36F795
330
18
100
AcDbEntity
  8
姿図
100
AcDbLine
 10
12505.53295147545
 20
-6338.396950948845
 30
0.0
 11
12505.60305522687
 21
-6338.397416487734
 31
0.0
  0
ELLIPSE
  5
36F796
330
18
100
AcDbEntity
  8
姿図
100
AcDbEllipse
 10
12545.01914252434
 20
-6341.521349264965
 30
0.0
 11
0.0497644302128482
 21
-0.004847997149981
 31
0.0
210
0.0
220
0.0
230
1.0
 40
0.9700320578743497
 41
5.255651746606652
 42
6.286369919591127
  0
LINE
  5
36F797
330
18
100
AcDbEntity
  8
姿図
100
AcDbLine
 10
12505.53367351439
 20
-6337.669231961015
 30
0.0
 11
12505.57919898978
 21
-6337.18547419515
 31
0.0
  0
ELLIPSE
  5
36F798
330
18
100
AcDbEntity
  8
姿図
100
AcDbEllipse
 10
12505.53372255196
 20
-6337.620717253499
 30
0.0
 11
0.049764430212906
 21
-0.004847997149954701
 31
0.0
210
0.0
220
0.0
230
1.0
 40
0.9700320578721127
 41
3.144777265999564
 42
4.805645468667286
  0
LINE
  5
36F799
330
18
100
AcDbEntity
  8
姿図
100
AcDbLine
 10
12505.53367351439
 20
-6337.669231961015
 30
0.0
 11
12505.60428826274
 21
-6337.669699847113
 31
0.0
  0
ELLIPSE
  5
36F79A
330
18
100
AcDbEntity
  8
姿図
100
AcDbEllipse
 10
12545.01986471545
 20
-6340.793627462371
 30
0.0
 11
0.0497644302128766
 21
-0.0048479971499821
 31
0.0
210
0.0
220
0.0
230
1.0
 40
0.9700320578731972
 41
5.240581693139801
 42
6.286369919589959
  0
LINE
  5
36F79B
330
18
100
AcDbEntity
  8
姿図
100
AcDbLine
 10
12505.53439558016
 20
-6336.941511654197
 30
0.0
 11
12505.57976976762
 21
-6336.459363478077
 31
0.0
  0
ELLIPSE
  5
36F79C
330
18
100
AcDbEntity
  8
姿図
100
AcDbEllipse
 10
12505.53444474307
 20
-6336.892995450902
 30
0.0
 11
0.0497644302128766
 21
-0.0048479971499821
 31
0.0
210
0.0
220
0.0
230
1.0
 40
0.9700320578731972
 41
3.144777266000181
 42
4.805645468667425
  0
LINE
  5
36F79D
330
18
100
AcDbEntity
  8
姿図
100
AcDbLine
 10
12505.53439558016
 20
-6336.941511654197
 30
0.0
 11
12505.60551865104
 21
-6336.941983860688
 31
0.0
  0
ELLIPSE
  5
36F79E
330
18
100
AcDbEntity
  8
姿図
100
AcDbEllipse
 10
12545.02058690656
 20
-6340.065905659775
 30
0.0
 11
0.049764430212905
 21
-0.0048479971499831
 31
0.0
210
0.0
220
0.0
230
1.0
 40
0.9700320578732142
 41
5.225524527859134
 42
6.286369919590575
  0
LINE
  5
36F79F
330
18
100
AcDbEntity
  8
姿図
100
AcDbLine
 10
12505.53512027233
 20
-6336.213784798889
 30
0.0
 11
12505.58034055113
 21
-6335.73324554772
 31
0.0
  0
ELLIPSE
  5
36F7A0
330
18
100
AcDbEntity
  8
姿図
100
AcDbEllipse
 10
12505.53516693418
 20
-6336.165273648306
 30
0.0
 11
0.0497644302128766
 21
-0.0048479971499821
 31
0.0
210
0.0
220
0.0
230
1.0
 40
0.9700320578737646
 41
3.144777266001347
 42
4.805645468667418
  0
LINE
  5
36F7A1
330
18
100
AcDbEntity
  8
姿図
100
AcDbLine
 10
12505.53512027233
 20
-6336.213784798889
 30
0.0
 11
12505.60674904501
 21
-6336.214260660979
 31
0.0
  0
SPLINE
  5
36F7A2
330
18
100
AcDbEntity
  8
姿図
100
AcDbSpline
210
0.0
220
0.0
230
1.0
 70
     8
 71
     3
 72
    12
 73
     8
 74
     0
 42
0.000000001
 43
0.0000000001
 40
0.0
 40
0.0
 40
0.0
 40
0.0
 40
0.1939239886068864
 40
0.4347907508075725
 40
0.6814103085800322
 40
0.9400786761383074
 40
1.0
 40
1.0
 40
1.0
 40
1.0
 10
12507.37881742942
 20
-6331.106742550162
 30
0.0
 10
12507.37563454494
 20
-6331.044963647055
 30
0.0
 10
12507.36849830181
 20
-6330.906451151211
 30
0.0
 10
12507.32922260929
 20
-6330.72646424841
 30
0.0
 10
12507.26762980814
 20
-6330.596656448824
 30
0.0
 10
12507.21121404415
 20
-6330.536726035782
 30
0.0
 10
12507.17860145946
 20
-6330.548328657436
 30
0.0
 10
12507.17246758476
 20
-6330.550510914014
 30
0.0
  0
ELLIPSE
  5
36F7A3
330
18
100
AcDbEntity
  8
姿図
100
AcDbEllipse
 10
12545.02130909767
 20
-6339.338183857178
 30
0.0
 11
0.0497644302128776
 21
-0.0048479971499537
 31
0.0
210
0.0
220
0.0
230
1.0
 40
0.9700320578726632
 41
5.210476811402608
 42
6.28636991959058
  0
LINE
  5
36F7A4
330
18
100
AcDbEntity
  8
姿図
100
AcDbLine
 10
12505.53583969054
 20
-6335.486065146265
 30
0.0
 11
12505.58091132897
 21
-6335.007134830648
 31
0.0
  0
ELLIPSE
  5
36F7A5
330
18
100
AcDbEntity
  8
姿図
100
AcDbEllipse
 10
12505.53588912529
 20
-6335.437551845711
 30
0.0
 11
0.0497644302128776
 21
-0.0048479971499537
 31
0.0
210
0.0
220
0.0
230
1.0
 40
0.9700320578726632
 41
3.144777265999046
 42
4.805645468666823
  0
LINE
  5
36F7A6
330
18
100
AcDbEntity
  8
姿図
100
AcDbLine
 10
12505.53583969054
 20
-6335.486065146265
 30
0.0
 11
12505.60797943332
 21
-6335.486544674553
 31
0.0
  0
ELLIPSE
  5
36F7A7
330
18
100
AcDbEntity
  8
姿図
100
AcDbEllipse
 10
12545.02203128878
 20
-6338.610462054584
 30
0.0
 11
0.0497644302128776
 21
-0.0048479971499537
 31
0.0
210
0.0
220
0.0
230
1.0
 40
0.9700320578726978
 41
5.195435123748209
 42
6.286369919590545
  0
LINE
  5
36F7A8
330
18
100
AcDbEntity
  8
姿図
100
AcDbLine
 10
12505.53656437704
 20
-6334.758345504241
 30
0.0
 11
12505.58148210681
 21
-6334.281024113573
 31
0.0
  0
ELLIPSE
  5
36F7A9
330
18
100
AcDbEntity
  8
姿図
100
AcDbEllipse
 10
12505.5366113164
 20
-6334.709830043117
 30
0.0
 11
0.0497644302128482
 21
-0.004847997149981
 31
0.0
210
0.0
220
0.0
230
1.0
 40
0.9700320578743147
 41
3.144777266001415
 42
4.805645468666936
  0
LINE
  5
36F7AA
330
18
100
AcDbEntity
  8
姿図
100
AcDbLine
 10
12505.53656437704
 20
-6334.758345504241
 30
0.0
 11
12505.60920984846
 21
-6334.758827369137
 31
0.0
  0
ELLIPSE
  5
36F7AB
330
18
100
AcDbEntity
  8
姿図
100
AcDbEllipse
 10
12545.02275347989
 20
-6337.882740251988
 30
0.0
 11
0.049764430212905
 21
-0.0048479971499831
 31
0.0
210
0.0
220
0.0
230
1.0
 40
0.9700320578732142
 41
5.180396057180005
 42
6.286369919590543
  0
LINE
  5
36F7AC
330
18
100
AcDbEntity
  8
姿図
100
AcDbLine
 10
12505.53728379525
 20
-6334.030625851617
 30
0.0
 11
12505.58205288465
 21
-6333.554913396499
 31
0.0
  0
ELLIPSE
  5
36F7AD
330
18
100
AcDbEntity
  8
姿図
100
AcDbEllipse
 10
12505.53733350751
 20
-6333.98210824052
 30
0.0
 11
0.0497644302128766
 21
-0.0048479971499821
 31
0.0
210
0.0
220
0.0
230
1.0
 40
0.9700320578731972
 41
3.144777266000799
 42
4.805645468667385
  0
LINE
  5
36F7AE
330
18
100
AcDbEntity
  8
姿図
100
AcDbLine
 10
12505.53728379525
 20
-6334.030625851617
 30
0.0
 11
12505.61044023676
 21
-6334.031111382711
 31
0.0
  0
ELLIPSE
  5
36F7AF
330
18
100
AcDbEntity
  8
姿図
100
AcDbEllipse
 10
12545.02347567099
 20
-6337.155018449394
 30
0.0
 11
0.0497644302128492
 21
-0.0048479971499526
 31
0.0
210
0.0
220
0.0
230
1.0
 40
0.9700320578732134
 41
5.165356209316446
 42
6.28636991959058
  0
LINE
  5
36F7B0
330
18
100
AcDbEntity
  8
姿図
100
AcDbLine
 10
12505.53800848742
 20
-6333.30289899631
 30
0.0
 11
12505.58262366816
 21
-6332.828795466142
 31
0.0
  0
ELLIPSE
  5
36F7B1
330
18
100
AcDbEntity
  8
姿図
100
AcDbEllipse
 10
12505.53805569861
 20
-6333.254386437923
 30
0.0
 11
0.049764430212906
 21
-0.004847997149954701
 31
0.0
210
0.0
220
0.0
230
1.0
 40
0.9700320578726802
 41
3.14477726600018
 42
4.80564546866675
  0
LINE
  5
36F7B2
330
18
100
AcDbEntity
  8
姿図
100
AcDbLine
 10
12505.53800848742
 20
-6333.30289899631
 30
0.0
 11
12505.61167063074
 21
-6333.303388183002
 31
0.0
  0
LINE
  5
36F7B3
330
18
100
AcDbEntity
  8
姿図
100
AcDbLine
 10
12505.48970720387
 20
-6331.604550488395
 30
0.0
 11
12505.53396941522
 21
-6331.13420090898
 31
0.0
  0
ELLIPSE
  5
36F7B4
330
18
100
AcDbEntity
  8
姿図
100
AcDbEllipse
 10
12505.98956770102
 20
-6331.607868757508
 30
0.0
 11
0.4976443021287678
 21
-0.048479971499764
 31
0.0
210
0.0
220
0.0
230
1.0
 40
0.9700320578732075
 41
3.144777266000676
 42
3.234849141872524
  0
SPLINE
  5
36F7B5
330
18
100
AcDbEntity
  8
姿図
100
AcDbSpline
210
0.0
220
0.0
230
1.0
 70
     8
 71
     3
 72
    12
 73
     8
 74
     0
 42
0.000000001
 43
0.0000000001
 40
0.0
 40
0.0
 40
0.0
 40
0.0
 40
0.1948397688774719
 40
0.435729924109194
 40
0.6823921668298342
 40
0.9411050196394608
 40
1.0
 40
1.0
 40
1.0
 40
1.0
 10
12543.33073754432
 20
-6331.345295500514
 30
0.0
 10
12543.33380468108
 20
-6331.283270071271
 30
0.0
 10
12543.34066387246
 20
-6331.144559500356
 30
0.0
 10
12543.3757722731
 20
-6330.965001474367
 30
0.0
 10
12543.42979485189
 20
-6330.836222809716
 30
0.0
 10
12543.47874082462
 20
-6330.777291149161
 30
0.0
 10
12543.50649898632
 20
-6330.789281244278
 30
0.0
 10
12543.51164626613
 20
-6330.791504603854
 30
0.0
  0
ELLIPSE
  5
36F7B6
330
18
100
AcDbEntity
  8
姿図
100
AcDbEllipse
 10
12545.02419786211
 20
-6336.427296646797
 30
0.0
 11
0.0497644302128766
 21
-0.0048479971499821
 31
0.0
210
0.0
220
0.0
230
1.0
 40
0.9700320578737646
 41
5.150312176192761
 42
6.286369919590543
  0
LINE
  5
36F7B7
330
18
100
AcDbEntity
  8
姿図
100
AcDbLine
 10
12505.53872790563
 20
-6332.575179343685
 30
0.0
 11
12505.583194446
 21
-6332.102684749068
 31
0.0
  0
ELLIPSE
  5
36F7B8
330
18
100
AcDbEntity
  8
姿図
100
AcDbEllipse
 10
12505.53877788973
 20
-6332.526664635328
 30
0.0
 11
0.049764430212905
 21
-0.0048479971499831
 31
0.0
210
0.0
220
0.0
230
1.0
 40
0.9700320578726467
 41
3.144777266001316
 42
4.805645468667846
  0
LINE
  5
36F7B9
330
18
100
AcDbEntity
  8
姿図
100
AcDbLine
 10
12505.53872790563
 20
-6332.575179343685
 30
0.0
 11
12505.6129036666
 21
-6332.575671542381
 31
0.0
  0
ELLIPSE
  5
36F7BA
330
18
100
AcDbEntity
  8
姿図
100
AcDbEllipse
 10
12545.02492005322
 20
-6335.699574844202
 30
0.0
 11
0.0497644302128766
 21
-0.0048479971499821
 31
0.0
210
0.0
220
0.0
230
1.0
 40
0.9700320578731972
 41
5.135260545305389
 42
6.286369919590543
  0
LINE
  5
36F7BB
330
18
100
AcDbEntity
  8
姿図
100
AcDbLine
 10
12505.4895146625
 20
-6331.798612468436
 30
0.0
 11
12505.53381720477
 21
-6331.327834280619
 31
0.0
  0
LINE
  5
36F7BC
330
18
100
AcDbEntity
  8
姿図
100
AcDbLine
 10
12505.53945259213
 20
-6331.847459701661
 30
0.0
 11
12505.58376522385
 21
-6331.376574031995
 31
0.0
  0
ELLIPSE
  5
36F7BD
330
18
100
AcDbEntity
  8
姿図
100
AcDbEllipse
 10
12505.53950008084
 20
-6331.798942832733
 30
0.0
 11
0.0497644302128776
 21
-0.0048479971499537
 31
0.0
210
0.0
220
0.0
230
1.0
 40
0.9700320578726632
 41
3.234849141871233
 42
4.80564546866737
  0
LINE
  5
36F7BE
330
18
100
AcDbEntity
  8
姿図
100
AcDbLine
 10
12505.53945259213
 20
-6331.847459701661
 30
0.0
 11
12505.6141340549
 21
-6331.847955555956
 31
0.0
  0
LINE
  5
36F7BF
330
18
100
AcDbEntity
  8
姿図
100
AcDbLine
 10
12505.4895146625
 20
-6331.798612468436
 30
0.0
 11
12505.48970720387
 21
-6331.604550488395
 31
0.0
  0
ELLIPSE
  5
36F7C0
330
18
100
AcDbEntity
  8
姿図
100
AcDbEllipse
 10
12545.02564224432
 20
-6334.971853041607
 30
0.0
 11
0.0497644302129039
 21
-0.0048479971500115
 31
0.0
210
0.0
220
0.0
230
1.0
 40
0.9700320578731808
 41
5.120197888629753
 42
6.286369919590575
  0
ELLIPSE
  5
36F7C1
330
18
100
AcDbEntity
  8
姿図
100
AcDbEllipse
 10
12545.02636443543
 20
-6334.24413123901
 30
0.0
 11
0.0497644302128766
 21
-0.0048479971499821
 31
0.0
210
0.0
220
0.0
230
1.0
 40
0.9700320578731972
 41
5.105120755535023
 42
6.286369919590576
  0
ELLIPSE
  5
36F7C2
330
18
100
AcDbEntity
  8
姿図
100
AcDbEllipse
 10
12545.02708662654
 20
-6333.516409436414
 30
0.0
 11
0.0497644302128766
 21
-0.0048479971499821
 31
0.0
210
0.0
220
0.0
230
1.0
 40
0.9700320578732317
 41
5.090025665587392
 42
6.286369919590576
  0
ELLIPSE
  5
36F7C3
330
18
100
AcDbEntity
  8
姿図
100
AcDbEllipse
 10
12545.02780881765
 20
-6332.788687633819
 30
0.0
 11
0.049764430212905
 21
-0.0048479971499831
 31
0.0
210
0.0
220
0.0
230
1.0
 40
0.9700320578732142
 41
5.074909101155594
 42
6.286369919591127
  0
ELLIPSE
  5
36F7C4
330
18
100
AcDbEntity
  8
姿図
100
AcDbEllipse
 10
12545.02853100876
 20
-6332.060965831225
 30
0.0
 11
0.0497644302128482
 21
-0.004847997149981
 31
0.0
210
0.0
220
0.0
230
1.0
 40
0.9700320578737475
 41
5.059767499828462
 42
6.376441795462699
  0
LINE
  5
36F7C5
330
18
100
AcDbEntity
  8
姿図
100
AcDbLine
 10
12505.39004867072
 20
-6347.836007742433
 30
0.0
 11
12505.47803394248
 21
-6347.836591700549
 31
0.0
  0
ELLIPSE
  5
36F7C6
330
18
100
AcDbEntity
  8
姿図
100
AcDbEllipse
 10
12505.3900778733
 20
-6347.787704525824
 30
0.0
 11
0.0497933520033152
 21
-0.0045413093706535
 31
0.0
210
0.0
220
0.0
230
1.0
 40
0.9657401151473084
 41
2.851612759697806
 42
4.799681473982996
  0
LINE
  5
36F7C7
330
18
100
AcDbEntity
  8
姿図
100
AcDbLine
 10
12505.47893087845
 20
-6347.441003767091
 30
0.0
 11
12505.34361740442
 21
-6347.76959949172
 31
0.0
  0
LINE
  5
36F7C8
330
18
100
AcDbEntity
  8
姿図
100
AcDbLine
 10
12505.39047081386
 20
-6347.111498747628
 30
0.0
 11
12505.47967822068
 21
-6347.112090440944
 31
0.0
  0
ELLIPSE
  5
36F7C9
330
18
100
AcDbEntity
  8
姿図
100
AcDbEllipse
 10
12505.39049724123
 20
-6347.063200624009
 30
0.0
 11
0.0497933520032868
 21
-0.0045413093706525
 31
0.0
210
0.0
220
0.0
230
1.0
 40
0.9657401151472575
 41
2.851612759699318
 42
4.799681473982412
  0
LINE
  5
36F7CA
330
18
100
AcDbEntity
  8
姿図
100
AcDbLine
 10
12505.51703847918
 20
-6346.624971126658
 30
0.0
 11
12505.34403692116
 21
-6347.045097045402
 31
0.0
  0
ELLIPSE
  5
36F7CB
330
18
100
AcDbEntity
  8
姿図
100
AcDbEllipse
 10
12505.54081903874
 20
-6346.43629226648
 30
0.0
 11
0.0497933520033152
 21
-0.0045413093706535
 31
0.0
210
0.0
220
0.0
230
1.0
 40
0.9657401151473084
 41
0.5811735947602868
 42
0.8768015160645122
  0
LINE
  5
36F7CC
330
18
100
AcDbEntity
  8
姿図
100
AcDbLine
 10
12505.39088768304
 20
-6346.386996955505
 30
0.0
 11
12505.48988527397
 21
-6346.387653854434
 31
0.0
  0
ELLIPSE
  5
36F7CD
330
18
100
AcDbEntity
  8
姿図
100
AcDbEllipse
 10
12505.39091660916
 20
-6346.338696722193
 30
0.0
 11
0.0497933520033142
 21
-0.0045413093706819
 31
0.0
210
0.0
220
0.0
230
1.0
 40
0.9657401151466799
 41
2.851612759699706
 42
4.79968147398288
  0
LINE
  5
36F7CE
330
18
100
AcDbEntity
  8
姿図
100
AcDbLine
 10
12505.51745796909
 20
-6345.90046999933
 30
0.0
 11
12505.34445641107
 21
-6346.320595918076
 31
0.0
  0
ELLIPSE
  5
36F7CF
330
18
100
AcDbEntity
  8
姿図
100
AcDbEllipse
 10
12505.54123840666
 20
-6345.711788364665
 30
0.0
 11
0.0497933520033142
 21
-0.0045413093706819
 31
0.0
210
0.0
220
0.0
230
1.0
 40
0.9657401151472472
 41
0.5934830320896407
 42
0.9766573204531395
  0
LINE
  5
36F7D0
330
18
100
AcDbEntity
  8
姿図
100
AcDbLine
 10
12505.39130982051
 20
-6345.662495173982
 30
0.0
 11
12505.49431620155
 21
-6345.663178605517
 31
0.0
  0
ELLIPSE
  5
36F7D1
330
18
100
AcDbEntity
  8
姿図
100
AcDbEllipse
 10
12505.39133597709
 20
-6345.614192820379
 30
0.0
 11
0.0497933520033426
 21
-0.004541309370683
 31
0.0
210
0.0
220
0.0
230
1.0
 40
0.9657401151461936
 41
2.851612759699344
 42
4.799681473983943
  0
LINE
  5
36F7D2
330
18
100
AcDbEntity
  8
姿図
100
AcDbLine
 10
12505.51787483828
 20
-6345.175968207207
 30
0.0
 11
12505.34487592781
 21
-6345.596093471757
 31
0.0
  0
ELLIPSE
  5
36F7D3
330
18
100
AcDbEntity
  8
姿図
100
AcDbEllipse
 10
12505.54165777459
 20
-6344.987284462851
 30
0.0
 11
0.0497933520033142
 21
-0.0045413093706819
 31
0.0
210
0.0
220
0.0
230
1.0
 40
0.9657401151472472
 41
0.605669174978061
 42
1.090753620549382
  0
LINE
  5
36F7D4
330
18
100
AcDbEntity
  8
姿図
100
AcDbLine
 10
12505.39172669536
 20
-6344.937986168575
 30
0.0
 11
12505.49965319953
 21
-6344.938701923521
 31
0.0
  0
ELLIPSE
  5
36F7D5
330
18
100
AcDbEntity
  8
姿図
100
AcDbEllipse
 10
12505.39175534502
 20
-6344.889688918563
 30
0.0
 11
0.0497933520033152
 21
-0.0045413093706535
 31
0.0
210
0.0
220
0.0
230
1.0
 40
0.9657401151467404
 41
2.85161275969914
 42
4.799681473982905
  0
LINE
  5
36F7D6
330
18
100
AcDbEntity
  8
姿図
100
AcDbLine
 10
12505.51829436069
 20
-6344.451458547606
 30
0.0
 11
12505.3452954234
 21
-6344.871585131146
 31
0.0
  0
ELLIPSE
  5
36F7D7
330
18
100
AcDbEntity
  8
姿図
100
AcDbEllipse
 10
12505.54207714253
 20
-6344.262780561035
 30
0.0
 11
0.0497933520032879
 21
-0.0045413093706241
 31
0.0
210
0.0
220
0.0
230
1.0
 40
0.9657401151473494
 41
0.6177374132266134
 42
1.230577005032737
  0
LINE
  5
36F7D8
330
18
100
AcDbEntity
  8
姿図
100
AcDbLine
 10
12505.39214883284
 20
-6344.213484387053
 30
0.0
 11
12505.50649676068
 21
-6344.2142434004
 31
0.0
  0
ELLIPSE
  5
36F7D9
330
18
100
AcDbEntity
  8
姿図
100
AcDbEllipse
 10
12505.39217471295
 20
-6344.165185016748
 30
0.0
 11
0.0497933520033436
 21
-0.0045413093706546
 31
0.0
210
0.0
220
0.0
230
1.0
 40
0.9657401151467292
 41
2.851612759698912
 42
4.799681473982915
  0
LINE
  5
36F7DA
330
18
100
AcDbEntity
  8
姿図
100
AcDbLine
 10
12505.5187138506
 20
-6343.72695742028
 30
0.0
 11
12505.34571229258
 21
-6344.147083339024
 31
0.0
  0
ELLIPSE
  5
36F7DB
330
18
100
AcDbEntity
  8
姿図
100
AcDbEllipse
 10
12505.54249651045
 20
-6343.53827665922
 30
0.0
 11
0.0497933520033152
 21
-0.0045413093706535
 31
0.0
210
0.0
220
0.0
230
1.0
 40
0.9657401151467716
 41
0.6296928130021489
 42
1.44163120058218
  0
LINE
  5
36F7DC
330
18
100
AcDbEntity
  8
姿図
100
AcDbLine
 10
12505.39256570202
 20
-6343.48898259493
 30
0.0
 11
12505.5171858219
 21
-6343.489809762291
 31
0.0
  0
ELLIPSE
  5
36F7DD
330
18
100
AcDbEntity
  8
姿図
100
AcDbEllipse
 10
12505.39259408088
 20
-6343.440681114933
 30
0.0
 11
0.0497933520033436
 21
-0.0045413093706546
 31
0.0
210
0.0
220
0.0
230
1.0
 40
0.9657401151467292
 41
2.851612759699466
 42
4.799681473982894
  0
LINE
  5
36F7DE
330
18
100
AcDbEntity
  8
姿図
100
AcDbLine
 10
12505.51913336735
 20
-6343.00245497396
 30
0.0
 11
12505.34613443005
 21
-6343.422581557501
 31
0.0
  0
ELLIPSE
  5
36F7DF
330
18
100
AcDbEntity
  8
姿図
100
AcDbEllipse
 10
12505.54291587838
 20
-6342.813772757405
 30
0.0
 11
0.0497933520033426
 21
-0.004541309370683
 31
0.0
210
0.0
220
0.0
230
1.0
 40
0.9657401151472667
 41
0.6415401442311783
 42
1.658088820393705
  0
LINE
  5
36F7E0
330
18
100
AcDbEntity
  8
姿図
100
AcDbLine
 10
12505.39298783949
 20
-6342.764480813407
 30
0.0
 11
12505.54294340698
 21
-6342.765475693004
 31
0.0
  0
ELLIPSE
  5
36F7E1
330
18
100
AcDbEntity
  8
姿図
100
AcDbEllipse
 10
12505.39301344881
 20
-6342.716177213118
 30
0.0
 11
0.0497933520033447
 21
-0.0045413093706262
 31
0.0
210
0.0
220
0.0
230
1.0
 40
0.9657401151467899
 41
2.851612759698344
 42
4.799681473982938
  0
LINE
  5
36F7E2
330
18
100
AcDbEntity
  8
姿図
100
AcDbLine
 10
12505.51955285726
 20
-6342.277953846632
 30
0.0
 11
12505.3465513049
 21
-6342.698072552093
 31
0.0
  0
ELLIPSE
  5
36F7E3
330
18
100
AcDbEntity
  8
姿図
100
AcDbEllipse
 10
12505.5433352463
 20
-6342.089268855589
 30
0.0
 11
0.0497933520033447
 21
-0.0045413093706262
 31
0.0
210
0.0
220
0.0
230
1.0
 40
0.9657401151461916
 41
0.6532839051165907
 42
1.658088820391903
  0
LINE
  5
36F7E4
330
18
100
AcDbEntity
  8
姿図
100
AcDbLine
 10
12505.39340471434
 20
-6342.039971808002
 30
0.0
 11
12505.54336290257
 21
-6342.040967352392
 31
0.0
  0
ELLIPSE
  5
36F7E5
330
18
100
AcDbEntity
  8
姿図
100
AcDbEllipse
 10
12505.39343281674
 20
-6341.991673311302
 30
0.0
 11
0.0497933520033152
 21
-0.0045413093706535
 31
0.0
210
0.0
220
0.0
230
1.0
 40
0.9657401151473084
 41
2.851612759699107
 42
4.799681473983563
  0
LINE
  5
36F7E6
330
18
100
AcDbEntity
  8
姿図
100
AcDbLine
 10
12505.51997237967
 20
-6341.553444187031
 30
0.0
 11
12505.34697344237
 21
-6341.973570770571
 31
0.0
  0
ELLIPSE
  5
36F7E7
330
18
100
AcDbEntity
  8
姿図
100
AcDbEllipse
 10
12505.54375461424
 20
-6341.364764953774
 30
0.0
 11
0.0497933520033426
 21
-0.004541309370683
 31
0.0
210
0.0
220
0.0
230
1.0
 40
0.9657401151467304
 41
0.6649283441225162
 42
1.658088820393657
  0
LINE
  5
36F7E8
330
18
100
AcDbEntity
  8
姿図
100
AcDbLine
 10
12505.39382420426
 20
-6341.315470680672
 30
0.0
 11
12505.54378241931
 21
-6341.316464906075
 31
0.0
  0
ELLIPSE
  5
36F7E9
330
18
100
AcDbEntity
  8
姿図
100
AcDbEllipse
 10
12505.39385218467
 20
-6341.267169409489
 30
0.0
 11
0.0497933520032879
 21
-0.0045413093706241
 31
0.0
210
0.0
220
0.0
230
1.0
 40
0.9657401151484227
 41
2.851612759699065
 42
4.799681473982579
  0
LINE
  5
36F7EA
330
18
100
AcDbEntity
  8
姿図
100
AcDbLine
 10
12505.52039186958
 20
-6340.828943059705
 30
0.0
 11
12505.34739031156
 21
-6341.249068978449
 31
0.0
  0
ELLIPSE
  5
36F7EB
330
18
100
AcDbEntity
  8
姿図
100
AcDbEllipse
 10
12505.54417398217
 20
-6340.640261051959
 30
0.0
 11
0.0497933520033436
 21
-0.0045413093706546
 31
0.0
210
0.0
220
0.0
230
1.0
 40
0.9657401151467603
 41
0.6764774797688272
 42
1.658088820393659
  0
LINE
  5
36F7EC
330
18
100
AcDbEntity
  8
姿図
100
AcDbLine
 10
12505.394243721
 20
-6340.590968234355
 30
0.0
 11
12505.54420190922
 21
-6340.591963778749
 31
0.0
  0
ELLIPSE
  5
36F7ED
330
18
100
AcDbEntity
  8
姿図
100
AcDbEllipse
 10
12505.3942715526
 20
-6340.542665507673
 30
0.0
 11
0.0497933520033163
 21
-0.0045413093706251
 31
0.0
210
0.0
220
0.0
230
1.0
 40
0.9657401151473073
 41
2.851612759697415
 42
4.799681473982447
  0
LINE
  5
36F7EE
330
18
100
AcDbEntity
  8
姿図
100
AcDbLine
 10
12505.52081138633
 20
-6340.104440613385
 30
0.0
 11
12505.34781244903
 21
-6340.524567196926
 31
0.0
  0
ELLIPSE
  5
36F7EF
330
18
100
AcDbEntity
  8
姿図
100
AcDbEllipse
 10
12505.5445933501
 20
-6339.915757150144
 30
0.0
 11
0.0497933520033447
 21
-0.0045413093706262
 31
0.0
210
0.0
220
0.0
230
1.0
 40
0.9657401151461916
 41
0.6879351184657951
 42
1.65808882039308
  0
LINE
  5
36F7F0
330
18
100
AcDbEntity
  8
姿図
100
AcDbLine
 10
12505.39466321658
 20
-6339.866459893745
 30
0.0
 11
12505.54462143163
 21
-6339.867454119147
 31
0.0
  0
ELLIPSE
  5
36F7F1
330
18
100
AcDbEntity
  8
姿図
100
AcDbEllipse
 10
12505.39469092053
 20
-6339.818161605857
 30
0.0
 11
0.0497933520033142
 21
-0.0045413093706819
 31
0.0
210
0.0
220
0.0
230
1.0
 40
0.9657401151467107
 41
2.851612759699522
 42
4.799681473983451
  0
LINE
  5
36F7F2
330
18
100
AcDbEntity
  8
姿図
100
AcDbLine
 10
12505.5212308819
 20
-6339.379932272773
 30
0.0
 11
12505.34822932388
 21
-6339.800058191521
 31
0.0
  0
ELLIPSE
  5
36F7F3
330
18
100
AcDbEntity
  8
姿図
100
AcDbEllipse
 10
12505.54501271803
 20
-6339.19125324833
 30
0.0
 11
0.0497933520033142
 21
-0.0045413093706819
 31
0.0
210
0.0
220
0.0
230
1.0
 40
0.9657401151472472
 41
0.6993048706449507
 42
1.658088820394301
  0
LINE
  5
36F7F4
330
18
100
AcDbEntity
  8
姿図
100
AcDbLine
 10
12505.39508273332
 20
-6339.141957447427
 30
0.0
 11
12505.54504092154
 21
-6339.142952991821
 31
0.0
  0
ELLIPSE
  5
36F7F5
330
18
100
AcDbEntity
  8
姿図
100
AcDbEllipse
 10
12505.39511028846
 20
-6339.093657704042
 30
0.0
 11
0.0497933520033152
 21
-0.0045413093706535
 31
0.0
210
0.0
220
0.0
230
1.0
 40
0.9657401151467404
 41
2.851612759698947
 42
4.799681473982905
  0
LINE
  5
36F7F6
330
18
100
AcDbEntity
  8
姿図
100
AcDbLine
 10
12505.52165039865
 20
-6338.655429826456
 30
0.0
 11
12505.34865146135
 21
-6339.075556409998
 31
0.0
  0
ELLIPSE
  5
36F7F7
330
18
100
AcDbEntity
  8
姿図
100
AcDbEllipse
 10
12505.54543208596
 20
-6338.466749346514
 30
0.0
 11
0.0497933520033163
 21
-0.0045413093706251
 31
0.0
210
0.0
220
0.0
230
1.0
 40
0.9657401151467396
 41
0.7105901653663367
 42
1.65808882039259
  0
LINE
  5
36F7F8
330
18
100
AcDbEntity
  8
姿図
100
AcDbLine
 10
12505.39549960251
 20
-6338.417455655303
 30
0.0
 11
12505.54546043829
 21
-6338.418450545502
 31
0.0
  0
ELLIPSE
  5
36F7F9
330
18
100
AcDbEntity
  8
姿図
100
AcDbEllipse
 10
12505.39552965639
 20
-6338.369153802227
 30
0.0
 11
0.0497933520033142
 21
-0.0045413093706819
 31
0.0
210
0.0
220
0.0
230
1.0
 40
0.9657401151466799
 41
2.8516127596999
 42
4.79968147398288
  0
LINE
  5
36F7FA
330
18
100
AcDbEntity
  8
姿図
100
AcDbLine
 10
12505.52206988856
 20
-6337.93092869913
 30
0.0
 11
12505.34906833054
 21
-6338.351054617874
 31
0.0
  0
ELLIPSE
  5
36F7FB
330
18
100
AcDbEntity
  8
姿図
100
AcDbEllipse
 10
12505.54585145389
 20
-6337.742245444698
 30
0.0
 11
0.0497933520033152
 21
-0.0045413093706535
 31
0.0
210
0.0
220
0.0
230
1.0
 40
0.9657401151467404
 41
0.7217942635889827
 42
1.658088820393667
  0
LINE
  5
36F7FC
330
18
100
AcDbEntity
  8
姿図
100
AcDbLine
 10
12505.39592174565
 20
-6337.692946660498
 30
0.0
 11
12505.54587993387
 21
-6337.693942204892
 31
0.0
  0
ELLIPSE
  5
36F7FD
330
18
100
AcDbEntity
  8
姿図
100
AcDbEllipse
 10
12505.39594902432
 20
-6337.644649900411
 30
0.0
 11
0.0497933520033436
 21
-0.0045413093706546
 31
0.0
210
0.0
220
0.0
230
1.0
 40
0.9657401151467603
 41
2.851612759698921
 42
4.799681473982918
  0
LINE
  5
36F7FE
330
18
100
AcDbEntity
  8
姿図
100
AcDbLine
 10
12505.5224894053
 20
-6337.206426252811
 30
0.0
 11
12505.34949047368
 21
-6337.626545623067
 31
0.0
  0
ELLIPSE
  5
36F7FF
330
18
100
AcDbEntity
  8
姿図
100
AcDbEllipse
 10
12505.54627082182
 20
-6337.017741542883
 30
0.0
 11
0.0497933520033142
 21
-0.0045413093706819
 31
0.0
210
0.0
220
0.0
230
1.0
 40
0.9657401151472472
 41
0.7329202702323901
 42
1.658088820394281
  0
LINE
  5
36F800
330
18
100
AcDbEntity
  8
姿図
100
AcDbLine
 10
12505.39633861483
 20
-6336.968444868375
 30
0.0
 11
12505.54629945061
 21
-6336.969439758572
 31
0.0
  0
ELLIPSE
  5
36F801
330
18
100
AcDbEntity
  8
姿図
100
AcDbEllipse
 10
12505.39636839225
 20
-6336.920145998597
 30
0.0
 11
0.0497933520033436
 21
-0.0045413093706546
 31
0.0
210
0.0
220
0.0
230
1.0
 40
0.9657401151467908
 41
2.85161275969893
 42
4.799681473983487
  0
LINE
  5
36F802
330
18
100
AcDbEntity
  8
姿図
100
AcDbLine
 10
12505.52290890089
 20
-6336.481917912201
 30
0.0
 11
12505.34990734286
 21
-6336.902043830946
 31
0.0
  0
ELLIPSE
  5
36F803
330
18
100
AcDbEntity
  8
姿図
100
AcDbEllipse
 10
12505.54669018975
 20
-6336.293237641068
 30
0.0
 11
0.0497933520033152
 21
-0.0045413093706535
 31
0.0
210
0.0
220
0.0
230
1.0
 40
0.9657401151473084
 41
0.7439711451874635
 42
1.658088820393738
  0
LINE
  5
36F804
330
18
100
AcDbEntity
  8
姿図
100
AcDbLine
 10
12505.3967607523
 20
-6336.243943086852
 30
0.0
 11
12505.54671894052
 21
-6336.244938631246
 31
0.0
  0
ELLIPSE
  5
36F805
330
18
100
AcDbEntity
  8
姿図
100
AcDbEllipse
 10
12505.39678776018
 20
-6336.195642096782
 30
0.0
 11
0.0497933520033436
 21
-0.0045413093706546
 31
0.0
210
0.0
220
0.0
230
1.0
 40
0.9657401151467603
 41
2.851612759698921
 42
4.799681473983485
  0
LINE
  5
36F806
330
18
100
AcDbEntity
  8
姿図
100
AcDbLine
 10
12505.52332577007
 20
-6335.757416120078
 30
0.0
 11
12505.35032948033
 21
-6336.177542049423
 31
0.0
  0
ELLIPSE
  5
36F807
330
18
100
AcDbEntity
  8
姿図
100
AcDbEllipse
 10
12505.54710955768
 20
-6335.568733739253
 30
0.0
 11
0.0497933520033142
 21
-0.0045413093706819
 31
0.0
210
0.0
220
0.0
230
1.0
 40
0.9657401151473091
 41
0.7549497133658526
 42
1.658088820394854
  0
LINE
  5
36F808
330
18
100
AcDbEntity
  8
姿図
100
AcDbLine
 10
12505.39717762149
 20
-6335.519441294731
 30
0.0
 11
12505.54713845727
 21
-6335.520436184927
 31
0.0
  0
ELLIPSE
  5
36F809
330
18
100
AcDbEntity
  8
姿図
100
AcDbEllipse
 10
12505.39720712811
 20
-6335.471138194965
 30
0.0
 11
0.0497933520033152
 21
-0.0045413093706535
 31
0.0
210
0.0
220
0.0
230
1.0
 40
0.9657401151472772
 41
2.851612759699846
 42
4.799681473982973
  0
LINE
  5
36F80A
330
18
100
AcDbEntity
  8
姿図
100
AcDbLine
 10
12505.52374790754
 20
-6335.032914338555
 30
0.0
 11
12505.35074635519
 21
-6335.453033044018
 31
0.0
  0
ELLIPSE
  5
36F80B
330
18
100
AcDbEntity
  8
姿図
100
AcDbEllipse
 10
12505.54752892561
 20
-6334.844229837438
 30
0.0
 11
0.0497933520033142
 21
-0.0045413093706819
 31
0.0
210
0.0
220
0.0
230
1.0
 40
0.9657401151478457
 41
0.7658586738835256
 42
1.658088820393786
  0
LINE
  5
36F80C
330
18
100
AcDbEntity
  8
姿図
100
AcDbLine
 10
12505.39759976463
 20
-6334.794932299924
 30
0.0
 11
12505.54755795285
 21
-6334.795927844317
 31
0.0
  0
ELLIPSE
  5
36F80D
330
18
100
AcDbEntity
  8
姿図
100
AcDbEllipse
 10
12505.39762649604
 20
-6334.74663429315
 30
0.0
 11
0.0497933520033436
 21
-0.0045413093706546
 31
0.0
210
0.0
220
0.0
230
1.0
 40
0.9657401151467292
 41
2.851612759699105
 42
4.799681473982894
  0
LINE
  5
36F80E
330
18
100
AcDbEntity
  8
姿図
100
AcDbLine
 10
12505.52416478239
 20
-6334.30840533315
 30
0.0
 11
12505.35116584509
 21
-6334.728531916689
 31
0.0
  0
ELLIPSE
  5
36F80F
330
18
100
AcDbEntity
  8
姿図
100
AcDbEllipse
 10
12505.54794829354
 20
-6334.119725935622
 30
0.0
 11
0.0497933520033436
 21
-0.0045413093706546
 31
0.0
210
0.0
220
0.0
230
1.0
 40
0.9657401151467292
 41
0.7767006085156576
 42
1.658088820393108
  0
LINE
  5
36F810
330
18
100
AcDbEntity
  8
姿図
100
AcDbLine
 10
12505.39801663381
 20
-6334.0704305078
 30
0.0
 11
12505.54797482203
 21
-6334.071426052194
 31
0.0
  0
ELLIPSE
  5
36F811
330
18
100
AcDbEntity
  8
姿図
100
AcDbEllipse
 10
12505.39804586397
 20
-6334.022130391335
 30
0.0
 11
0.0497933520033142
 21
-0.0045413093706819
 31
0.0
210
0.0
220
0.0
230
1.0
 40
0.9657401151472784
 41
2.851612759699129
 42
4.799681473984089
  0
LINE
  5
36F812
330
18
100
AcDbEntity
  8
姿図
100
AcDbLine
 10
12505.52458691986
 20
-6333.583903551626
 30
0.0
 11
12505.35158536184
 21
-6334.004029470371
 31
0.0
  0
ELLIPSE
  5
36F813
330
18
100
AcDbEntity
  8
姿図
100
AcDbEllipse
 10
12505.54836766147
 20
-6333.395222033807
 30
0.0
 11
0.0497933520033426
 21
-0.004541309370683
 31
0.0
210
0.0
220
0.0
230
1.0
 40
0.9657401151466991
 41
0.7874779894199927
 42
1.658088820393654
  0
LINE
  5
36F814
330
18
100
AcDbEntity
  8
姿図
100
AcDbLine
 10
12505.39843877128
 20
-6333.345928726277
 30
0.0
 11
12505.5483969595
 21
-6333.346924270672
 31
0.0
  0
ELLIPSE
  5
36F815
330
18
100
AcDbEntity
  8
姿図
100
AcDbEllipse
 10
12505.3984652319
 20
-6333.297626489521
 30
0.0
 11
0.0497933520033152
 21
-0.0045413093706535
 31
0.0
210
0.0
220
0.0
230
1.0
 40
0.9657401151472772
 41
3.228885147188027
 42
4.799681473983521
  0
LINE
  5
36F816
330
18
100
AcDbEntity
  8
姿図
100
AcDbLine
 10
12505.34859254229
 20
-6333.104091693514
 30
0.0
 11
12505.34848066277
 21
-6333.297296456748
 31
0.0
  0
ELLIPSE
  5
36F817
330
18
100
AcDbEntity
  8
姿図
100
AcDbEllipse
 10
12505.84845209923
 20
-6333.107410521171
 30
0.0
 11
0.4979335200332343
 21
-0.0454130937066806
 31
0.0
210
0.0
220
0.0
230
1.0
 40
0.9657401151469462
 41
2.700330727104593
 42
3.228885147188691
  0
ARC
  5
36F818
330
18
100
AcDbEntity
  8
姿図
100
AcDbCircle
 10
12505.34197753937
 20
-6348.28986301688
 30
0.0
 40
0.0491646558273621
100
AcDbArc
 50
175.4751882259605
 51
268.0637161626813
  0
LINE
  5
36F819
330
18
100
AcDbEntity
  8
姿図
100
AcDbLine
 10
12543.04810314984
 20
-6334.348669679624
 30
0.0
 11
12542.97578894288
 21
-6337.411527839674
 31
0.0
  0
SPLINE
  5
36F81A
330
18
100
AcDbEntity
  8
姿図
100
AcDbSpline
210
0.0
220
0.0
230
1.0
 70
     8
 71
     3
 72
    12
 73
     8
 74
     0
 42
0.000000001
 43
0.0000000001
 40
0.0
 40
0.0
 40
0.0
 40
0.0
 40
0.0990421940440805
 40
0.3502566013929187
 40
0.5999740453804315
 40
0.8404259001735335
 40
1.0
 40
1.0
 40
1.0
 40
1.0
 10
12543.28035312149
 20
-6333.479276236405
 30
0.0
 10
12543.26940936743
 20
-6333.491325038455
 30
0.0
 10
12543.23070745718
 20
-6333.533934882646
 30
0.0
 10
12543.16484787271
 20
-6333.682662567621
 30
0.0
 10
12543.09751730613
 20
-6333.91220883927
 30
0.0
 10
12543.0577470987
 20
-6334.148807748769
 30
0.0
 10
12543.05085319328
 20
-6334.291677569898
 30
0.0
 10
12543.04810314984
 20
-6334.348669679624
 30
0.0
  0
LINE
  5
36F81B
330
18
100
AcDbEntity
  8
姿図
100
AcDbLine
 10
12505.34327868467
 20
-6347.612954740952
 30
0.0
 11
12505.39047081386
 21
-6347.111498747628
 31
0.0
  0
ARC
  5
36F81C
330
18
100
AcDbEntity
  8
姿図
100
AcDbCircle
 10
12505.34261351955
 20
-6347.563730715543
 30
0.0
 40
0.0492285193975453
100
AcDbArc
 50
175.4978483898195
 51
270.7741917634916
  0
LINE
  5
36F81D
330
18
100
AcDbEntity
  8
姿図
100
AcDbLine
 10
12505.40794607459
 20
-6347.613384279632
 30
0.0
 11
12505.34327868467
 21
-6347.612954740952
 31
0.0
  0
LINE
  5
36F81E
330
18
100
AcDbEntity
  8
姿図
100
AcDbLine
 10
12505.34384946251
 20
-6346.886844023878
 30
0.0
 11
12505.39088768304
 21
-6346.386996955505
 31
0.0
  0
ARC
  5
36F81F
330
18
100
AcDbEntity
  8
姿図
100
AcDbCircle
 10
12505.34318862347
 20
-6346.837615425417
 30
0.0
 40
0.0492330337764089
100
AcDbArc
 50
175.4951799356401
 51
270.7690857671787
  0
LINE
  5
36F820
330
18
100
AcDbEntity
  8
姿図
100
AcDbLine
 10
12505.4090252018
 20
-6346.887276563962
 30
0.0
 11
12505.34384946251
 21
-6346.886844023878
 31
0.0
  0
LINE
  5
36F821
330
18
100
AcDbEntity
  8
姿図
100
AcDbLine
 10
12505.34442024036
 20
-6346.160733306804
 30
0.0
 11
12505.39130982051
 21
-6345.662495173982
 31
0.0
  0
ARC
  5
36F822
330
18
100
AcDbEntity
  8
姿図
100
AcDbCircle
 10
12505.34376528617
 20
-6346.111499195193
 30
0.0
 40
0.0492384677989223
100
AcDbArc
 50
175.5021132805249
 51
270.762152422171
  0
LINE
  5
36F823
330
18
100
AcDbEntity
  8
姿図
100
AcDbLine
 10
12505.41010694973
 20
-6346.161169513089
 30
0.0
 11
12505.34442024036
 21
-6346.160733306804
 31
0.0
  0
LINE
  5
36F824
330
18
100
AcDbEntity
  8
姿図
100
AcDbLine
 10
12505.34499102387
 20
-6345.434615376448
 30
0.0
 11
12505.39172669536
 21
-6344.937986168575
 31
0.0
  0
ARC
  5
36F825
330
18
100
AcDbEntity
  8
姿図
100
AcDbCircle
 10
12505.34432443143
 20
-6345.385392688377
 30
0.0
 40
0.049227201489351
100
AcDbArc
 50
175.4961662570557
 51
270.7758738962825
  0
LINE
  5
36F826
330
18
100
AcDbEntity
  8
姿図
100
AcDbLine
 10
12505.41118608261
 20
-6345.435054584134
 30
0.0
 11
12505.34499102387
 21
-6345.434615376448
 31
0.0
  0
LINE
  5
36F827
330
18
100
AcDbEntity
  8
姿図
100
AcDbLine
 10
12505.34556180171
 20
-6344.708504659375
 30
0.0
 11
12505.39214883284
 21
-6344.213484387053
 31
0.0
  0
ARC
  5
36F828
330
18
100
AcDbEntity
  8
姿図
100
AcDbCircle
 10
12505.34489663658
 20
-6344.659280633965
 30
0.0
 40
0.049228519397485
100
AcDbArc
 50
175.4978483898717
 51
270.7741917635959
  0
LINE
  5
36F829
330
18
100
AcDbEntity
  8
姿図
100
AcDbLine
 10
12505.41226783055
 20
-6344.708947533259
 30
0.0
 11
12505.34556180171
 21
-6344.708504659375
 31
0.0
  0
LINE
  5
36F82A
330
18
100
AcDbEntity
  8
姿図
100
AcDbLine
 10
12505.34613257955
 20
-6343.982393942301
 30
0.0
 11
12505.39256570202
 21
-6343.48898259493
 31
0.0
  0
ARC
  5
36F82B
330
18
100
AcDbEntity
  8
姿図
100
AcDbCircle
 10
12505.3454717405
 20
-6343.933165343837
 30
0.0
 40
0.0492330337764205
100
AcDbArc
 50
175.4951799355879
 51
270.7690857670744
  0
LINE
  5
36F82C
330
18
100
AcDbEntity
  8
姿図
100
AcDbLine
 10
12505.41334695774
 20
-6343.982839817591
 30
0.0
 11
12505.34613257955
 21
-6343.982393942301
 31
0.0
  0
LINE
  5
36F82D
330
18
100
AcDbEntity
  8
姿図
100
AcDbLine
 10
12505.34670335739
 20
-6343.256283225227
 30
0.0
 11
12505.39298783949
 21
-6342.764480813407
 31
0.0
  0
ARC
  5
36F82E
330
18
100
AcDbEntity
  8
姿図
100
AcDbCircle
 10
12505.3460484032
 20
-6343.207049113614
 30
0.0
 40
0.0492384677989202
100
AcDbArc
 50
175.5021132805249
 51
270.762152422171
  0
LINE
  5
36F82F
330
18
100
AcDbEntity
  8
姿図
100
AcDbLine
 10
12505.41442870569
 20
-6343.256732766715
 30
0.0
 11
12505.34670335739
 21
-6343.256283225227
 31
0.0
  0
LINE
  5
36F830
330
18
100
AcDbEntity
  8
姿図
100
AcDbLine
 10
12505.3472741409
 20
-6342.530165294871
 30
0.0
 11
12505.39340471434
 21
-6342.039971808002
 31
0.0
  0
ARC
  5
36F831
330
18
100
AcDbEntity
  8
姿図
100
AcDbCircle
 10
12505.34660897577
 20
-6342.480941269461
 30
0.0
 40
0.0492285193975701
100
AcDbArc
 50
175.4978483899175
 51
270.7741917634916
  0
LINE
  5
36F832
330
18
100
AcDbEntity
  8
姿図
100
AcDbLine
 10
12505.41550783856
 20
-6342.530617837763
 30
0.0
 11
12505.3472741409
 21
-6342.530165294871
 31
0.0
  0
LINE
  5
36F833
330
18
100
AcDbEntity
  8
姿図
100
AcDbLine
 10
12505.34784491874
 20
-6341.804054577797
 30
0.0
 11
12505.39382420426
 21
-6341.315470680672
 31
0.0
  0
ARC
  5
36F834
330
18
100
AcDbEntity
  8
姿図
100
AcDbCircle
 10
12505.34718407969
 20
-6341.754825979335
 30
0.0
 40
0.0492330337764489
100
AcDbArc
 50
175.4951799355879
 51
270.7690857670744
  0
LINE
  5
36F835
330
18
100
AcDbEntity
  8
姿図
100
AcDbLine
 10
12505.4165895865
 20
-6341.804510786888
 30
0.0
 11
12505.34784491874
 21
-6341.804054577797
 31
0.0
  0
LINE
  5
36F836
330
18
100
AcDbEntity
  8
姿図
100
AcDbLine
 10
12505.34841569658
 20
-6341.077943860724
 30
0.0
 11
12505.394243721
 21
-6340.590968234355
 31
0.0
  0
ARC
  5
36F837
330
18
100
AcDbEntity
  8
姿図
100
AcDbCircle
 10
12505.34776074239
 20
-6341.028709749113
 30
0.0
 40
0.0492384677988967
100
AcDbArc
 50
175.5021132804726
 51
270.7621524222751
  0
LINE
  5
36F838
330
18
100
AcDbEntity
  8
姿図
100
AcDbLine
 10
12505.4176687137
 20
-6341.078403071215
 30
0.0
 11
12505.34841569658
 21
-6341.077943860724
 31
0.0
  0
LINE
  5
36F839
330
18
100
AcDbEntity
  8
姿図
100
AcDbLine
 10
12505.34898648009
 20
-6340.351825930366
 30
0.0
 11
12505.39466321658
 21
-6339.866459893745
 31
0.0
  0
ARC
  5
36F83A
330
18
100
AcDbEntity
  8
姿図
100
AcDbCircle
 10
12505.34832131497
 20
-6340.302601904959
 30
0.0
 40
0.0492285193974897
100
AcDbArc
 50
175.4978483897672
 51
270.7741917635959
  0
LINE
  5
36F83B
330
18
100
AcDbEntity
  8
姿図
100
AcDbLine
 10
12505.41875046731
 20
-6340.352288807058
 30
0.0
 11
12505.34898648009
 21
-6340.351825930366
 31
0.0
  0
LINE
  5
36F83C
330
18
100
AcDbEntity
  8
姿図
100
AcDbLine
 10
12505.34955725794
 20
-6339.625715213293
 30
0.0
 11
12505.39508273332
 21
-6339.141957447427
 31
0.0
  0
ARC
  5
36F83D
330
18
100
AcDbEntity
  8
姿図
100
AcDbCircle
 10
12505.34889524226
 20
-6339.576488236967
 30
0.0
 40
0.0492314275959942
100
AcDbArc
 50
175.501559804303
 51
270.7704803490736
  0
LINE
  5
36F83E
330
18
100
AcDbEntity
  8
姿図
100
AcDbLine
 10
12505.41983221524
 20
-6339.626181756184
 30
0.0
 11
12505.34955725794
 21
-6339.625715213293
 31
0.0
  0
LINE
  5
36F83F
330
18
100
AcDbEntity
  8
姿図
100
AcDbLine
 10
12505.35012803578
 20
-6338.899604496219
 30
0.0
 11
12505.39549960251
 21
-6338.417455655303
 31
0.0
  0
ARC
  5
36F840
330
18
100
AcDbEntity
  8
姿図
100
AcDbCircle
 10
12505.34946719673
 20
-6338.850375897758
 30
0.0
 40
0.0492330337764629
100
AcDbArc
 50
175.4951799356401
 51
270.7690857670744
  0
LINE
  5
36F841
330
18
100
AcDbEntity
  8
姿図
100
AcDbLine
 10
12505.42091134245
 20
-6338.900074040513
 30
0.0
 11
12505.35012803578
 21
-6338.899604496219
 31
0.0
  0
LINE
  5
36F842
330
18
100
AcDbEntity
  8
姿図
100
AcDbLine
 10
12505.35069881929
 20
-6338.173486565863
 30
0.0
 11
12505.39592174565
 21
-6337.692946660498
 31
0.0
  0
ARC
  5
36F843
330
18
100
AcDbEntity
  8
姿図
100
AcDbCircle
 10
12505.35003222685
 20
-6338.124263877791
 30
0.0
 40
0.0492272014893658
100
AcDbArc
 50
175.4961662571079
 51
270.7758738963867
  0
LINE
  5
36F844
330
18
100
AcDbEntity
  8
姿図
100
AcDbLine
 10
12505.42199309605
 20
-6338.173959776355
 30
0.0
 11
12505.35069881929
 21
-6338.173486565863
 31
0.0
  0
LINE
  5
36F845
330
18
100
AcDbEntity
  8
姿図
100
AcDbLine
 10
12505.35126959713
 20
-6337.447375848789
 30
0.0
 11
12505.39633861483
 21
-6336.968444868375
 31
0.0
  0
ARC
  5
36F846
330
18
100
AcDbEntity
  8
姿図
100
AcDbCircle
 10
12505.350604432
 20
-6337.398151823381
 30
0.0
 40
0.0492285193975169
100
AcDbArc
 50
175.4978483898195
 51
270.7741917634916
  0
LINE
  5
36F847
330
18
100
AcDbEntity
  8
姿図
100
AcDbLine
 10
12505.42307222326
 20
-6337.447852060686
 30
0.0
 11
12505.35126959713
 21
-6337.447375848789
 31
0.0
  0
LINE
  5
36F848
330
18
100
AcDbEntity
  8
姿図
100
AcDbLine
 10
12505.35184037497
 20
-6336.721265131716
 30
0.0
 11
12505.3967607523
 21
-6336.243943086852
 31
0.0
  0
ARC
  5
36F849
330
18
100
AcDbEntity
  8
姿図
100
AcDbCircle
 10
12505.35117953592
 20
-6336.672036533253
 30
0.0
 40
0.0492330337763921
100
AcDbArc
 50
175.4951799355879
 51
270.7690857671787
  0
LINE
  5
36F84A
330
18
100
AcDbEntity
  8
姿図
100
AcDbLine
 10
12505.42415397119
 20
-6336.721745009811
 30
0.0
 11
12505.35184037497
 21
-6336.721265131716
 31
0.0
  0
LINE
  5
36F84B
330
18
100
AcDbEntity
  8
姿図
100
AcDbLine
 10
12505.35241115281
 20
-6335.995154414643
 30
0.0
 11
12505.39717762149
 21
-6335.519441294731
 31
0.0
  0
ARC
  5
36F84C
330
18
100
AcDbEntity
  8
姿図
100
AcDbCircle
 10
12505.35175619862
 20
-6335.945920303031
 30
0.0
 40
0.0492384677988953
100
AcDbArc
 50
175.5021132805249
 51
270.762152422171
  0
LINE
  5
36F84D
330
18
100
AcDbEntity
  8
姿図
100
AcDbLine
 10
12505.4252330984
 20
-6335.995637294139
 30
0.0
 11
12505.35241115281
 21
-6335.995154414643
 31
0.0
  0
LINE
  5
36F84E
330
18
100
AcDbEntity
  8
姿図
100
AcDbLine
 10
12505.35298193632
 20
-6335.269036484286
 30
0.0
 11
12505.39759976463
 21
-6334.794932299924
 31
0.0
  0
ARC
  5
36F84F
330
18
100
AcDbEntity
  8
姿図
100
AcDbCircle
 10
12505.3523167712
 20
-6335.219812458877
 30
0.0
 40
0.0492285193976227
100
AcDbArc
 50
175.4978483899175
 51
270.7741917634916
  0
LINE
  5
36F850
330
18
100
AcDbEntity
  8
姿図
100
AcDbLine
 10
12505.426314852
 20
-6335.269523029982
 30
0.0
 11
12505.35298193632
 21
-6335.269036484286
 31
0.0
  0
LINE
  5
36F851
330
18
100
AcDbEntity
  8
姿図
100
AcDbLine
 10
12505.35355271416
 20
-6334.542925767213
 30
0.0
 11
12505.39801663381
 21
-6334.0704305078
 31
0.0
  0
ARC
  5
36F852
330
18
100
AcDbEntity
  8
姿図
100
AcDbCircle
 10
12505.35289187511
 20
-6334.493697168749
 30
0.0
 40
0.0492330337764465
100
AcDbArc
 50
175.4951799356401
 51
270.7690857670744
  0
LINE
  5
36F853
330
18
100
AcDbEntity
  8
姿図
100
AcDbLine
 10
12505.42739397921
 20
-6334.543415314311
 30
0.0
 11
12505.35355271416
 21
-6334.542925767213
 31
0.0
  0
LINE
  5
36F854
330
18
100
AcDbEntity
  8
姿図
100
AcDbLine
 10
12505.354123492
 20
-6333.816815050139
 30
0.0
 11
12505.39843877128
 21
-6333.345928726277
 31
0.0
  0
LINE
  5
36F855
330
18
100
AcDbEntity
  8
姿図
100
AcDbLine
 10
12505.30417547293
 20
-6333.768075298761
 30
0.0
 11
12505.34848066277
 21
-6333.297296456748
 31
0.0
  0
ARC
  5
36F856
330
18
100
AcDbEntity
  8
姿図
100
AcDbCircle
 10
12505.3537289159
 20
-6333.767256412194
 30
0.0
 40
0.0495602086894359
100
AcDbArc
 50
180.9467449938629
 51
270.4561680606312
  0
LINE
  5
36F857
330
18
100
AcDbEntity
  8
姿図
100
AcDbLine
 10
12505.42847572714
 20
-6333.817308263437
 30
0.0
 11
12505.354123492
 21
-6333.816815050139
 31
0.0
  0
LINE
  5
36F858
330
18
100
AcDbEntity
  8
姿図
100
AcDbLine
 10
12505.30432768338
 20
-6333.574441927125
 30
0.0
 11
12505.34859254229
 21
-6333.104091693514
 31
0.0
  0
LINE
  5
36F859
330
18
100
AcDbEntity
  8
姿図
100
AcDbLine
 10
12505.30417547293
 20
-6333.768075298761
 30
0.0
 11
12505.30432768338
 21
-6333.574441927125
 31
0.0
  0
SPLINE
  5
36F85A
330
18
100
AcDbEntity
  8
姿図
100
AcDbSpline
210
0.0
220
0.0
230
1.0
 70
     8
 71
     3
 72
     9
 73
     5
 74
     0
 42
0.000000001
 43
0.0000000001
 40
0.0
 40
0.0
 40
0.0
 40
0.0
 40
0.6351523105551699
 40
0.9999999999999998
 40
0.9999999999999998
 40
0.9999999999999998
 40
0.9999999999999998
 10
12505.41694652951
 20
-6332.860973633422
 30
0.0
 10
12505.44068305407
 20
-6332.826952076666
 30
0.0
 10
12505.47805444384
 20
-6332.773387669842
 30
0.0
 10
12505.52773272991
 20
-6332.748018990296
 30
0.0
 10
12505.5458577378
 20
-6332.73876328618
 30
0.0
  0
LINE
  5
36F85B
330
18
100
AcDbEntity
  8
姿図
100
AcDbLine
 10
12505.30432768338
 20
-6333.574441927125
 30
0.0
 11
12505.30639001096
 21
-6333.530915864314
 31
0.0
  0
LINE
  5
36F85C
330
18
100
AcDbEntity
  8
姿図
100
AcDbLine
 10
12522.6348813258
 20
-6310.393676349089
 30
0.0
 11
12522.66938085687
 21
-6310.465243762322
 31
0.0
  0
LWPOLYLINE
  5
36F85D
330
18
100
AcDbEntity
  8
姿図
100
AcDbPolyline
 90
       13
 70
   128
 43
0.0
 10
12522.6348813258
 20
-6310.393676349089
 10
12522.64600219115
 20
-6310.345134958944
 10
12522.73292082328
 20
-6310.297346409701
 10
12522.80603283771
 20
-6310.276547250266
 10
12522.89660331443
 20
-6310.259472421891
 10
12523.00135375948
 20
-6310.247295543318
 10
12523.11497865916
 20
-6310.240800004422
 10
12523.23159570764
 20
-6310.240504885093
 10
12523.34498347047
 20
-6310.246247955769
 10
12523.44924648533
 20
-6310.257576463634
 10
12523.54007994602
 20
-6310.273540938416
 10
12523.66999477565
 20
-6310.314934604427
 10
12523.72694824662
 20
-6310.361467868551
  0
LINE
  5
36F85E
330
18
100
AcDbEntity
  8
姿図
100
AcDbLine
 10
12523.72694824662
 20
-6310.361467868551
 30
0.0
 11
12523.97867587757
 21
-6310.883635302058
 31
0.0
  0
LINE
  5
36F85F
330
18
100
AcDbEntity
  8
姿図
100
AcDbLine
 10
12523.69833816533
 20
-6312.849528634903
 30
0.0
 11
12523.97867587757
 21
-6310.883635302058
 31
0.0
  0
LINE
  5
36F860
330
18
100
AcDbEntity
  8
姿図
100
AcDbLine
 10
12523.56648311141
 20
-6312.576012985056
 30
0.0
 11
12523.69833816533
 21
-6312.849528634903
 31
0.0
  0
LWPOLYLINE
  5
36F861
330
18
100
AcDbEntity
  8
姿図
100
AcDbPolyline
 90
        9
 70
   128
 43
0.0
 10
12522.82189074754
 20
-6312.597973032818
 10
12522.83302781012
 20
-6312.561454108868
 10
12522.89914753966
 20
-6312.528823393422
 10
12523.01018482198
 20
-6312.50504827279
 10
12523.14923381305
 20
-6312.493748320324
 10
12523.29512753922
 20
-6312.496644509392
 10
12523.42565310839
 20
-6312.513294948672
 10
12523.52094055068
 20
-6312.541165674424
 10
12523.56648311141
 20
-6312.576012985056
  0
LINE
  5
36F862
330
18
100
AcDbEntity
  8
姿図
100
AcDbLine
 10
12522.95374580146
 20
-6312.871488682668
 30
0.0
 11
12522.87530358982
 21
-6312.708770783786
 31
0.0
  0
LINE
  5
36F863
330
18
100
AcDbEntity
  8
姿図
100
AcDbLine
 10
12522.84055695956
 20
-6312.636692238164
 30
0.0
 11
12522.82189074754
 21
-6312.597973032818
 31
0.0
  0
LINE
  5
36F864
330
18
100
AcDbEntity
  8
姿図
100
AcDbLine
 10
12523.69833816533
 20
-6312.849528634903
 30
0.0
 11
12522.95374580146
 21
-6312.871488682668
 31
0.0
  0
LINE
  5
36F865
330
18
100
AcDbEntity
  8
姿図
100
AcDbLine
 10
12528.72894295059
 20
-6310.977925490425
 30
0.0
 11
12529.13130386762
 21
-6312.957370543726
 31
0.0
  0
LINE
  5
36F866
330
18
100
AcDbEntity
  8
姿図
100
AcDbLine
 10
12529.29422033469
 20
-6310.471975891595
 30
0.0
 11
12528.72894295059
 21
-6310.977925490425
 31
0.0
  0
SPLINE
  5
36F867
330
18
100
AcDbEntity
  8
姿図
100
AcDbSpline
210
0.0
220
0.0
230
1.0
 70
     8
 71
     3
 72
    16
 73
    12
 74
     0
 42
0.000000001
 43
0.0000000001
 40
0.0
 40
0.0
 40
0.0
 40
0.0
 40
0.1218554215034906
 40
0.235973091949853
 40
0.3506771956685863
 40
0.4639970235168163
 40
0.5779507215831449
 40
0.6917739565316741
 40
0.8062875548330888
 40
0.9199179391880431
 40
1.0
 40
1.0
 40
1.0
 40
1.0
 10
12529.29422033469
 20
-6310.471975891595
 30
0.0
 10
12529.31858934313
 20
-6310.455247212978
 30
0.0
 10
12529.36577994163
 20
-6310.422852117469
 30
0.0
 10
12529.50702035577
 20
-6310.395059076488
 30
0.0
 10
12529.67617603288
 20
-6310.374309327993
 30
0.0
 10
12529.86280785748
 20
-6310.369069751239
 30
0.0
 10
12530.04424219125
 20
-6310.381267300792
 30
0.0
 10
12530.20237482166
 20
-6310.404492335191
 30
0.0
 10
12530.31584844329
 20
-6310.446575298256
 30
0.0
 10
12530.37582248166
 20
-6310.479758031576
 30
0.0
 10
12530.36867045814
 20
-6310.5078708221
 30
0.0
 10
12530.3657137623
 20
-6310.519492843589
 30
0.0
  0
LINE
  5
36F868
330
18
100
AcDbEntity
  8
姿図
100
AcDbLine
 10
12530.14971862776
 20
-6312.743426911115
 30
0.0
 11
12529.85362210633
 21
-6313.008448343863
 31
0.0
  0
LWPOLYLINE
  5
36F869
330
18
100
AcDbEntity
  8
姿図
100
AcDbPolyline
 90
        9
 70
   128
 43
0.0
 10
12529.42740038904
 20
-6312.692349110976
 10
12529.49352078047
 20
-6312.659718231981
 10
12529.60455740091
 20
-6312.635943274898
 10
12529.7436090127
 20
-6312.624643987227
 10
12529.88950011815
 20
-6312.6275395115
 10
12530.02002830805
 20
-6312.644190615576
 10
12530.11531312961
 20
-6312.672060676533
 10
12530.16085569033
 20
-6312.706907987164
 10
12530.14971862776
 20
-6312.743426911115
  0
LINE
  5
36F86A
330
18
100
AcDbEntity
  8
姿図
100
AcDbLine
 10
12529.13130386762
 20
-6312.957370543726
 30
0.0
 11
12529.42740038904
 21
-6312.692349110976
 31
0.0
  0
LINE
  5
36F86B
330
18
100
AcDbEntity
  8
姿図
100
AcDbLine
 10
12523.97867587757
 20
-6310.883635302058
 30
0.0
 11
12524.13629336952
 21
-6311.210588157252
 31
0.0
  0
LINE
  5
36F86C
330
18
100
AcDbEntity
  8
姿図
100
AcDbLine
 10
12529.85362210633
 20
-6313.008448343863
 30
0.0
 11
12529.13130386762
 21
-6312.957370543726
 31
0.0
  0
LINE
  5
36F86D
330
18
100
AcDbEntity
  8
姿図
100
AcDbLine
 10
12526.64768042284
 20
-6297.6840921424
 30
0.0
 11
12526.64251013232
 21
-6297.69447878008
 31
0.0
  0
LINE
  5
36F86E
330
18
100
AcDbEntity
  8
姿図
100
AcDbLine
 10
12528.38077192098
 20
-6311.289558919149
 30
0.0
 11
12528.72894295059
 21
-6310.977925490425
 31
0.0
  0
ARC
  5
36F86F
330
18
100
AcDbEntity
  8
姿図
100
AcDbCircle
 10
12516.88493304458
 20
-6311.824448445388
 30
0.0
 40
1.093679037118045
100
AcDbArc
 50
66.05838653840833
 51
121.7841476894031
  0
LINE
  5
36F870
330
18
100
AcDbEntity
  8
姿図
100
AcDbLine
 10
12517.32875400774
 20
-6310.824870139859
 30
0.0
 11
12518.35915950923
 21
-6311.283759594378
 31
0.0
  0
LINE
  5
36F871
330
18
100
AcDbEntity
  8
姿図
100
AcDbLine
 10
12517.77562682738
 20
-6313.292281164516
 30
0.0
 11
12518.35915950923
 21
-6311.283759594378
 31
0.0
  0
LINE
  5
36F872
330
18
100
AcDbEntity
  8
姿図
100
AcDbLine
 10
12517.23588967698
 20
-6313.051910229029
 30
0.0
 11
12517.77562682738
 21
-6313.292281164516
 31
0.0
  0
LWPOLYLINE
  5
36F873
330
18
100
AcDbEntity
  8
姿図
100
AcDbPolyline
 90
        9
 70
   128
 43
0.0
 10
12516.58238111078
 20
-6313.143565225153
 10
12516.53683921194
 20
-6313.108717750974
 10
12516.54797561263
 20
-6313.072198990572
 10
12516.61409666595
 20
-6313.039567948028
 10
12516.72513328639
 20
-6313.015792990944
 10
12516.86418423629
 20
-6313.004493866824
 10
12517.01007600363
 20
-6313.007389227546
 10
12517.1406015728
 20
-6313.024039666828
 10
12517.23588967698
 20
-6313.051910229029
  0
LINE
  5
36F874
330
18
100
AcDbEntity
  8
姿図
100
AcDbLine
 10
12517.12211696423
 20
-6313.383935168747
 30
0.0
 11
12516.58238111078
 21
-6313.143565225153
 31
0.0
  0
LINE
  5
36F875
330
18
100
AcDbEntity
  8
姿図
100
AcDbLine
 10
12517.77562682738
 20
-6313.292281164516
 30
0.0
 11
12517.12211696423
 21
-6313.383935168747
 31
0.0
  0
SPLINE
  5
36F876
330
18
100
AcDbEntity
  8
姿図
100
AcDbSpline
210
0.0
220
0.0
230
1.0
 70
     8
 71
     3
 72
    10
 73
     6
 74
     0
 42
0.000000001
 43
0.0000000001
 40
0.0
 40
0.0
 40
0.0
 40
0.0
 40
0.1338920635407018
 40
0.5540879171963984
 40
1.0
 40
1.0
 40
1.0
 40
1.0
 10
12522.37297795017
 20
-6297.833744514655
 30
0.0
 10
12522.37344421735
 20
-6297.831601066718
 30
0.0
 10
12522.37537377912
 20
-6297.822730797862
 30
0.0
 10
12522.36189327101
 20
-6297.806713744869
 30
0.0
 10
12522.33813059973
 20
-6297.794155088904
 30
0.0
 10
12522.32589648687
 20
-6297.78768931691
 30
0.0
  0
LINE
  5
36F877
330
18
100
AcDbEntity
  8
姿図
100
AcDbLine
 10
12518.35915950923
 20
-6311.283759594378
 30
0.0
 11
12518.9379237872
 21
-6311.541511295379
 31
0.0
  0
LWPOLYLINE
  5
36F878
330
18
100
AcDbEntity
  8
姿図
100
AcDbPolyline
 90
       12
 70
   128
 43
0.0
 10
12535.33446716837
 20
-6311.182275059938
 10
12535.4794473908
 20
-6311.150020989719
 10
12535.67605730719
 20
-6311.13171739231
 10
12535.78664953044
 20
-6311.129996217033
 10
12535.89910572042
 20
-6311.133993059042
 10
12536.00778327405
 20
-6311.143952542133
 10
12536.10670961878
 20
-6311.159489524261
 10
12536.19024543492
 20
-6311.179926541093
 10
12536.25444064479
 20
-6311.204050614943
 10
12536.2963881484
 20
-6311.230496043785
 10
12536.31571730646
 20
-6311.257832072453
 10
12536.31132615975
 20
-6311.267082601705
  0
LINE
  5
36F879
330
18
100
AcDbEntity
  8
姿図
100
AcDbLine
 10
12535.33446716837
 20
-6311.182275059938
 30
0.0
 11
12534.0382477275
 21
-6311.594981656964
 31
0.0
  0
LINE
  5
36F87A
330
18
100
AcDbEntity
  8
姿図
100
AcDbLine
 10
12533.35408440919
 20
-6311.812814483485
 30
0.0
 11
12534.0382477275
 21
-6311.594981656964
 31
0.0
  0
LINE
  5
36F87B
330
18
100
AcDbEntity
  8
姿図
100
AcDbLine
 10
12534.0382477275
 20
-6311.594981656964
 30
0.0
 11
12534.7143118275
 21
-6313.628505989322
 31
0.0
  0
LINE
  5
36F87C
330
18
100
AcDbEntity
  8
姿図
100
AcDbLine
 10
12535.9833588214
 20
-6313.528664844163
 30
0.0
 11
12535.30438732452
 21
-6313.744844719106
 31
0.0
  0
LWPOLYLINE
  5
36F87D
330
18
100
AcDbEntity
  8
姿図
100
AcDbPolyline
 90
        9
 70
   128
 43
0.0
 10
12535.39328332438
 20
-6313.412326114377
 10
12535.50432027576
 20
-6313.38855107552
 10
12535.64336926684
 20
-6313.377251123054
 10
12535.78926332395
 20
-6313.38014723035
 10
12535.91978856218
 20
-6313.396797751404
 10
12536.01507633542
 20
-6313.424668395381
 10
12536.06061856519
 20
-6313.459515787787
 10
12536.04947888189
 20
-6313.496034046941
 10
12535.9833588214
 20
-6313.528664844163
  0
LINE
  5
36F87E
330
18
100
AcDbEntity
  8
姿図
100
AcDbLine
 10
12534.7143118275
 20
-6313.628505989322
 30
0.0
 11
12535.39328332438
 21
-6313.412326114377
 31
0.0
  0
LINE
  5
36F87F
330
18
100
AcDbEntity
  8
姿図
100
AcDbLine
 10
12535.30438732452
 20
-6313.744844719106
 30
0.0
 11
12534.7143118275
 21
-6313.628505989322
 31
0.0
  0
LWPOLYLINE
  5
36F880
330
18
100
AcDbEntity
  8
姿図
100
AcDbPolyline
 90
       11
 70
   128
 43
0.0
 10
12511.24638163067
 20
-6311.97855740314
 10
12511.24398982754
 20
-6311.969359508094
 10
12511.25961977414
 20
-6311.941216160285
 10
12511.299081953
 20
-6311.914035851984
 10
12511.36084706613
 20
-6311.889313281472
 10
12511.44223110389
 20
-6311.868458383372
 10
12511.53839332437
 20
-6311.852457296559
 10
12511.64389641731
 20
-6311.842032799429
 10
12511.75302490035
 20
-6311.837272979889
 10
12511.96152298342
 20
-6311.843629513814
 10
12512.13310097438
 20
-6311.86654722476
  0
LINE
  5
36F881
330
18
100
AcDbEntity
  8
姿図
100
AcDbLine
 10
12512.13310097438
 20
-6311.86654722476
 30
0.0
 11
12513.78531419785
 21
-6312.192296265415
 31
0.0
  0
LINE
  5
36F882
330
18
100
AcDbEntity
  8
姿図
100
AcDbLine
 10
12512.98716146926
 20
-6314.269299498619
 30
0.0
 11
12513.78531419785
 21
-6312.192296265415
 31
0.0
  0
LINE
  5
36F883
330
18
100
AcDbEntity
  8
姿図
100
AcDbLine
 10
12512.1217160164
 20
-6314.098668655311
 30
0.0
 11
12512.98716146926
 21
-6314.269299498619
 31
0.0
  0
LWPOLYLINE
  5
36F884
330
18
100
AcDbEntity
  8
姿図
100
AcDbPolyline
 90
        9
 70
   128
 43
0.0
 10
12511.65878103783
 20
-6314.246064111045
 10
12511.56349293365
 20
-6314.218193548843
 10
12511.51795103482
 20
-6314.183346074663
 10
12511.52908743551
 20
-6314.14682731426
 10
12511.59521110956
 20
-6314.114196936511
 10
12511.70624772999
 20
-6314.090421979427
 10
12511.84529605917
 20
-6314.079122190511
 10
12511.99119044723
 20
-6314.08201821603
 10
12512.1217160164
 20
-6314.098668655311
  0
LINE
  5
36F885
330
18
100
AcDbEntity
  8
姿図
100
AcDbLine
 10
12512.52422781448
 20
-6314.416694627253
 30
0.0
 11
12511.65878103783
 21
-6314.246064111045
 31
0.0
  0
LINE
  5
36F886
330
18
100
AcDbEntity
  8
姿図
100
AcDbLine
 10
12538.1263016552
 20
-6312.972297773718
 30
0.0
 11
12537.86382013151
 21
-6313.009110150487
 31
0.0
  0
LWPOLYLINE
  5
36F887
330
18
100
AcDbEntity
  8
姿図
100
AcDbPolyline
 90
       10
 70
   128
 43
0.0
 10
12539.83604968053
 20
-6312.416437700238
 10
12540.01945632152
 20
-6312.400565824133
 10
12540.22929931502
 20
-6312.402513848626
 10
12540.33422727184
 20
-6312.411521845834
 10
12540.43214218702
 20
-6312.425984574373
 10
12540.51744543785
 20
-6312.44558722422
 10
12540.58520514002
 20
-6312.469402723744
 10
12540.6312391071
 20
-6312.496264948968
 10
12540.65374537178
 20
-6312.524675549155
 10
12540.65309028784
 20
-6312.536157834893
  0
LINE
  5
36F888
330
18
100
AcDbEntity
  8
姿図
100
AcDbLine
 10
12539.83604968053
 20
-6312.416437700238
 30
0.0
 11
12538.00622322828
 21
-6312.673069936691
 31
0.0
  0
LINE
  5
36F889
330
18
100
AcDbEntity
  8
姿図
100
AcDbLine
 10
12537.23874790613
 20
-6312.780708002704
 30
0.0
 11
12538.00622322828
 21
-6312.673069936691
 31
0.0
  0
LINE
  5
36F88A
330
18
100
AcDbEntity
  8
姿図
100
AcDbLine
 10
12512.98716146926
 20
-6314.269299498619
 30
0.0
 11
12512.52422781448
 21
-6314.416694627253
 31
0.0
  0
SPLINE
  5
36F88B
330
18
100
AcDbEntity
  8
姿図
100
AcDbSpline
210
0.0
220
0.0
230
1.0
 70
     8
 71
     3
 72
    12
 73
     8
 74
     0
 42
0.000000001
 43
0.0000000001
 40
0.0
 40
0.0
 40
0.0
 40
0.0
 40
0.1973123081289397
 40
0.3941628293546725
 40
0.6028030465296307
 40
0.8391767792741885
 40
1.0
 40
1.0
 40
1.0
 40
1.0
 10
12526.73364976349
 20
-6299.983739539211
 30
0.0
 10
12526.83558030462
 20
-6299.979893960562
 30
0.0
 10
12527.03920283012
 20
-6299.9722118034
 30
0.0
 10
12527.33027912474
 20
-6299.866764403399
 30
0.0
 10
12527.58461863609
 20
-6299.702548908781
 30
0.0
 10
12527.76113418765
 20
-6299.50806356333
 30
0.0
 10
12527.82135855852
 20
-6299.369757710064
 30
0.0
 10
12527.84574312946
 20
-6299.313758305804
 30
0.0
  0
SPLINE
  5
36F88C
330
18
100
AcDbEntity
  8
姿図
100
AcDbSpline
210
0.0
220
0.0
230
1.0
 70
     8
 71
     3
 72
    11
 73
     7
 74
     0
 42
0.000000001
 43
0.0000000001
 40
0.0
 40
0.0
 40
0.0
 40
0.0
 40
0.2737931166680017
 40
0.5483292849652917
 40
0.7992266839895869
 40
1.0
 40
1.0
 40
1.0
 40
1.0
 10
12524.3065474867
 20
-6299.243506878006
 30
0.0
 10
12524.33522342725
 20
-6299.340221765782
 30
0.0
 10
12524.39265313245
 20
-6299.533914017455
 30
0.0
 10
12524.64207774461
 20
-6299.774071929975
 30
0.0
 10
12524.9615411738
 20
-6299.928458236291
 30
0.0
 10
12525.19398040212
 20
-6299.946990765317
 30
0.0
 10
12525.29730256378
 20
-6299.955228707652
 30
0.0
  0
LINE
  5
36F88D
330
18
100
AcDbEntity
  8
姿図
100
AcDbLine
 10
12513.81599356136
 20
-6312.548390273438
 30
0.0
 11
12513.66027143689
 21
-6312.517688465838
 31
0.0
  0
LINE
  5
36F88E
330
18
100
AcDbEntity
  8
姿図
100
AcDbLine
 10
12513.78531419785
 20
-6312.192296265415
 30
0.0
 11
12514.56842054595
 21
-6312.346693162728
 31
0.0
  0
ARC
  5
36F88F
330
18
100
AcDbEntity
  8
姿図
100
AcDbCircle
 10
12525.21079633978
 20
-6340.508449438576
 30
0.0
 40
40.55331299632469
100
AcDbArc
 50
87.84792937635962
 51
89.87777952210826
  0
ARC
  5
36F890
330
18
100
AcDbEntity
  8
姿図
100
AcDbCircle
 10
12524.92431913198
 20
-6335.397880204842
 30
0.0
 40
35.43464190124588
100
AcDbArc
 50
93.53534932217113
 51
95.75633845068356
  0
SPLINE
  5
36F891
330
18
100
AcDbEntity
  8
姿図
100
AcDbSpline
210
0.0
220
0.0
230
1.0
 70
     8
 71
     3
 72
    11
 73
     7
 74
     0
 42
0.000000001
 43
0.0000000001
 40
0.0
 40
0.0
 40
0.0
 40
0.0
 40
0.2737927425994916
 40
0.54832963846272
 40
0.7992262293042991
 40
1.0
 40
1.0
 40
1.0
 40
1.0
 10
12520.12207455854
 20
-6299.541550978002
 30
0.0
 10
12520.19468431236
 20
-6299.633248949774
 30
0.0
 10
12520.34010116924
 20
-6299.816894123246
 30
0.0
 10
12520.68185959185
 20
-6300.027663454677
 30
0.0
 10
12521.04759872552
 20
-6300.147952111016
 30
0.0
 10
12521.270990162
 20
-6300.143776243907
 30
0.0
 10
12521.37029076896
 20
-6300.141920012778
 30
0.0
  0
LINE
  5
36F892
330
18
100
AcDbEntity
  8
姿図
100
AcDbLine
 10
12538.00622322828
 20
-6312.673069936691
 30
0.0
 11
12538.85280488199
 21
-6314.782719865238
 31
0.0
  0
LINE
  5
36F893
330
18
100
AcDbEntity
  8
姿図
100
AcDbLine
 10
12540.17928873408
 20
-6314.812182521833
 30
0.0
 11
12539.22080647625
 21
-6314.946608672739
 31
0.0
  0
LWPOLYLINE
  5
36F894
330
18
100
AcDbEntity
  8
姿図
100
AcDbPolyline
 90
        9
 70
   128
 43
0.0
 10
12539.8112845191
 20
-6314.648293049536
 10
12539.95033579995
 20
-6314.63699384364
 10
12540.09622985707
 20
-6314.639889950934
 10
12540.22675509529
 20
-6314.65654047199
 10
12540.3220402478
 20
-6314.684410451171
 10
12540.36758247758
 20
-6314.719257843577
 10
12540.35644574595
 20
-6314.755776685753
 10
12540.29032568546
 20
-6314.788407482975
 10
12540.17928873408
 20
-6314.812182521833
  0
LINE
  5
36F895
330
18
100
AcDbEntity
  8
姿図
100
AcDbLine
 10
12538.85280488199
 20
-6314.782719865238
 30
0.0
 11
12539.8112845191
 21
-6314.648293049536
 31
0.0
  0
SPLINE
  5
36F896
330
18
100
AcDbEntity
  8
姿図
100
AcDbSpline
210
0.0
220
0.0
230
1.0
 70
     8
 71
     3
 72
    12
 73
     8
 74
     0
 42
0.000000001
 43
0.0000000001
 40
0.0
 40
0.0
 40
0.0
 40
0.0
 40
0.1973112529434128
 40
0.3941634748193658
 40
0.6028032849505484
 40
0.8391770120574534
 40
1.0
 40
1.0
 40
1.0
 40
1.0
 10
12530.50021626376
 20
-6300.323144469793
 30
0.0
 10
12530.59212545212
 20
-6300.328944322011
 30
0.0
 10
12530.77573000845
 20
-6300.340530533492
 30
0.0
 10
12531.08149581608
 20
-6300.26481239324
 30
0.0
 10
12531.38274698116
 20
-6300.128290980958
 30
0.0
 10
12531.63066514412
 20
-6299.95498412105
 30
0.0
 10
12531.75060258713
 20
-6299.82568719507
 30
0.0
 10
12531.79916466537
 20
-6299.773335508413
 30
0.0
  0
LINE
  5
36F897
330
18
100
AcDbEntity
  8
姿図
100
AcDbLine
 10
12539.22080647625
 20
-6314.946608672739
 30
0.0
 11
12538.85280488199
 21
-6314.782719865238
 31
0.0
  0
LWPOLYLINE
  5
36F898
330
18
100
AcDbEntity
  8
姿図
100
AcDbPolyline
 90
        3
 70
   128
 43
0.0
 10
12530.50021626376
 20
-6300.323144469793
 10
12530.3447656239
 20
-6300.300203808374
 10
12530.230472163
 20
-6300.283916614879
  0
LINE
  5
36F899
330
18
100
AcDbEntity
  8
姿図
100
AcDbLine
 10
12510.95346921502
 20
-6313.470930190111
 30
0.0
 11
12511.43246140158
 21
-6313.504801486477
 31
0.0
  0
LINE
  5
36F89A
330
18
100
AcDbEntity
  8
姿図
100
AcDbLine
 10
12508.93097970832
 20
-6313.3279132762
 30
0.0
 11
12510.95346921502
 21
-6313.470930190111
 31
0.0
  0
LWPOLYLINE
  5
36F89B
330
18
100
AcDbEntity
  8
姿図
100
AcDbPolyline
 90
        9
 70
   128
 43
0.0
 10
12508.2352727535
 20
-6313.459075814062
 10
12508.23397295987
 20
-6313.451749862188
 10
12508.25317749734
 20
-6313.422963417646
 10
12508.29640083891
 20
-6313.39587476618
 10
12508.36067515835
 20
-6313.371860295241
 10
12508.44209601058
 20
-6313.352109181931
 10
12508.5355190701
 20
-6313.337250812203
 10
12508.73762638146
 20
-6313.323153250543
 10
12508.93097970832
 20
-6313.3279132762
  0
LINE
  5
36F89C
330
18
100
AcDbEntity
  8
姿図
100
AcDbLine
 10
12511.23837371599
 20
-6313.777036418237
 30
0.0
 11
12510.83883609097
 21
-6313.748783527302
 31
0.0
  0
LWPOLYLINE
  5
36F89D
330
18
100
AcDbEntity
  8
姿図
100
AcDbPolyline
 90
        8
 70
   128
 43
0.0
 10
12542.11364045132
 20
-6313.986572859199
 10
12542.30755396223
 20
-6313.989500209989
 10
12542.49868293087
 20
-6314.011403342156
 10
12542.58197178331
 20
-6314.029768796903
 10
12542.65043723102
 20
-6314.052495196171
 10
12542.69938206536
 20
-6314.078757589399
 10
12542.7256597342
 20
-6314.107225819186
 10
12542.7264738725
 20
-6314.122853026583
  0
LINE
  5
36F89E
330
18
100
AcDbEntity
  8
姿図
100
AcDbLine
 10
12542.11364045132
 20
-6313.986572859199
 30
0.0
 11
12540.46083905572
 21
-6314.035318573008
 31
0.0
  0
LINE
  5
36F89F
330
18
100
AcDbEntity
  8
姿図
100
AcDbLine
 10
12510.06194668665
 20
-6315.631841585871
 30
0.0
 11
12510.95346921502
 21
-6313.470930190111
 31
0.0
  0
LINE
  5
36F8A0
330
18
100
AcDbEntity
  8
姿図
100
AcDbLine
 10
12509.00254730028
 20
-6315.556927744214
 30
0.0
 11
12510.06194668665
 21
-6315.631841585871
 31
0.0
  0
LWPOLYLINE
  5
36F8A1
330
18
100
AcDbEntity
  8
姿図
100
AcDbPolyline
 90
        9
 70
   128
 43
0.0
 10
12508.80066213627
 20
-6315.737624405608
 10
12508.6701365671
 20
-6315.720973966328
 10
12508.57484846292
 20
-6315.693103404123
 10
12508.52931050859
 20
-6315.658256267641
 10
12508.54044823306
 20
-6315.621737180143
 10
12508.6065679626
 20
-6315.589106464695
 10
12508.71760325925
 20
-6315.565331834711
 10
12508.85665291222
 20
-6315.554031718695
 10
12509.00254730028
 20
-6315.556927744214
  0
LINE
  5
36F8A2
330
18
100
AcDbEntity
  8
姿図
100
AcDbLine
 10
12509.86006152264
 20
-6315.812538247264
 30
0.0
 11
12508.80066213627
 21
-6315.737624405608
 31
0.0
  0
LINE
  5
36F8A3
330
18
100
AcDbEntity
  8
姿図
100
AcDbLine
 10
12510.06194668665
 20
-6315.631841585871
 30
0.0
 11
12509.86006152264
 21
-6315.812538247264
 31
0.0
  0
LINE
  5
36F8A4
330
18
100
AcDbEntity
  8
姿図
100
AcDbLine
 10
12540.3218255712
 20
-6314.772863752679
 30
0.0
 11
12540.91673993205
 21
-6316.244294624109
 31
0.0
  0
LINE
  5
36F8A5
330
18
100
AcDbEntity
  8
姿図
100
AcDbLine
 10
12542.09871046498
 20
-6316.398574856003
 30
0.0
 11
12541.00664092344
 21
-6316.430782671746
 31
0.0
  0
LWPOLYLINE
  5
36F8A6
330
18
100
AcDbEntity
  8
姿図
100
AcDbPolyline
 90
        9
 70
   128
 43
0.0
 10
12542.00880685287
 20
-6316.212086143568
 10
12542.15470057904
 20
-6316.214982332637
 10
12542.28522614821
 20
-6316.231632771918
 10
12542.3805135905
 20
-6316.259503497668
 10
12542.42605615122
 20
-6316.294350808302
 10
12542.41491646792
 20
-6316.330869067456
 10
12542.34879673838
 20
-6316.363499782903
 10
12542.23775945606
 20
-6316.387274903537
 10
12542.09871046498
 20
-6316.398574856003
  0
LINE
  5
36F8A7
330
18
100
AcDbEntity
  8
姿図
100
AcDbLine
 10
12540.91673993205
 20
-6316.244294624109
 30
0.0
 11
12542.00880685287
 21
-6316.212086143568
 31
0.0
  0
LINE
  5
36F8A8
330
18
100
AcDbEntity
  8
姿図
100
AcDbLine
 10
12510.35429057799
 20
-6314.92324368089
 30
0.0
 11
12510.55116090177
 21
-6314.917437649844
 31
0.0
  0
LINE
  5
36F8A9
330
18
100
AcDbEntity
  8
姿図
100
AcDbLine
 10
12508.20988533085
 20
-6314.986488475554
 30
0.0
 11
12508.43697811389
 21
-6314.979790903977
 31
0.0
  0
LWPOLYLINE
  5
36F8AA
330
18
100
AcDbEntity
  8
姿図
100
AcDbPolyline
 90
        7
 70
   128
 43
0.0
 10
12507.72881249381
 20
-6315.121828630356
 10
12507.72820178494
 20
-6315.110153855303
 10
12507.75080925929
 20
-6315.081781183028
 10
12507.79575049959
 20
-6315.055710333536
 10
12507.85924721351
 20
-6315.033015321342
 10
12508.02419416028
 20
-6315.00061115342
 10
12508.20988533085
 20
-6314.986488475554
  0
LINE
  5
36F8AB
330
18
100
AcDbEntity
  8
姿図
100
AcDbLine
 10
12510.54593552982
 20
-6315.194996366209
 30
0.0
 11
12510.42659820934
 21
-6315.198516187924
 31
0.0
  0
LINE
  5
36F8AC
330
18
100
AcDbEntity
  8
姿図
100
AcDbLine
 10
12541.00664092344
 20
-6316.430782671746
 30
0.0
 11
12540.91673993205
 21
-6316.244294624109
 31
0.0
  0
LINE
  5
36F8AD
330
18
100
AcDbEntity
  8
姿図
100
AcDbLine
 10
12510.42659820934
 20
-6315.198516187924
 30
0.0
 11
12510.32644032985
 21
-6314.990749777076
 31
0.0
  0
LINE
  5
36F8AE
330
18
100
AcDbEntity
  8
姿図
100
AcDbLine
 10
12540.64430554344
 20
-6315.570469689134
 30
0.0
 11
12539.91371709765
 21
-6315.518808059483
 31
0.0
  0
LINE
  5
36F8AF
330
18
100
AcDbEntity
  8
姿図
100
AcDbLine
 10
12510.42659820934
 20
-6315.198516187924
 30
0.0
 11
12509.87629796193
 21
-6316.53228507886
 31
0.0
  0
LINE
  5
36F8B0
330
18
100
AcDbEntity
  8
姿図
100
AcDbLine
 10
12509.63288491359
 20
-6316.676197386907
 30
0.0
 11
12510.01003507195
 21
-6315.67830770417
 31
0.0
  0
LINE
  5
36F8B1
330
18
100
AcDbEntity
  8
姿図
100
AcDbLine
 10
12508.35324963722
 20
-6317.204681195305
 30
0.0
 11
12508.99693309255
 21
-6317.185697998631
 31
0.0
  0
LWPOLYLINE
  5
36F8B2
330
18
100
AcDbEntity
  8
姿図
100
AcDbPolyline
 90
        9
 70
   128
 43
0.0
 10
12508.44315324934
 20
-6317.391169907737
 10
12508.29725886128
 20
-6317.388273882218
 10
12508.16673329211
 20
-6317.371623442937
 10
12508.07144518793
 20
-6317.343752880734
 10
12508.02590461288
 20
-6317.308905079455
 10
12508.03704231051
 20
-6317.272387310948
 10
12508.10316204005
 20
-6317.239756595501
 10
12508.21419998426
 20
-6317.215981311321
 10
12508.35324963722
 20
-6317.204681195305
  0
LINE
  5
36F8B3
330
18
100
AcDbEntity
  8
姿図
100
AcDbLine
 10
12508.78227419144
 20
-6317.38116798119
 30
0.0
 11
12508.44315324934
 21
-6317.391169907737
 31
0.0
  0
LINE
  5
36F8B4
330
18
100
AcDbEntity
  8
姿図
100
AcDbLine
 10
12539.91959618229
 20
-6315.859823718907
 30
0.0
 11
12540.07159006824
 21
-6316.296355544457
 31
0.0
  0
LWPOLYLINE
  5
36F8B5
330
18
100
AcDbEntity
  8
姿図
100
AcDbPolyline
 90
       22
 70
   128
 43
0.0
 10
12516.50810444164
 20
-6351.475494477035
 10
12516.56974844873
 20
-6351.541039789713
 10
12517.2112759495
 20
-6352.181689646783
 10
12517.90144093622
 20
-6352.798988944218
 10
12518.63540341291
 20
-6353.388593266526
 10
12519.40801279963
 20
-6353.946358230199
 10
12520.21384985689
 20
-6354.468392081161
 10
12521.04726618023
 20
-6354.951028899608
 10
12521.90241048079
 20
-6355.390873251714
 10
12522.77329167892
 20
-6355.784861980056
 10
12523.65379213362
 20
-6356.130205864367
 10
12524.53774266981
 20
-6356.424489109805
 10
12525.41893969146
 20
-6356.66565594408
 10
12526.29120713093
 20
-6356.852008433782
 10
12527.14841890371
 20
-6356.98223109583
 10
12527.98456611883
 20
-6357.05543068511
 10
12528.79378480494
 20
-6357.071091321683
 10
12529.57039693616
 20
-6357.029078777324
 10
12530.3089591292
 20
-6356.929725484238
 10
12531.00428538392
 20
-6356.773688540342
 10
12531.65150100332
 20
-6356.562092434845
 10
12531.79255347389
 20
-6356.505919924065
  0
ELLIPSE
  5
36F8B6
330
18
100
AcDbEntity
  8
姿図
100
AcDbEllipse
 10
12519.64771953485
 20
-6360.988909941994
 30
0.0
 11
-10.6392381595248
 21
437.4174727004689
 31
0.0
210
0.0
220
0.0
230
1.0
 40
0.0221395500275197
 41
1.556260385970414
 42
1.556778378371005
  0
ARC
  5
36F8B7
330
18
100
AcDbEntity
  8
姿図
100
AcDbCircle
 10
12539.77824935878
 20
-6354.202603006294
 30
0.0
 40
1.235533839413804
100
AcDbArc
 50
350.3934138870325
 51
46.26820416504735
  0
ARC
  5
36F8B8
330
18
100
AcDbEntity
  8
姿図
100
AcDbCircle
 10
12539.80437047354
 20
-6354.195141316001
 30
0.0
 40
1.211943833467244
100
AcDbArc
 50
351.1561382838058
 51
46.9544096476196
  0
LINE
  5
36F8B9
330
18
100
AcDbEntity
  8
姿図
100
AcDbLine
 10
12509.81730919229
 20
-6355.092443836247
 30
0.0
 11
12509.81531028423
 21
-6355.092937753703
 31
0.0
  0
LINE
  5
36F8BA
330
18
100
AcDbEntity
  8
姿図
100
AcDbLine
 10
12538.59925115874
 20
-6357.926891635571
 30
0.0
 11
12538.61273264847
 21
-6357.920265564747
 31
0.0
  0
LINE
  5
36F8BB
330
18
100
AcDbEntity
  8
姿図
100
AcDbLine
 10
12534.68119224008
 20
-6356.209460175842
 30
0.0
 11
12534.2545971692
 21
-6356.079017954923
 31
0.0
  0
LINE
  5
36F8BC
330
18
100
AcDbEntity
  8
姿図
100
AcDbLine
 10
12534.2545971692
 20
-6356.079017954923
 30
0.0
 11
12533.3115681896
 21
-6355.833980681611
 31
0.0
  0
LINE
  5
36F8BD
330
18
100
AcDbEntity
  8
姿図
100
AcDbLine
 10
12529.09598538934
 20
-6352.157746035985
 30
0.0
 11
12528.76362633814
 21
-6351.742885996343
 31
0.0
  0
ELLIPSE
  5
36F8BE
330
18
100
AcDbEntity
  8
姿図
100
AcDbEllipse
 10
12529.34436901726
 20
-6351.000284195077
 30
0.0
 11
-0.3266976615443128
 21
1.206724624741399
 31
0.0
210
0.0
220
0.0
230
1.0
 40
0.6766753335300679
 41
1.362166327916689
 42
2.039765472595368
  0
LINE
  5
36F8BF
330
18
100
AcDbEntity
  8
姿図
100
AcDbLine
 10
12530.03262965105
 20
-6353.298093331606
 30
0.0
 11
12529.09598538934
 21
-6352.157746035985
 31
0.0
  0
ELLIPSE
  5
36F8C0
330
18
100
AcDbEntity
  8
姿図
100
AcDbEllipse
 10
12533.02474477114
 20
-6348.181782410492
 30
0.0
 11
-1.960185969265793
 21
7.240347748448335
 31
0.0
210
0.0
220
0.0
230
1.0
 40
0.6766753335300715
 41
2.15812896255939
 42
2.473824844109747
  0
LINE
  5
36F8C1
330
18
100
AcDbEntity
  8
姿図
100
AcDbLine
 10
12533.3115681896
 20
-6355.833980681611
 30
0.0
 11
12532.96516221428
 21
-6355.664359396997
 31
0.0
  0
LINE
  5
36F8C2
330
18
100
AcDbEntity
  8
姿図
100
AcDbLine
 10
12531.53003622729
 20
-6354.688300686344
 30
0.0
 11
12532.96516221428
 21
-6355.664359396997
 31
0.0
  0
ARC
  5
36F8C3
330
18
100
AcDbEntity
  8
姿図
100
AcDbCircle
 10
12530.03673856607
 20
-6338.031326049953
 30
0.0
 40
20.06726109630607
100
AcDbArc
 50
226.3636102234114
 51
232.6910428799801
  0
LINE
  5
36F8C4
330
18
100
AcDbEntity
  8
姿図
100
AcDbLine
 10
12520.57160542961
 20
-6361.056171089775
 30
0.0
 11
12520.60935747796
 21
-6361.056138297492
 31
0.0
  0
SPLINE
  5
36F8C5
330
18
100
AcDbEntity
  8
姿図
100
AcDbSpline
210
0.0
220
0.0
230
1.0
 70
     8
 71
     3
 72
    14
 73
    10
 74
     0
 42
0.000000001
 43
0.0000000001
 40
0.0
 40
0.0
 40
0.0
 40
0.0
 40
0.0400139149656054
 40
0.1521489026687922
 40
0.2644665097625359
 40
0.4377898816948484
 40
0.6115160430663642
 40
0.8056814097405501
 40
0.9999999999999998
 40
0.9999999999999998
 40
0.9999999999999998
 40
0.9999999999999998
 10
12516.68008198237
 20
-6360.657419902204
 30
0.0
 10
12516.74272837079
 20
-6360.66562524576
 30
0.0
 10
12516.98093498622
 20
-6360.696825242544
 30
0.0
 10
12517.42962734452
 20
-6360.737918576043
 30
0.0
 10
12518.13391133365
 20
-6360.778282530732
 30
0.0
 10
12518.96934839938
 20
-6360.796194339549
 30
0.0
 10
12519.94596726492
 20
-6360.782948106449
 30
0.0
 10
12520.94333654328
 20
-6360.738739415995
 30
0.0
 10
12521.60844790707
 20
-6360.68322556853
 30
0.0
 10
12521.94113475364
 20
-6360.655457697074
 30
0.0
  0
SPLINE
  5
36F8C6
330
18
100
AcDbEntity
  8
姿図
100
AcDbSpline
210
0.0
220
0.0
230
1.0
 70
     8
 71
     3
 72
    13
 73
     9
 74
     0
 42
0.000000001
 43
0.0000000001
 40
0.0
 40
0.0
 40
0.0
 40
0.0
 40
0.3073972489870814
 40
0.4663812016033824
 40
0.6251760177604302
 40
0.7374892284646296
 40
0.8517479600783076
 40
0.9999999999999998
 40
0.9999999999999998
 40
0.9999999999999998
 40
0.9999999999999998
 10
12534.52192583196
 20
-6357.546824327187
 30
0.0
 10
12534.7029191141
 20
-6357.413286091825
 30
0.0
 10
12534.97752100037
 20
-6357.210682708505
 30
0.0
 10
12535.16371531518
 20
-6356.918712059283
 30
0.0
 10
12535.20581348184
 20
-6356.715733876328
 30
0.0
 10
12535.14916882471
 20
-6356.537148412789
 30
0.0
 10
12535.01374021211
 20
-6356.368830093863
 30
0.0
 10
12534.80121507041
 20
-6356.266979782753
 30
0.0
 10
12534.68119224008
 20
-6356.209460175842
 30
0.0
  0
SPLINE
  5
36F8C7
330
18
100
AcDbEntity
  8
姿図
100
AcDbSpline
210
0.0
220
0.0
230
1.0
 70
     8
 71
     3
 72
    16
 73
    12
 74
     0
 42
0.000000001
 43
0.0000000001
 40
0.0
 40
0.0
 40
0.0
 40
0.0
 40
0.0786456310502336
 40
0.2070442173689871
 40
0.3359146695540105
 40
0.4645609081260124
 40
0.5697095834885763
 40
0.6751744282031349
 40
0.7805227322500273
 40
0.8855118148175622
 40
0.9999999999999998
 40
0.9999999999999998
 40
0.9999999999999998
 40
0.9999999999999998
 10
12534.52192583196
 20
-6357.546824327187
 30
0.0
 10
12534.33813996924
 20
-6357.656590077359
 30
0.0
 10
12533.8543012664
 20
-6357.945561804528
 30
0.0
 10
12532.82072642481
 20
-6358.384826064884
 30
0.0
 10
12531.44230065241
 20
-6358.856074052443
 30
0.0
 10
12529.98255982096
 20
-6359.265867719368
 30
0.0
 10
12528.51037959889
 20
-6359.622955310861
 30
0.0
 10
12527.04754553485
 20
-6359.930481443569
 30
0.0
 10
12525.49103130198
 20
-6360.2068511505
 30
0.0
 10
12523.80481471601
 20
-6360.460393835062
 30
0.0
 10
12522.58003118672
 20
-6360.588586985269
 30
0.0
 10
12521.94113475364
 20
-6360.655457697074
 30
0.0
  0
LINE
  5
36F8C8
330
18
100
AcDbEntity
  8
姿図
100
AcDbLine
 10
12516.1320903128
 20
-6360.556974007856
 30
0.0
 11
12516.68008198237
 21
-6360.657419902204
 31
0.0
  0
LINE
  5
36F8C9
330
18
100
AcDbEntity
  8
姿図
100
AcDbLine
 10
12516.2397352093
 20
-6352.616445733421
 30
0.0
 11
12516.24153409513
 21
-6352.618615334656
 31
0.0
  0
SPLINE
  5
36F8CA
330
18
100
AcDbEntity
  8
姿図
100
AcDbSpline
210
0.0
220
0.0
230
1.0
 70
     8
 71
     3
 72
    11
 73
     7
 74
     0
 42
0.000000001
 43
0.0000000001
 40
0.0
 40
0.0
 40
0.0
 40
0.0
 40
0.1504078997629071
 40
0.4516067830166801
 40
0.7583501393412586
 40
1.0
 40
1.0
 40
1.0
 40
1.0
 10
12517.68610230241
 20
-6353.872322431818
 30
0.0
 10
12517.60382505539
 20
-6353.816028599768
 30
0.0
 10
12517.35678375704
 20
-6353.647003725171
 30
0.0
 10
12516.97374763679
 20
-6353.327318274947
 30
0.0
 10
12516.562708253
 20
-6352.971560154397
 30
0.0
 10
12516.33977138458
 20
-6352.7265702917
 30
0.0
 10
12516.24153409513
 20
-6352.618615334656
 30
0.0
  0
SPLINE
  5
36F8CB
330
18
100
AcDbEntity
  8
姿図
100
AcDbSpline
210
0.0
220
0.0
230
1.0
 70
     8
 71
     3
 72
     9
 73
     5
 74
     0
 42
0.000000001
 43
0.0000000001
 40
0.0
 40
0.0
 40
0.0
 40
0.0
 40
0.584488941378365
 40
0.9999999999999998
 40
0.9999999999999998
 40
0.9999999999999998
 40
0.9999999999999998
 10
12517.68610230241
 20
-6353.872322431818
 30
0.0
 10
12517.98575877688
 20
-6354.053746428565
 30
0.0
 10
12518.49843994715
 20
-6354.364144083517
 30
0.0
 10
12519.04183458955
 20
-6354.601816403007
 30
0.0
 10
12519.26762107266
 20
-6354.700571880082
 30
0.0
  0
SPLINE
  5
36F8CC
330
18
100
AcDbEntity
  8
姿図
100
AcDbSpline
210
0.0
220
0.0
230
1.0
 70
     8
 71
     3
 72
    21
 73
    17
 74
     0
 42
0.000000001
 43
0.0000000001
 40
0.0
 40
0.0
 40
0.0
 40
0.0
 40
0.0240351226004523
 40
0.1012729369817249
 40
0.1787755290030131
 40
0.2560768724185655
 40
0.3357829226189483
 40
0.4157104060948833
 40
0.4954232916054654
 40
0.5591132600132888
 40
0.6228035444410215
 40
0.7088167679023907
 40
0.7950980461578778
 40
0.8811102852620106
 40
0.9454526500841296
 40
1.0
 40
1.0
 40
1.0
 40
1.0
 10
12519.26762107266
 20
-6354.700571880082
 30
0.0
 10
12519.38580279611
 20
-6354.783568992329
 30
0.0
 10
12519.88376614877
 20
-6355.133280598051
 30
0.0
 10
12520.76811316372
 20
-6355.706683749743
 30
0.0
 10
12521.92154473136
 20
-6356.357100223123
 30
0.0
 10
12523.09228609614
 20
-6356.904169314812
 30
0.0
 10
12524.27816110405
 20
-6357.329408243845
 30
0.0
 10
12525.46608388071
 20
-6357.627573030167
 30
0.0
 10
12526.55701199028
 20
-6357.778712079017
 30
0.0
 10
12527.54518879422
 20
-6357.808376452986
 30
0.0
 10
12528.53602448954
 20
-6357.740361071685
 30
0.0
 10
12529.58745343901
 20
-6357.533188848566
 30
0.0
 10
12530.66976669465
 20
-6357.148839829508
 30
0.0
 10
12531.58334326675
 20
-6356.652887112209
 30
0.0
 10
12532.31315841907
 20
-6356.127363550385
 30
0.0
 10
12532.68913104274
 20
-6355.761715061752
 30
0.0
 10
12532.86162965045
 20
-6355.593953232232
 30
0.0
  0
SPLINE
  5
36F8CD
330
18
100
AcDbEntity
  8
姿図
100
AcDbSpline
210
0.0
220
0.0
230
1.0
 70
     8
 71
     3
 72
    12
 73
     8
 74
     0
 42
0.000000001
 43
0.0000000001
 40
0.0
 40
0.0
 40
0.0
 40
0.0
 40
0.1899792442050127
 40
0.4072086679238104
 40
0.6258268466308464
 40
0.9119687405615767
 40
1.0
 40
1.0
 40
1.0
 40
1.0
 10
12519.26762107266
 20
-6354.700571880082
 30
0.0
 10
12519.65244987896
 20
-6354.927005066292
 30
0.0
 10
12520.47730643763
 20
-6355.412350486609
 30
0.0
 10
12521.78100797933
 20
-6356.095050328817
 30
0.0
 10
12523.3111804773
 20
-6356.805324516194
 30
0.0
 10
12524.58981018051
 20
-6357.314964345825
 30
0.0
 10
12525.39671845174
 20
-6357.563501625907
 30
0.0
 10
12525.58655877227
 20
-6357.62197468734
 30
0.0
  0
LINE
  5
36F8CE
330
18
100
AcDbEntity
  8
姿図
100
AcDbLine
 10
12515.18921092036
 20
-6360.31189977251
 30
0.0
 11
12516.1320903128
 21
-6360.556974007856
 31
0.0
  0
LINE
  5
36F8CF
330
18
100
AcDbEntity
  8
姿図
100
AcDbLine
 10
12515.43964309017
 20
-6351.6476260539
 30
0.0
 11
12516.2397352093
 21
-6352.616445733421
 31
0.0
  0
LINE
  5
36F8D0
330
18
100
AcDbEntity
  8
姿図
100
AcDbLine
 10
12514.84491240306
 20
-6360.141757748436
 30
0.0
 11
12515.18921092036
 21
-6360.31189977251
 31
0.0
  0
LINE
  5
36F8D1
330
18
100
AcDbEntity
  8
姿図
100
AcDbLine
 10
12514.84491240306
 20
-6360.141757748436
 30
0.0
 11
12513.42556984705
 21
-6359.161799052483
 31
0.0
  0
ELLIPSE
  5
36F8D2
330
18
100
AcDbEntity
  8
姿図
100
AcDbEllipse
 10
12515.0978395305
 20
-6352.611406549621
 30
0.0
 11
-1.633962449735911
 21
7.320892518944121
 31
0.0
210
0.0
220
0.0
230
1.0
 40
0.6854092918531897
 41
2.188644803816596
 42
2.504340685366943
  0
LINE
  5
36F8D3
330
18
100
AcDbEntity
  8
姿図
100
AcDbLine
 10
12511.95421658836
 20
-6357.765154088871
 30
0.0
 11
12511.04085298663
 21
-6356.619054290403
 31
0.0
  0
LINE
  5
36F8D4
330
18
100
AcDbEntity
  8
姿図
100
AcDbLine
 10
12510.71701577028
 20
-6356.20208855963
 30
0.0
 11
12511.04085298663
 21
-6356.619054290403
 31
0.0
  0
ELLIPSE
  5
36F8D5
330
18
100
AcDbEntity
  8
姿図
100
AcDbEllipse
 10
12511.32070800679
 20
-6355.45381606886
 30
0.0
 11
-0.2723270749559945
 21
1.220148753157363
 31
0.0
210
0.0
220
0.0
230
1.0
 40
0.685409291853178
 41
1.272185429454528
 42
2.07028131385257
  0
LINE
  5
36F8D6
330
18
100
AcDbEntity
  8
姿図
100
AcDbLine
 10
12510.42756187072
 20
-6354.095261456478
 30
0.0
 11
12510.44130025099
 21
-6355.273257713619
 31
0.0
  0
LINE
  5
36F8D7
330
18
100
AcDbEntity
  8
姿図
100
AcDbLine
 10
12509.81730919229
 20
-6355.092443836247
 30
0.0
 11
12509.92143059735
 21
-6355.401714194872
 31
0.0
  0
SPLINE
  5
36F8D8
330
18
100
AcDbEntity
  8
姿図
100
AcDbSpline
210
0.0
220
0.0
230
1.0
 70
     8
 71
     3
 72
     9
 73
     5
 74
     0
 42
0.000000001
 43
0.0000000001
 40
0.0
 40
0.0
 40
0.0
 40
0.0
 40
0.5209808028355695
 40
1.0
 40
1.0
 40
1.0
 40
1.0
 10
12509.92143059735
 20
-6355.401714194872
 30
0.0
 10
12510.02204461019
 20
-6355.563429650854
 30
0.0
 10
12510.21516883336
 20
-6355.873835437601
 30
0.0
 10
12510.55447946427
 20
-6356.095775168105
 30
0.0
 10
12510.71701577028
 20
-6356.20208855963
 30
0.0
  0
LWPOLYLINE
  5
36F8D9
330
18
100
AcDbEntity
  8
姿図
100
AcDbPolyline
 90
       35
 70
   128
 43
0.0
 10
12538.32647731165
 20
-6335.122519338155
 10
12537.47631470986
 20
-6334.90940676171
 10
12536.57136553274
 20
-6334.710945792952
 10
12535.61566818481
 20
-6334.528021804665
 10
12534.61349261579
 20
-6334.361452457385
 10
12533.56931640324
 20
-6334.211981798031
 10
12532.48780078133
 20
-6334.080276996486
 10
12531.3737768485
 20
-6333.966926504167
 10
12530.23222159636
 20
-6333.872436790626
 10
12529.06823228375
 20
-6333.79722948901
 10
12527.88700734931
 20
-6333.741640863014
 10
12526.69381915773
 20
-6333.705918042238
 10
12525.4940047064
 20
-6333.690222630862
 10
12524.29291605527
 20
-6333.694623270706
 10
12523.09591892255
 20
-6333.719099925319
 10
12521.90835908934
 20
-6333.763544307008
 10
12520.73554400083
 20
-6333.82775786127
 10
12519.58270914415
 20
-6333.911453512805
 10
12518.45500155474
 20
-6334.014257116276
 10
12517.35746197216
 20
-6334.135710553122
 10
12516.29498865082
 20
-6334.275270174828
 10
12515.27232801299
 20
-6334.432313049569
 10
12514.29404894246
 20
-6334.606138064665
 10
12513.36451638944
 20
-6334.79596851155
 10
12512.48788731867
 20
-6335.000957024043
 10
12511.66807510157
 20
-6335.220187815028
 10
12510.90873887232
 20
-6335.452681931223
 10
12510.21327423456
 20
-6335.697400861843
 10
12509.58478286812
 20
-6335.953251423877
 10
12509.02607374545
 20
-6336.219090710944
 10
12508.53964324811
 20
-6336.493732318749
 10
12508.12766325271
 20
-6336.775949288973
 10
12507.79197178398
 20
-6337.064480355915
 10
12507.53407020617
 20
-6337.35803851464
 10
12507.48246493771
 20
-6337.43120959691
  0
LWPOLYLINE
  5
36F8DA
330
18
100
AcDbEntity
  8
姿図
100
AcDbPolyline
 90
       13
 70
   128
 43
0.0
 10
12543.18381717488
 20
-6338.23444013612
 10
12543.18147736174
 20
-6338.123989995506
 10
12543.12024197184
 20
-6337.823574370883
 10
12542.97901388881
 20
-6337.524795488261
 10
12542.75842322183
 20
-6337.228987180447
 10
12542.45945136473
 20
-6336.937469972216
 10
12542.08343570978
 20
-6336.651545978478
 10
12541.63205463887
 20
-6336.372492113994
 10
12541.10732564517
 20
-6336.101555308047
 10
12540.5115896893
 20
-6335.839944558702
 10
12539.84751122615
 20
-6335.588829613811
 10
12539.11805665768
 20
-6335.349331859234
 10
12538.32647731165
 20
-6335.122519338155
  0
LWPOLYLINE
  5
36F8DB
330
18
100
AcDbEntity
  8
姿図
100
AcDbPolyline
 90
       35
 70
   128
 43
0.0
 10
12538.30743790132
 20
-6336.054465157975
 10
12537.45846419674
 20
-6335.841650687027
 10
12536.55477581241
 20
-6335.643466121749
 10
12535.60041311167
 20
-6335.460797663264
 10
12534.59963785114
 20
-6335.294461059501
 10
12533.55691809147
 20
-6335.145198771859
 10
12532.47691112231
 20
-6335.013677632527
 10
12531.36444409762
 20
-6334.900485755227
 10
12530.22448087852
 20
-6334.806127604516
 10
12529.06211640725
 20
-6334.731025385968
 10
12527.88253894367
 20
-6334.675513941313
 10
12526.69101983277
 20
-6334.63984196446
 10
12525.49287770005
 20
-6334.624167725015
 10
12524.29346587555
 20
-6334.628562175684
 10
12523.09814020281
 20
-6334.65300509526
 10
12521.9122392358
 20
-6334.697387357114
 10
12520.7410611801
 20
-6334.761511377428
 10
12519.58983297192
 20
-6334.845089569062
 10
12518.46370159304
 20
-6334.947750424654
 10
12517.36769203183
 20
-6335.069033155868
 10
12516.3067018003
 20
-6335.208398234702
 10
12515.28546943172
 20
-6335.365222053944
 10
12514.30855457025
 20
-6335.5388044716
 10
12513.38032213925
 20
-6335.728370098096
 10
12512.50491591934
 20
-6335.933072200249
 10
12511.68624922827
 20
-6336.151997628924
 10
12510.92797198744
 20
-6336.384167082535
 10
12510.23347712608
 20
-6336.628544023493
 10
12509.60586364962
 20
-6336.884037241965
 10
12509.04793520857
 20
-6337.149506458953
 10
12508.56218161924
 20
-6337.423764267675
 10
12508.15077600154
 20
-6337.705587339677
 10
12507.81555635334
 20
-6337.993715728256
 10
12507.55801347551
 20
-6338.286863726263
 10
12507.50286254757
 20
-6338.365341446287
  0
LWPOLYLINE
  5
36F8DC
330
18
100
AcDbEntity
  8
姿図
100
AcDbPolyline
 90
       13
 70
   128
 43
0.0
 10
12543.15799601698
 20
-6339.162041886568
 10
12543.15565965626
 20
-6339.05174575138
 10
12543.09451056214
 20
-6338.751749756628
 10
12542.95348208331
 20
-6338.453388753294
 10
12542.73319781736
 20
-6338.157992933715
 10
12542.43464213664
 20
-6337.866882086688
 10
12542.05915146742
 20
-6337.581357253462
 10
12541.60840159769
 20
-6337.302693365009
 10
12541.08440513695
 20
-6337.032134620256
 10
12540.48950108699
 20
-6336.770889188922
 10
12539.82635064692
 20
-6336.520124998625
 10
12539.09791039768
 20
-6336.280960612489
 10
12538.30743790132
 20
-6336.054465157975
  0
LINE
  5
36F8DD
330
18
100
AcDbEntity
  8
姿図
100
AcDbLine
 10
12508.08009380748
 20
-6336.478810985301
 30
0.0
 11
12508.07062079022
 21
-6336.493713618922
 31
0.0
  0
LWPOLYLINE
  5
36F8DE
330
18
100
AcDbEntity
  8
姿図
100
AcDbPolyline
 90
       20
 70
   128
 43
0.0
 10
12523.5754300128
 20
-6332.855425307934
 10
12522.38304932759
 20
-6332.893274658678
 10
12521.20424479286
 20
-6332.951717377127
 10
12520.04467785769
 20
-6333.030472686111
 10
12518.90991778963
 20
-6333.129161848794
 10
12517.80541459092
 20
-6333.247312236188
 10
12516.73647400762
 20
-6333.384355628068
 10
12515.70823041902
 20
-6333.539633599475
 10
12514.72561451228
 20
-6333.712400258659
 10
12513.79335582273
 20
-6333.901826868835
 10
12512.91592475585
 20
-6334.107003050579
 10
12512.09753642444
 20
-6334.326942395481
 10
12511.34212282238
 20
-6334.560590654199
 10
12510.6533143991
 20
-6334.806825039848
 10
12510.03441355711
 20
-6335.064462088955
 10
12509.48839451782
 20
-6335.33226425641
 10
12509.01788341116
 20
-6335.60894745991
 10
12508.62513325799
 20
-6335.893180699862
 10
12508.31203421142
 20
-6336.183600589485
 10
12508.08009380748
 20
-6336.478810985301
  0
ARC
  5
36F8DF
330
18
100
AcDbEntity
  8
姿図
100
AcDbCircle
 10
12525.15602553369
 20
-6401.766456188162
 30
0.0
 40
68.92915536386764
100
AcDbArc
 50
90.28062743410935
 51
91.31394894279258
  0
SPLINE
  5
36F8E0
330
18
100
AcDbEntity
  8
姿図
100
AcDbSpline
210
0.0
220
0.0
230
1.0
 70
     8
 71
     3
 72
    15
 73
    11
 74
     0
 42
0.000000001
 43
0.0000000001
 40
0.0
 40
0.0
 40
0.0
 40
0.0
 40
0.2273075071027862
 40
0.33908049897322
 40
0.4519186313480833
 40
0.5348927494178902
 40
0.6177339628408272
 40
0.7352427939460604
 40
0.9210633555888565
 40
1.0
 40
1.0
 40
1.0
 40
1.0
 10
12526.72932744774
 20
-6332.855117258837
 30
0.0
 10
12526.64013550488
 20
-6332.981769643741
 30
0.0
 10
12526.50708557234
 20
-6333.170700288473
 30
0.0
 10
12526.20597754149
 20
-6333.357756751425
 30
0.0
 10
12525.94798511443
 20
-6333.435056373176
 30
0.0
 10
12525.69125780098
 20
-6333.437359581872
 30
0.0
 10
12525.44240111603
 20
-6333.380714097968
 30
0.0
 10
12525.15599872792
 20
-6333.232501309336
 30
0.0
 10
12524.95085365382
 20
-6333.033380539323
 30
0.0
 10
12524.84883672632
 20
-6332.882971613077
 30
0.0
 10
12524.81842065549
 20
-6332.838127598805
 30
0.0
  0
ARC
  5
36F8E1
330
18
100
AcDbEntity
  8
姿図
100
AcDbCircle
 10
12525.18963282878
 20
-6400.64807589392
 30
0.0
 40
67.81044093661112
100
AcDbArc
 50
87.65436752337166
 51
88.69893803715318
  0
LWPOLYLINE
  5
36F8E2
330
18
100
AcDbEntity
  8
姿図
100
AcDbPolyline
 90
       20
 70
   128
 43
0.0
 10
12542.35035831211
 20
-6336.520659882694
 10
12542.32810451895
 20
-6336.486038491092
 10
12542.09120822846
 20
-6336.190728950219
 10
12541.7732376246
 20
-6335.900176483789
 10
12541.37572116214
 20
-6335.615776418929
 10
12540.90056394703
 20
-6335.338894007939
 10
12540.3500514573
 20
-6335.070859571811
 10
12539.72682534833
 20
-6334.812960042622
 10
12539.03388353331
 20
-6334.566435006586
 10
12538.27454876139
 20
-6334.33246740749
 10
12537.45246867134
 20
-6334.112180908736
 10
12536.57159253598
 20
-6333.906633828387
 10
12535.63615195109
 20
-6333.716813411952
 10
12534.65063722202
 20
-6333.5436311682
 10
12533.61978263221
 20
-6333.387918635068
 10
12532.54853852749
 20
-6333.25042377857
 10
12531.44204999254
 20
-6333.131807075183
 10
12530.30563254878
 20
-6333.03263833023
 10
12529.14473930136
 20
-6332.953392984401
 10
12527.96494974071
 20
-6332.894452256096
  0
SPLINE
  5
36F8E3
330
18
100
AcDbEntity
  8
姿図
100
AcDbSpline
210
0.0
220
0.0
230
1.0
 70
     8
 71
     3
 72
     9
 73
     5
 74
     0
 42
0.000000001
 43
0.0000000001
 40
0.0
 40
0.0
 40
0.0
 40
0.0
 40
0.6329768637000043
 40
1.0
 40
1.0
 40
1.0
 40
1.0
 10
12512.94397061528
 20
-6337.651420533736
 30
0.0
 10
12512.94747606822
 20
-6337.553568121484
 30
0.0
 10
12512.95301411099
 20
-6337.398977301718
 30
0.0
 10
12513.01006771047
 20
-6337.256303046999
 30
0.0
 10
12513.03100770149
 20
-6337.20393829456
 30
0.0
  0
SPLINE
  5
36F8E4
330
18
100
AcDbEntity
  8
姿図
100
AcDbSpline
210
0.0
220
0.0
230
1.0
 70
     8
 71
     3
 72
    11
 73
     7
 74
     0
 42
0.000000001
 43
0.0000000001
 40
0.0
 40
0.0
 40
0.0
 40
0.0
 40
0.0153370801883472
 40
0.0766850412197325
 40
0.3220779747583146
 40
1.0
 40
1.0
 40
1.0
 40
1.0
 10
12523.5754300128
 20
-6332.855425307934
 30
0.0
 10
12523.57413126677
 20
-6332.759400132207
 30
0.0
 10
12523.56763756704
 20
-6332.279276505784
 30
0.0
 10
12523.54038588378
 20
-6330.262763068025
 30
0.0
 10
12523.45707325129
 20
-6324.097904498922
 30
0.0
 10
12523.37909180116
 20
-6318.317482033015
 30
0.0
 10
12523.32183577807
 20
-6314.073344463731
 30
0.0
  0
SPLINE
  5
36F8E5
330
18
100
AcDbEntity
  8
姿図
100
AcDbSpline
210
0.0
220
0.0
230
1.0
 70
     8
 71
     3
 72
    11
 73
     7
 74
     0
 42
0.000000001
 43
0.0000000001
 40
0.0
 40
0.0
 40
0.0
 40
0.0
 40
0.0153368399567487
 40
0.0766852974209054
 40
0.3220780404534385
 40
1.0
 40
1.0
 40
1.0
 40
1.0
 10
12508.69217138423
 20
-6317.494303425633
 30
0.0
 10
12508.68902554909
 20
-6317.591356524462
 30
0.0
 10
12508.67329614824
 20
-6318.076628964568
 30
0.0
 10
12508.60729723493
 20
-6320.114769761096
 30
0.0
 10
12508.40572027835
 20
-6326.345840794077
 30
0.0
 10
12508.21795558671
 20
-6332.188774933452
 30
0.0
 10
12508.08009380748
 20
-6336.478810985301
 30
0.0
  0
LWPOLYLINE
  5
36F8E6
330
18
100
AcDbEntity
  8
姿図
100
AcDbPolyline
 90
       19
 70
   128
 43
0.0
 10
12523.32183577807
 20
-6314.073344463731
 10
12522.14191104299
 20
-6314.116831412275
 10
12520.9775352122
 20
-6314.181185442508
 10
12519.83458399932
 20
-6314.266082020374
 10
12518.7188193356
 20
-6314.371092178346
 10
12517.63587279583
 20
-6314.495687923132
 10
12516.59120350571
 20
-6314.639239512891
 10
12515.59008416168
 20
-6314.801022848739
 10
12514.63755883094
 20
-6314.98022202791
 10
12513.73843627889
 20
-6315.175933617251
 10
12512.89725301061
 20
-6315.387170535975
 10
12512.11824946969
 20
-6315.612866624431
 10
12511.40535277534
 20
-6315.851883534363
 10
12510.76216475481
 20
-6316.103016310758
 10
12510.191923661
 20
-6316.364997601732
 10
12509.69750925297
 20
-6316.636506902045
 10
12509.28141507703
 20
-6316.916173465195
 10
12508.94573639171
 20
-6317.20258716123
 10
12508.69217138423
 20
-6317.494303425633
  0
SPLINE
  5
36F8E7
330
18
100
AcDbEntity
  8
姿図
100
AcDbSpline
210
0.0
220
0.0
230
1.0
 70
     8
 71
     3
 72
    11
 73
     7
 74
     0
 42
0.000000001
 43
0.0000000001
 40
0.0
 40
0.0
 40
0.0
 40
0.0
 40
0.0124689119381402
 40
0.0739955718782991
 40
0.320103299143423
 40
1.0
 40
1.0
 40
1.0
 40
1.0
 10
12542.48115362757
 20
-6336.729517445333
 30
0.0
 10
12542.47882063573
 20
-6336.650797251063
 30
0.0
 10
12542.46497571754
 20
-6336.183639745876
 30
0.0
 10
12542.40503625056
 20
-6334.162724136358
 30
0.0
 10
12542.21990814352
 20
-6327.928137895888
 30
0.0
 10
12542.04507323197
 20
-6322.082053074768
 30
0.0
 10
12541.91670486143
 20
-6317.789704504827
 30
0.0
  0
SPLINE
  5
36F8E8
330
18
100
AcDbEntity
  8
姿図
100
AcDbSpline
210
0.0
220
0.0
230
1.0
 70
     8
 71
     3
 72
    11
 73
     7
 74
     0
 42
0.000000001
 43
0.0000000001
 40
0.0
 40
0.0
 40
0.0
 40
0.0
 40
0.015336834211129
 40
0.0766852979547983
 40
0.3220780343383062
 40
1.0
 40
1.0
 40
1.0
 40
1.0
 10
12528.20992836295
 20
-6314.116804258235
 30
0.0
 10
12528.2086790805
 20
-6314.212796455022
 30
0.0
 10
12528.20243257646
 20
-6314.692764492143
 30
0.0
 10
12528.17617960308
 20
-6316.708635750192
 30
0.0
 10
12528.09589313001
 20
-6322.87167518233
 30
0.0
 10
12528.02038776662
 20
-6328.651069080911
 30
0.0
 10
12527.96494974071
 20
-6332.894452256096
 30
0.0
  0
LWPOLYLINE
  5
36F8E9
330
18
100
AcDbEntity
  8
姿図
100
AcDbPolyline
 90
       19
 70
   128
 43
0.0
 10
12541.91670486143
 20
-6317.789704504827
 10
12541.73954041803
 20
-6317.494158182303
 10
12541.47907543992
 20
-6317.202443926533
 10
12541.13662609402
 20
-6316.916033142098
 10
12540.71391642355
 20
-6316.636369942115
 10
12540.21308044099
 20
-6316.364865381625
 10
12539.63664386358
 20
-6316.102888847055
 10
12538.98751633159
 20
-6315.851762104859
 10
12538.26897016521
 20
-6315.612751426948
 10
12537.48462665281
 20
-6315.387061792268
 10
12536.63844658758
 20
-6315.175832663326
 10
12535.73469752195
 20
-6314.980129016736
 10
12534.77793572661
 20
-6314.800937926865
 10
12533.77298983107
 20
-6314.639163421624
 10
12532.72492766659
 20
-6314.495621551783
 10
12531.63903298373
 20
-6314.371035645012
 10
12530.52078539889
 20
-6314.266034699179
 10
12529.37582690626
 20
-6314.181148533422
 10
12528.20992836295
 20
-6314.116804258235
  0
ARC
  5
36F8EA
330
18
100
AcDbEntity
  8
姿図
100
AcDbCircle
 10
12525.75426753929
 20
-6316.216797781944
 30
0.0
 40
2.336889934726063
100
AcDbArc
 50
68.48662453398708
 51
110.4945591086295
  0
LINE
  5
36F8EB
330
18
100
AcDbEntity
  8
姿図
100
AcDbLine
 10
12523.48741459629
 20
-6314.105730243586
 30
0.0
 11
12523.73814985099
 21
-6332.887883653596
 31
0.0
  0
SPLINE
  5
36F8EC
330
18
100
AcDbEntity
  8
姿図
100
AcDbSpline
210
0.0
220
0.0
230
1.0
 70
     8
 71
     3
 72
    12
 73
     8
 74
     0
 42
0.000000001
 43
0.0000000001
 40
0.0
 40
0.0
 40
0.0
 40
0.0
 40
0.2175926154775932
 40
0.435197569958884
 40
0.6527653458885049
 40
0.8703695723207271
 40
1.0
 40
1.0
 40
1.0
 40
1.0
 10
12523.32183577807
 20
-6314.073344463731
 30
0.0
 10
12523.33877187934
 20
-6314.073290963495
 30
0.0
 10
12523.37264504227
 20
-6314.073183959987
 30
0.0
 10
12523.42021267126
 20
-6314.078375408678
 30
0.0
 10
12523.45822437839
 20
-6314.086905953484
 30
0.0
 10
12523.48028615626
 20
-6314.096666381916
 30
0.0
 10
12523.48547680976
 20
-6314.103266334378
 30
0.0
 10
12523.48741459629
 20
-6314.105730243586
 30
0.0
  0
LINE
  5
36F8ED
330
18
100
AcDbEntity
  8
姿図
100
AcDbLine
 10
12527.79417050839
 20
-6332.923945758374
 30
0.0
 11
12528.03631651903
 21
-6314.146174830987
 31
0.0
  0
SPLINE
  5
36F8EE
330
18
100
AcDbEntity
  8
姿図
100
AcDbSpline
210
0.0
220
0.0
230
1.0
 70
     8
 71
     3
 72
    12
 73
     8
 74
     0
 42
0.000000001
 43
0.0000000001
 40
0.0
 40
0.0
 40
0.0
 40
0.0
 40
0.2177329487932476
 40
0.4354657520683112
 40
0.6531170531532929
 40
0.8706963431209974
 40
1.0
 40
1.0
 40
1.0
 40
1.0
 10
12528.03631651903
 20
-6314.146174830987
 30
0.0
 10
12528.04129077701
 20
-6314.142121864912
 30
0.0
 10
12528.05123928966
 20
-6314.134015935469
 30
0.0
 10
12528.08551735354
 20
-6314.124296974044
 30
0.0
 10
12528.12955736056
 20
-6314.117896335636
 30
0.0
 10
12528.17336523824
 20
-6314.115682833524
 30
0.0
 10
12528.20000001617
 20
-6314.116499746695
 30
0.0
 10
12528.20992836295
 20
-6314.116804258235
 30
0.0
  0
LINE
  5
36F8EF
330
18
100
AcDbEntity
  8
姿図
100
AcDbLine
 10
12523.66910794326
 20
-6314.44125537338
 30
0.0
 11
12523.48741459629
 21
-6314.105730243586
 31
0.0
  0
LINE
  5
36F8F0
330
18
100
AcDbEntity
  8
姿図
100
AcDbLine
 10
12524.19419865795
 20
-6314.459566648765
 30
0.0
 11
12524.93607929978
 21
-6314.027820264525
 31
0.0
  0
LINE
  5
36F8F1
330
18
100
AcDbEntity
  8
姿図
100
AcDbLine
 10
12526.61124812134
 20
-6314.042714331613
 30
0.0
 11
12527.23920678351
 21
-6314.486639529056
 31
0.0
  0
LINE
  5
36F8F2
330
18
100
AcDbEntity
  8
姿図
100
AcDbLine
 10
12527.76784248744
 20
-6314.477697733487
 30
0.0
 11
12528.03631651903
 21
-6314.146174830987
 31
0.0
  0
ELLIPSE
  5
36F8F3
330
18
100
AcDbEntity
  8
姿図
100
AcDbEllipse
 10
12523.94161398809
 20
-6314.432123531768
 30
0.0
 11
0.27501063819273
 21
-0.0001742184775258
 31
0.0
210
0.0
220
0.0
230
1.0
 40
0.2508827020248672
 41
3.276825953624846
 42
5.876689268661621
  0
ELLIPSE
  5
36F8F4
330
18
100
AcDbEntity
  8
姿図
100
AcDbEllipse
 10
12527.4983383552
 20
-6314.463746507444
 30
0.0
 11
0.2750028199316458
 21
-0.0002382594566953
 31
0.0
210
0.0
220
0.0
230
1.0
 40
0.25089687965086
 41
3.483214088332999
 42
6.083077403369443
  0
ARC
  5
36F8F5
330
18
100
AcDbEntity
  8
姿図
100
AcDbCircle
 10
12532.73701233751
 20
-6325.132849986093
 30
0.0
 40
13.16285276967558
100
AcDbArc
 50
65.47585855637709
 51
74.72178380613117
  0
ARC
  5
36F8F6
330
18
100
AcDbEntity
  8
姿図
100
AcDbCircle
 10
12526.72109227772
 20
-6351.404836854815
 30
0.0
 40
40.143305521171
100
AcDbArc
 50
79.32313205911872
 51
84.88592945509671
  0
ARC
  5
36F8F7
330
18
100
AcDbEntity
  8
姿図
100
AcDbCircle
 10
12525.18696759928
 20
-6368.780492685498
 30
0.0
 40
57.58959753407101
100
AcDbArc
 50
86.40779207676744
 51
91.24775611084513
  0
ARC
  5
36F8F8
330
18
100
AcDbEntity
  8
姿図
100
AcDbCircle
 10
12524.69117439972
 20
-6360.328188530448
 30
0.0
 40
49.12440389713882
100
AcDbArc
 50
92.29161836610095
 51
97.5230671735399
  0
ARC
  5
36F8F9
330
18
100
AcDbEntity
  8
姿図
100
AcDbCircle
 10
12520.34081928616
 20
-6333.905671297825
 30
0.0
 40
22.33227943494743
100
AcDbArc
 50
100.1964271988896
 51
107.4982264369505
  0
ARC
  5
36F8FA
330
18
100
AcDbEntity
  8
姿図
100
AcDbCircle
 10
12512.19882071453
 20
-6315.082303402092
 30
0.0
 40
1.664296995769985
100
AcDbArc
 50
118.1014631755466
 51
171.5315063034119
  0
ARC
  5
36F8FB
330
18
100
AcDbEntity
  8
姿図
100
AcDbCircle
 10
12536.59074276044
 20
-6337.954563193854
 30
0.0
 40
1.218524773859021
100
AcDbArc
 50
1.839051683533933
 51
39.27691614682569
  0
LINE
  5
36F8FC
330
18
100
AcDbEntity
  8
姿図
100
AcDbLine
 10
12508.40095071342
 20
-6317.894348299915
 30
0.0
 11
12508.6800040638
 21
-6317.869783951255
 31
0.0
  0
LWPOLYLINE
  5
36F8FD
330
18
100
AcDbEntity
  8
姿図
100
AcDbPolyline
 90
        6
 70
   128
 43
0.0
 10
12507.80169648603
 20
-6318.105224511292
 10
12507.80216392872
 20
-6318.098951415345
 10
12507.85081642859
 20
-6318.032890638451
 10
12507.97516704012
 20
-6317.973419769721
 10
12508.1641470448
 20
-6317.925827671869
 10
12508.40095071342
 20
-6317.894348299915
  0
LINE
  5
36F8FE
330
18
100
AcDbEntity
  8
姿図
100
AcDbLine
 10
12541.92820677985
 20
-6318.175033652011
 30
0.0
 11
12542.1032851344
 21
-6318.193997149605
 31
0.0
  0
LWPOLYLINE
  5
36F8FF
330
18
100
AcDbEntity
  8
姿図
100
AcDbPolyline
 90
        5
 70
   128
 43
0.0
 10
12542.1032851344
 20
-6318.193997149605
 10
12542.3313584807
 20
-6318.229609252645
 10
12542.50753615394
 20
-6318.280448689863
 10
12542.61613828917
 20
-6318.341990751077
 10
12542.64797972597
 20
-6318.400454866289
  0
LINE
  5
36F900
330
18
100
AcDbEntity
  8
姿図
100
AcDbLine
 10
12539.92701234164
 20
-6358.115776259499
 30
0.0
 11
12539.42038345414
 21
-6358.013447651147
 31
0.0
  0
ARC
  5
36F901
330
18
100
AcDbEntity
  8
姿図
100
AcDbCircle
 10
12531.57283071004
 20
-6332.415412835946
 30
0.0
 40
26.77393266727215
100
AcDbArc
 50
281.850065211982
 51
287.0438930716604
  0
LINE
  5
36F902
330
18
100
AcDbEntity
  8
姿図
100
AcDbLine
 10
12536.88587362185
 20
-6358.867222273342
 30
0.0
 11
12536.61188415478
 21
-6358.779873223614
 31
0.0
  0
LWPOLYLINE
  5
36F903
330
18
100
AcDbEntity
  8
姿図
100
AcDbPolyline
 90
       72
 70
   128
 43
0.0
 10
12539.92701234164
 20
-6358.115776259499
 10
12540.6663253378
 20
-6357.870024696683
 10
12541.34005828769
 20
-6357.612702755488
 10
12541.94534801547
 20
-6357.344898492873
 10
12542.47963064475
 20
-6357.067749372668
 10
12542.94064252882
 20
-6356.782428912115
 10
12543.32642813962
 20
-6356.490147357267
 10
12543.63535666874
 20
-6356.192144956278
 10
12543.866108396
 20
-6355.889682204029
 10
12544.01771871411
 20
-6355.584044712237
 10
12544.0895330486
 20
-6355.276525476542
 10
12544.08125220621
 20
-6354.96842941951
 10
12543.99290693691
 20
-6354.661061303172
 10
12543.8248783451
 20
-6354.355725934984
 10
12543.57787769303
 20
-6354.053717409936
 10
12543.2529468123
 20
-6353.756315071811
 10
12542.85146673523
 20
-6353.464780068065
 10
12542.37514103134
 20
-6353.180348968391
 10
12541.82598606682
 20
-6352.90422698501
 10
12541.20632976131
 20
-6352.637584342811
 10
12540.51880179368
 20
-6352.381552137608
 10
12539.76631398683
 20
-6352.137215371717
 10
12538.95206003045
 20
-6351.905610397722
 10
12538.07948566016
 20
-6351.687717851056
 10
12537.1522975394
 20
-6351.484463080084
 10
12536.17441901116
 20
-6351.296706081783
 10
12535.1500012428
 20
-6351.125243997381
 10
12534.08338223359
 20
-6350.970802868286
 10
12532.97908877355
 20
-6350.834038464434
 10
12531.84179936869
 20
-6350.715529696899
 10
12530.67633566323
 20
-6350.615779425051
 10
12529.48763783344
 20
-6350.535210037697
 10
12528.28074483826
 20
-6350.474163083593
 10
12527.06077632468
 20
-6350.432898493063
 10
12525.83289947057
 20
-6350.41158964732
 10
12524.60232493293
 20
-6350.410328316719
 10
12523.37426318097
 20
-6350.429118389885
 10
12522.15392505072
 20
-6350.467880986115
 10
12520.94648293496
 20
-6350.526452233848
 10
12519.75705564032
 20
-6350.604583075323
 10
12518.59068395098
 20
-6350.70194267989
 10
12517.45231548569
 20
-6350.818118248668
 10
12516.3467710756
 20
-6350.952616760583
 10
12515.27874335989
 20
-6351.104869256436
 10
12514.25275270759
 20
-6351.274228606761
 10
12513.27315888997
 20
-6351.459978438871
 10
12512.34410450695
 20
-6351.661330055176
 10
12511.46953457539
 20
-6351.877430716623
 10
12510.65315567976
 20
-6352.107364549787
 10
12509.89842405815
 20
-6352.350155490753
 10
12509.20854806194
 20
-6352.604775863856
 10
12508.58644209186
 20
-6352.870144640188
 10
12508.03475140099
 20
-6353.145138369622
 10
12507.55580865148
 20
-6353.428590104126
 10
12507.15165085539
 20
-6353.719298335391
 10
12506.82398503686
 20
-6354.016031542407
 10
12506.57420398336
 20
-6354.317530861232
 10
12506.40336630843
 20
-6354.622518948444
 10
12506.31219639804
 20
-6354.929702619109
 10
12506.30107638741
 20
-6355.237778766357
 10
12506.37006180482
 20
-6355.545442307107
 10
12506.51884990829
 20
-6355.851388756459
 10
12506.74682169764
 20
-6356.154320907447
 10
12507.05299963404
 20
-6356.452955341193
 10
12507.43609238024
 20
-6356.746024495492
 10
12507.89447351267
 20
-6357.032287174339
 10
12508.42619994707
 20
-6357.310529244524
 10
12509.02901966651
 20
-6357.579572224976
 10
12509.70037434208
 20
-6357.838273951553
 10
12510.43742019137
 20
-6358.085539171371
 10
12511.23702800531
 20
-6358.320318223816
 10
12511.60546863082
 20
-6358.418798133071
  0
LWPOLYLINE
  5
36F904
330
18
100
AcDbEntity
  8
姿図
100
AcDbPolyline
 90
        3
 70
   128
 43
0.0
 10
12535.80937895489
 20
-6359.06358604627
 10
12535.89465645653
 20
-6359.049073694635
 10
12536.88587362185
 20
-6358.867222273342
  0
SPLINE
  5
36F905
330
18
100
AcDbEntity
  8
姿図
100
AcDbSpline
210
0.0
220
0.0
230
1.0
 70
     8
 71
     3
 72
    11
 73
     7
 74
     0
 42
0.000000001
 43
0.0000000001
 40
0.0
 40
0.0
 40
0.0
 40
0.0
 40
0.4640926658275989
 40
0.7419939342852129
 40
0.9549846526255418
 40
1.0
 40
1.0
 40
1.0
 40
1.0
 10
12508.72595232983
 20
-6356.268419558952
 30
0.0
 10
12508.74169233018
 20
-6356.263790872676
 30
0.0
 10
12508.76685753026
 20
-6356.256390503325
 30
0.0
 10
12508.78197986778
 20
-6356.244385273178
 30
0.0
 10
12508.78261125634
 20
-6356.237300639336
 30
0.0
 10
12508.77949431993
 20
-6356.234044065303
 30
0.0
 10
12508.7789504956
 20
-6356.233475877842
 30
0.0
  0
LINE
  5
36F906
330
18
100
AcDbEntity
  8
姿図
100
AcDbLine
 10
12508.71609016755
 20
-6356.270856436457
 30
0.0
 11
12508.72595232983
 21
-6356.268419558952
 31
0.0
  0
ARC
  5
36F907
330
18
100
AcDbEntity
  8
姿図
100
AcDbCircle
 10
12513.42257919643
 20
-6350.358874171205
 30
0.0
 40
7.55662446358082
100
AcDbArc
 50
231.4769409416551
 51
251.2624508469422
  0
LWPOLYLINE
  5
36F908
330
18
100
AcDbEntity
  8
姿図
100
AcDbPolyline
 90
       29
 70
   128
 43
0.0
 10
12539.24198933379
 20
-6357.592506006292
 10
12539.47683838958
 20
-6357.505738237358
 10
12540.09438092217
 20
-6357.25271511195
 10
12540.64026908226
 20
-6356.989533295003
 10
12541.11187843934
 20
-6356.717458075856
 10
12541.50693472057
 20
-6356.437796833419
 10
12541.82354547412
 20
-6356.151896461785
 10
12542.06017992627
 20
-6355.861129974391
 10
12542.21571239782
 20
-6355.566898899688
 10
12542.28938053348
 20
-6355.270614730478
 10
12542.28084179503
 20
-6354.973705962562
 10
12542.19012647618
 20
-6354.677596895491
 10
12542.01768101154
 20
-6354.383715304211
 10
12541.76432821856
 20
-6354.093472078752
 10
12541.43128831704
 20
-6353.808263904611
 10
12541.0201659596
 20
-6353.529463343829
 10
12540.53293329093
 20
-6353.258409897335
 10
12539.97193722857
 20
-6352.996408205928
 10
12539.3398759569
 20
-6352.74471811013
 10
12538.63978684314
 20
-6352.504549761913
 10
12537.87503929077
 20
-6352.277058828755
 10
12537.0493111798
 20
-6352.063339191516
 10
12536.16657380433
 20
-6351.864418792102
 10
12535.23107156863
 20
-6351.681254151557
 10
12534.24730298013
 20
-6351.514725880044
 10
12533.22000423643
 20
-6351.365636170609
 10
12532.1541118463
 20
-6351.234700974579
 10
12531.05475176226
 20
-6351.122550062155
 10
12529.92721311958
 20
-6351.029723012414
  0
LINE
  5
36F909
330
18
100
AcDbEntity
  8
姿図
100
AcDbLine
 10
12529.91735029541
 20
-6351.032160053465
 30
0.0
 11
12529.92721311958
 21
-6351.029723012414
 31
0.0
  0
SPLINE
  5
36F90A
330
18
100
AcDbEntity
  8
姿図
100
AcDbSpline
210
0.0
220
0.0
230
1.0
 70
     8
 71
     3
 72
    11
 73
     7
 74
     0
 42
0.000000001
 43
0.0000000001
 40
0.0
 40
0.0
 40
0.0
 40
0.0
 40
0.2255762730559548
 40
0.5221879160647163
 40
0.946405731912136
 40
0.9999999999999998
 40
0.9999999999999998
 40
0.9999999999999998
 40
0.9999999999999998
 10
12529.77709310347
 20
-6351.044968540732
 30
0.0
 10
12529.78876751515
 20
-6351.045398640716
 30
0.0
 10
12529.81579268329
 20
-6351.046394281837
 30
0.0
 10
12529.86380540232
 20
-6351.042556430878
 30
0.0
 10
12529.89757579465
 20
-6351.036934010248
 30
0.0
 10
12529.91535596492
 20
-6351.032641524413
 30
0.0
 10
12529.91735029541
 20
-6351.032160053465
 30
0.0
  0
LWPOLYLINE
  5
36F90B
330
18
100
AcDbEntity
  8
姿図
100
AcDbPolyline
 90
       31
 70
   128
 43
0.0
 10
12529.77709310347
 20
-6351.044968540732
 10
12528.61732475809
 20
-6350.973747229089
 10
12527.44069309427
 20
-6350.92305655479
 10
12526.25300218898
 20
-6350.893147437805
 10
12525.06010104727
 20
-6350.88416651909
 10
12523.86786972947
 20
-6350.896158276116
 10
12522.68218183808
 20
-6350.929063793222
 10
12521.50887883824
 20
-6350.982720545073
 10
12520.35374498643
 20
-6351.056864654538
 10
12519.22247045245
 20
-6351.151130818493
 10
12518.12062955756
 20
-6351.265053747953
 10
12517.05365302874
 20
-6351.398072399147
 10
12516.0267950384
 20
-6351.549531556003
 10
12515.04512062843
 20
-6351.71868493758
 10
12514.11346348345
 20
-6351.904699070229
 10
12513.23641531367
 20
-6352.106657223377
 10
12512.41829678546
 20
-6352.323563967683
 10
12511.66314160911
 20
-6352.554350419207
 10
12510.97466744254
 20
-6352.797880116571
 10
12510.35627186624
 20
-6353.052952640222
 10
12509.81099666808
 20
-6353.318311125086
 10
12509.34153168047
 20
-6353.592647874233
 10
12508.95018830474
 20
-6353.874610900814
 10
12508.63889805321
 20
-6354.162810850135
 10
12508.40919131502
 20
-6354.455828871177
 10
12508.26220257076
 20
-6354.752219265201
 10
12508.19865431926
 20
-6355.050522643835
 10
12508.21886096844
 20
-6355.349268904764
 10
12508.32272075841
 20
-6355.646985789277
 10
12508.5097261371
 20
-6355.942206817393
 10
12508.7789504956
 20
-6356.233475877842
  0
LINE
  5
36F90C
330
18
100
AcDbEntity
  8
姿図
100
AcDbLine
 10
12536.8860217044
 20
-6358.678840171801
 30
0.0
 11
12536.88587362185
 21
-6358.867222273342
 31
0.0
  0
ARC
  5
36F90D
330
18
100
AcDbEntity
  8
姿図
100
AcDbCircle
 10
12510.69603861087
 20
-6345.528017635595
 30
0.0
 40
2.724608458725471
100
AcDbArc
 50
108.6463738072175
 51
161.1782896743325
  0
ARC
  5
36F90E
330
18
100
AcDbEntity
  8
姿図
100
AcDbCircle
 10
12540.03105236261
 20
-6345.383926402232
 30
0.0
 40
2.368299770585249
100
AcDbArc
 50
17.39465128572952
 51
61.45915880331927
  0
LWPOLYLINE
  5
36F90F
330
18
100
AcDbEntity
  8
姿図
100
AcDbPolyline
 90
       30
 70
   128
 43
0.0
 10
12539.58572706002
 20
-6341.751340056589
 10
12539.01780681383
 20
-6341.564893167925
 10
12538.23377862212
 20
-6341.337203011891
 10
12537.39030062652
 20
-6341.123239251511
 10
12536.49122005258
 20
-6340.923977806551
 10
12535.54063903405
 20
-6340.740327673506
 10
12534.54289690282
 20
-6340.573127427472
 10
12533.50254461677
 20
-6340.423139729637
 10
12532.42432900851
 20
-6340.291048657498
 10
12531.31317077314
 20
-6340.177457269802
 10
12530.17414115894
 20
-6340.082884179587
 10
12529.01243338985
 20
-6340.007760116648
 10
12527.83335080513
 20
-6339.952428233409
 10
12526.64227235162
 20
-6339.917140820343
 10
12525.44463250341
 20
-6339.902059018232
 10
12524.24589527827
 20
-6339.907251364406
 10
12523.05153313756
 20
-6339.932695069338
 10
12521.86699148577
 20
-6339.978272977351
 10
12520.69768067412
 20
-6340.043778167204
 10
12519.54893062532
 20
-6340.128910728044
 10
12518.42598349915
 20
-6340.233282196436
 10
12517.33396533848
 20
-6340.356417312997
 10
12516.27785972788
 20
-6340.49775396939
 10
12515.26248335732
 20
-6340.656646621654
 10
12514.29246748924
 20
-6340.832370869573
 10
12513.37223818243
 20
-6341.024124406164
 10
12512.50600167666
 20
-6341.231033253734
 10
12511.69769959894
 20
-6341.452152333275
 10
12510.95102593108
 20
-6341.686473083109
 10
12510.35650525267
 20
-6341.899366075121
  0
SPLINE
  5
36F910
330
18
100
AcDbEntity
  8
姿図
100
AcDbSpline
210
0.0
220
0.0
230
1.0
 70
     8
 71
     3
 72
    10
 73
     6
 74
     0
 42
0.000000001
 43
0.0000000001
 40
0.0
 40
0.0
 40
0.0
 40
0.0
 40
0.4454751286171783
 40
0.8908434050046942
 40
1.0
 40
1.0
 40
1.0
 40
1.0
 10
12508.7789504956
 20
-6356.233475877842
 30
0.0
 10
12509.20786214778
 20
-6355.655696765015
 30
0.0
 10
12510.06558257285
 20
-6354.500277126196
 30
0.0
 10
12511.07425393371
 20
-6353.264104575277
 30
0.0
 10
12511.66943105491
 20
-6352.650314922552
 30
0.0
 10
12511.78658992609
 20
-6352.529492229122
 30
0.0
  0
LWPOLYLINE
  5
36F911
330
18
100
AcDbEntity
  8
姿図
100
AcDbPolyline
 90
       34
 70
   128
 43
0.0
 10
12537.99767087613
 20
-6340.216395003789
 10
12537.12331422423
 20
-6340.008903661114
 10
12536.19572643806
 20
-6339.816456503755
 10
12535.21905378336
 20
-6339.639913565031
 10
12534.19765506416
 20
-6339.480062675992
 10
12533.13609210587
 20
-6339.337617879914
 10
12532.03910810078
 20
-6339.213215596483
 10
12530.91160264403
 20
-6339.107411603692
 10
12529.75861071417
 20
-6339.020678357487
 10
12528.58528228872
 20
-6338.953403466796
 10
12527.39685442852
 20
-6338.905886092462
 10
12526.19863903279
 20
-6338.878339972866
 10
12524.99598772314
 20
-6338.870887664905
 10
12523.7942664682
 20
-6338.88356156466
 10
12522.59884959971
 20
-6338.916306698322
 10
12521.41507118155
 20
-6338.968975677927
 10
12520.2482209579
 20
-6339.041333639616
 10
12519.10351012273
 20
-6339.133057515241
 10
12517.98604955802
 20
-6339.243737472517
 10
12516.90083069256
 20
-6339.372879019932
 10
12515.85269910687
 20
-6339.519905591746
 10
12514.84633737771
 20
-6339.684160162275
 10
12513.88624260066
 20
-6339.864909487554
 10
12512.97669999505
 20
-6340.061346690331
 10
12512.12177231367
 20
-6340.272593876826
 10
12511.32527733853
 20
-6340.497707697418
 10
12510.59077331927
 20
-6340.735682944697
 10
12509.92154176406
 20
-6340.985456805747
 10
12509.32057023037
 20
-6341.24591311441
 10
12508.79054165433
 20
-6341.515888925041
 10
12508.33382373355
 20
-6341.794178448274
 10
12507.95245563576
 20
-6342.079538959993
 10
12507.64814527062
 20
-6342.370695412487
 10
12507.61303720797
 20
-6342.410385398686
  0
LWPOLYLINE
  5
36F912
330
18
100
AcDbEntity
  8
姿図
100
AcDbPolyline
 90
       11
 70
   128
 43
0.0
 10
12543.07886426595
 20
-6342.857774893436
 10
12542.91837006162
 20
-6342.589255704462
 10
12542.66508278154
 20
-6342.294643192559
 10
12542.3338161407
 20
-6342.004866859598
 10
12541.92604797726
 20
-6341.721220364409
 10
12541.44359913151
 20
-6341.444970356029
 10
12540.88862762303
 20
-6341.177351350683
 10
12540.26360773854
 20
-6340.919557775445
 10
12539.57133140938
 20
-6340.672741003153
 10
12538.81489579658
 20
-6340.438004545895
 10
12537.99767087613
 20
-6340.216395003789
  0
LWPOLYLINE
  5
36F913
330
18
100
AcDbEntity
  8
姿図
100
AcDbPolyline
 90
       34
 70
   128
 43
0.0
 10
12537.9298735637
 20
-6336.070903324744
 10
12537.05072947159
 20
-6335.86242559673
 10
12536.11755098787
 20
-6335.669241715855
 10
12535.13459786557
 20
-6335.492233543131
 10
12534.10635298622
 20
-6335.332208120536
 10
12533.03750823663
 20
-6335.189895911337
 10
12531.93294122636
 20
-6335.065946054156
 10
12530.79768900006
 20
-6334.960923671986
 10
12529.636935542
 20
-6334.875309022643
 10
12528.45597795711
 20
-6334.809492731623
 10
12527.26019819753
 20
-6334.763773591774
 10
12526.05506003042
 20
-6334.738361937231
 10
12524.84605682026
 20
-6334.733372860706
 10
12523.63870554497
 20
-6334.748829004404
 10
12522.43851979258
 20
-6334.784660670574
 10
12521.25096766866
 20
-6334.840703098727
 10
12520.08147629533
 20
-6334.916701915748
 10
12518.9353739406
 20
-6335.012309062325
 10
12517.81789581447
 20
-6335.12708923495
 10
12516.73413996369
 20
-6335.260518972772
 10
12515.68904879256
 20
-6335.411988598987
 10
12514.68739119191
 20
-6335.580806636652
 10
12513.73373873787
 20
-6335.766204377461
 10
12512.83244332177
 20
-6335.967334847435
 10
12511.98761591604
 20
-6336.183280678482
 10
12511.20311203937
 20
-6336.41305638747
 10
12510.48250927939
 20
-6336.655612617904
 10
12509.82909921573
 20
-6336.909844697458
 10
12509.24586110546
 20
-6337.174591265989
 10
12508.73545377942
 20
-6337.448644152066
 10
12508.30021026656
 20
-6337.730753638332
 10
12507.94211531653
 20
-6338.019632703176
 10
12507.66280267161
 20
-6338.313961631895
 10
12507.5034907306
 20
-6338.541347124688
  0
LWPOLYLINE
  5
36F914
330
18
100
AcDbEntity
  8
姿図
100
AcDbPolyline
 90
       13
 70
   128
 43
0.0
 10
12543.10805289091
 20
-6339.201426491222
 10
12543.0960154134
 20
-6339.061114769199
 10
12543.01034650949
 20
-6338.759089387709
 10
12542.84345103295
 20
-6338.459140805086
 10
12542.5960894405
 20
-6338.162637576452
 10
12542.26939228377
 20
-6337.870932925731
 10
12541.86485013778
 20
-6337.585358047721
 10
12541.384307805
 20
-6337.307215666079
 10
12540.82995882344
 20
-6337.037774828543
 10
12540.20433175476
 20
-6336.778265108517
 10
12539.51027978192
 20
-6336.529869988918
 10
12538.75097254288
 20
-6336.293723630572
 10
12537.9298735637
 20
-6336.070903324744
  0
SPLINE
  5
36F915
330
18
100
AcDbEntity
  8
姿図
100
AcDbSpline
210
0.0
220
0.0
230
1.0
 70
    11
 71
     3
 72
    26
 73
    22
 74
     0
 42
0.000000001
 43
0.0000000001
 40
0.0
 40
0.0
 40
0.0
 40
0.0
 40
0.0537185396085349
 40
0.1074386091431088
 40
0.1611089539041531
 40
0.2147093469853881
 40
0.2683123865595372
 40
0.3219881021880564
 40
0.375726492727872
 40
0.4294546501006998
 40
0.4831359129388597
 40
0.536788688781967
 40
0.5904517716876586
 40
0.6441279918909767
 40
0.6978036492675443
 40
0.7514782347147742
 40
0.805156202893718
 40
0.8588277426664243
 40
0.9124840115528147
 40
0.9661421349542314
 40
1.0
 40
1.0
 40
1.0
 40
1.0
 10
12538.32079800392
 20
-6337.893058812664
 30
0.0
 10
12538.29141907214
 20
-6337.938038594604
 30
0.0
 10
12538.23266037184
 20
-6338.027999439532
 30
0.0
 10
12538.10106669287
 20
-6338.087249997736
 30
0.0
 10
12537.95424264158
 20
-6338.080545444102
 30
0.0
 10
12537.8047848724
 20
-6338.004534387745
 30
0.0
 10
12537.67076666244
 20
-6337.868916330418
 30
0.0
 10
12537.56764918654
 20
-6337.688304571582
 30
0.0
 10
12537.50807148279
 20
-6337.482750564394
 30
0.0
 10
12537.49946496081
 20
-6337.275347618933
 30
0.0
 10
12537.54286386228
 20
-6337.089615158099
 30
0.0
 10
12537.63280628348
 20
-6336.946604472819
 30
0.0
 10
12537.75828208615
 20
-6336.862547500605
 30
0.0
 10
12537.90436525417
 20
-6336.847153221537
 30
0.0
 10
12538.05413067357
 20
-6336.902276876552
 30
0.0
 10
12538.19085044757
 20
-6337.021672408221
 30
0.0
 10
12538.29972282991
 20
-6337.1916629381
 30
0.0
 10
12538.36956890581
 20
-6337.39309201843
 30
0.0
 10
12538.39251886955
 20
-6337.602055165937
 30
0.0
 10
12538.37194220125
 20
-6337.774411663174
 30
0.0
 10
12538.33506494265
 20
-6337.859961575821
 30
0.0
 10
12538.32079800392
 20
-6337.893058812664
 30
0.0
  0
SPLINE
  5
36F916
330
18
100
AcDbEntity
  8
姿図
100
AcDbSpline
210
0.0
220
0.0
230
1.0
 70
    11
 71
     3
 72
    26
 73
    22
 74
     0
 42
0.000000001
 43
0.0000000001
 40
0.0
 40
0.0
 40
0.0
 40
0.0
 40
0.0537185314389505
 40
0.1074385919985883
 40
0.1611089387456031
 40
0.2147088651119938
 40
0.2683123166764605
 40
0.3219880281509168
 40
0.3757265992443683
 40
0.4294547623989481
 40
0.4831361619092201
 40
0.5367886537366159
 40
0.5904517376635
 40
0.6441279572349589
 40
0.697804564202201
 40
0.7514782794827694
 40
0.8051562477723933
 40
0.8588277906924506
 40
0.9124841321245541
 40
0.9661423351834209
 40
1.0
 40
1.0
 40
1.0
 40
1.0
 10
12512.96234190395
 20
-6337.656767991633
 30
0.0
 10
12512.92910790384
 20
-6337.717400304605
 30
0.0
 10
12512.86263895763
 20
-6337.838666656473
 30
0.0
 10
12512.72182347013
 20
-6337.966076556565
 30
0.0
 10
12512.5708351638
 20
-6338.033918770429
 30
0.0
 10
12512.42320416877
 20
-6338.032305398467
 30
0.0
 10
12512.29614182619
 20
-6337.962100997761
 30
0.0
 10
12512.20279126998
 20
-6337.83074604192
 30
0.0
 10
12512.15293194303
 20
-6337.6526760979
 30
0.0
 10
12512.15168179182
 20
-6337.447827668897
 30
0.0
 10
12512.19911326002
 20
-6337.239434768187
 30
0.0
 10
12512.29033912241
 20
-6337.051131764688
 30
0.0
 10
12512.41591925918
 20
-6336.904263142976
 30
0.0
 10
12512.56258352414
 20
-6336.815596199173
 30
0.0
 10
12512.7142074917
 20
-6336.795254799761
 30
0.0
 10
12512.85356451752
 20
-6336.845500503422
 30
0.0
 10
12512.96421998232
 20
-6336.960472840871
 30
0.0
 10
12513.03300189413
 20
-6337.127120035294
 30
0.0
 10
12513.05070781719
 20
-6337.325818891016
 30
0.0
 10
12513.02196391418
 20
-6337.510447780121
 30
0.0
 10
12512.97897371809
 20
-6337.615951344317
 30
0.0
 10
12512.96234190395
 20
-6337.656767991633
 30
0.0
  0
SPLINE
  5
36F917
330
18
100
AcDbEntity
  8
姿図
100
AcDbSpline
210
0.0
220
0.0
230
1.0
 70
     8
 71
     3
 72
    13
 73
     9
 74
     0
 42
0.000000001
 43
0.0000000001
 40
0.0
 40
0.0
 40
0.0
 40
0.0
 40
0.1214282911268215
 40
0.3219453779657793
 40
0.5225075897530477
 40
0.7232676424790787
 40
0.92415349476808
 40
1.0
 40
1.0
 40
1.0
 40
1.0
 10
12537.78243489709
 20
-6337.969348750181
 30
0.0
 10
12537.79644652414
 20
-6337.936080918534
 30
0.0
 10
12537.83359584515
 20
-6337.847877217938
 30
0.0
 10
12537.84280538377
 20
-6337.666467875487
 30
0.0
 10
12537.81227502661
 20
-6337.455851439191
 30
0.0
 10
12537.73327356985
 20
-6337.263882941493
 30
0.0
 10
12537.64485072815
 20
-6337.130937156241
 30
0.0
 10
12537.58015098007
 20
-6337.089334158894
 30
0.0
 10
12537.5624181431
 20
-6337.077931654381
 30
0.0
  0
SPLINE
  5
36F918
330
18
100
AcDbEntity
  8
姿図
100
AcDbSpline
210
0.0
220
0.0
230
1.0
 70
     8
 71
     3
 72
    13
 73
     9
 74
     0
 42
0.000000001
 43
0.0000000001
 40
0.0
 40
0.0
 40
0.0
 40
0.0
 40
0.118076245791942
 40
0.3156645129051583
 40
0.5135802513745369
 40
0.7116123304976816
 40
0.9094920602754083
 40
1.0
 40
1.0
 40
1.0
 40
1.0
 10
12512.98019299323
 20
-6337.02484798519
 30
0.0
 10
12512.95231917763
 20
-6337.044606847729
 30
0.0
 10
12512.87780144238
 20
-6337.097430103383
 30
0.0
 10
12512.78453522162
 20
-6337.246151804215
 30
0.0
 10
12512.71238983504
 20
-6337.443712567875
 30
0.0
 10
12512.69032597503
 20
-6337.654123946169
 30
0.0
 10
12512.70492750126
 20
-6337.823892307866
 30
0.0
 10
12512.74214742788
 20
-6337.900611389752
 30
0.0
 10
12512.75382857528
 20
-6337.924689000461
 30
0.0
  0
ARC
  5
36F919
330
18
100
AcDbEntity
  8
姿図
100
AcDbCircle
 10
12507.33211545243
 20
-6355.124530057124
 30
0.0
 40
1.227838350626187
100
AcDbArc
 50
162.6410603759721
 51
197.4444303302007
  0
ARC
  5
36F91A
330
18
100
AcDbEntity
  8
姿図
100
AcDbCircle
 10
12543.0523499205
 20
-6355.151838214339
 30
0.0
 40
1.23483141368472
100
AcDbArc
 50
345.5077603636456
 51
19.99608701633932
  0
ARC
  5
36F91B
330
18
100
AcDbEntity
  8
姿図
100
AcDbCircle
 10
12531.03654952647
 20
-6328.217661806216
 30
0.0
 40
31.16266314724306
100
AcDbArc
 50
280.8188182488735
 51
285.9185181399895
  0
LINE
  5
36F91C
330
18
100
AcDbEntity
  8
姿図
100
AcDbLine
 10
12506.74957189333
 20
-6346.838026047812
 30
0.0
 11
12507.14198411578
 21
-6346.840629626226
 31
0.0
  0
LINE
  5
36F91D
330
18
100
AcDbEntity
  8
姿図
100
AcDbLine
 10
12543.63257599141
 20
-6347.082757274731
 30
0.0
 11
12543.98153419987
 21
-6347.085072925684
 31
0.0
  0
LINE
  5
36F91E
330
18
100
AcDbEntity
  8
姿図
100
AcDbLine
 10
12505.7004051859
 20
-6346.13257672362
 30
0.0
 11
12505.72230784806
 21
-6345.899825878567
 31
0.0
  0
LINE
  5
36F91F
330
18
100
AcDbEntity
  8
姿図
100
AcDbLine
 10
12505.70097596941
 20
-6345.406458793264
 30
0.0
 11
12505.72287863157
 21
-6345.173707948211
 31
0.0
  0
LINE
  5
36F920
330
18
100
AcDbEntity
  8
姿図
100
AcDbLine
 10
12505.70154674725
 20
-6344.680348076191
 30
0.0
 11
12505.72344940941
 21
-6344.447597231137
 31
0.0
  0
LINE
  5
36F921
330
18
100
AcDbEntity
  8
姿図
100
AcDbLine
 10
12505.70211752509
 20
-6343.954237359117
 30
0.0
 11
12505.72402018725
 21
-6343.721486514063
 31
0.0
  0
LINE
  5
36F922
330
18
100
AcDbEntity
  8
姿図
100
AcDbLine
 10
12505.70268830861
 20
-6343.228119428761
 30
0.0
 11
12505.72459097076
 21
-6342.995368583706
 31
0.0
  0
LINE
  5
36F923
330
18
100
AcDbEntity
  8
姿図
100
AcDbLine
 10
12544.89765145544
 20
-6346.306204461259
 30
0.0
 11
12544.9114226463
 21
-6346.159859419973
 31
0.0
  0
LINE
  5
36F924
330
18
100
AcDbEntity
  8
姿図
100
AcDbLine
 10
12545.01954067905
 20
-6346.605476997011
 30
0.0
 11
12545.06137920663
 21
-6346.160854054247
 31
0.0
  0
LINE
  5
36F925
330
18
100
AcDbEntity
  8
姿図
100
AcDbLine
 10
12505.70325908645
 20
-6342.502008711687
 30
0.0
 11
12505.7251617486
 21
-6342.269257866632
 31
0.0
  0
LINE
  5
36F926
330
18
100
AcDbEntity
  8
姿図
100
AcDbLine
 10
12544.89822223895
 20
-6345.580086530902
 30
0.0
 11
12544.91199342981
 21
-6345.433741489617
 31
0.0
  0
LINE
  5
36F927
330
18
100
AcDbEntity
  8
姿図
100
AcDbLine
 10
12545.02011146257
 20
-6345.879359066653
 30
0.0
 11
12545.06194999014
 21
-6345.434736123888
 31
0.0
  0
LINE
  5
36F928
330
18
100
AcDbEntity
  8
姿図
100
AcDbLine
 10
12505.70382986429
 20
-6341.775897994614
 30
0.0
 11
12505.72573252644
 21
-6341.543147149559
 31
0.0
  0
LINE
  5
36F929
330
18
100
AcDbEntity
  8
姿図
100
AcDbLine
 10
12544.89879301679
 20
-6344.85397581383
 30
0.0
 11
12544.91256420765
 21
-6344.707630772543
 31
0.0
  0
LINE
  5
36F92A
330
18
100
AcDbEntity
  8
姿図
100
AcDbLine
 10
12545.02068224041
 20
-6345.153248349581
 30
0.0
 11
12545.06252076798
 21
-6344.708625406816
 31
0.0
  0
LINE
  5
36F92B
330
18
100
AcDbEntity
  8
姿図
100
AcDbLine
 10
12505.70440064213
 20
-6341.04978727754
 30
0.0
 11
12505.72630330428
 21
-6340.817036432486
 31
0.0
  0
LINE
  5
36F92C
330
18
100
AcDbEntity
  8
姿図
100
AcDbLine
 10
12544.89936379463
 20
-6344.127865096755
 30
0.0
 11
12544.9131349855
 21
-6343.981520055471
 31
0.0
  0
LINE
  5
36F92D
330
18
100
AcDbEntity
  8
姿図
100
AcDbLine
 10
12545.02125301825
 20
-6344.427137632507
 30
0.0
 11
12545.06309154583
 21
-6343.982514689742
 31
0.0
  0
LINE
  5
36F92E
330
18
100
AcDbEntity
  8
姿図
100
AcDbLine
 10
12505.70497142564
 20
-6340.323669347184
 30
0.0
 11
12505.7268740878
 21
-6340.090918502129
 31
0.0
  0
LINE
  5
36F92F
330
18
100
AcDbEntity
  8
姿図
100
AcDbLine
 10
12544.89993457814
 20
-6343.401747166399
 30
0.0
 11
12544.913705769
 21
-6343.255402125112
 31
0.0
  0
LINE
  5
36F930
330
18
100
AcDbEntity
  8
姿図
100
AcDbLine
 10
12545.02182380176
 20
-6343.701019702151
 30
0.0
 11
12545.06366232934
 21
-6343.256396759386
 31
0.0
  0
LINE
  5
36F931
330
18
100
AcDbEntity
  8
姿図
100
AcDbLine
 10
12505.70554220348
 20
-6339.59755863011
 30
0.0
 11
12505.72744486564
 21
-6339.364807785056
 31
0.0
  0
LINE
  5
36F932
330
18
100
AcDbEntity
  8
姿図
100
AcDbLine
 10
12544.90050535598
 20
-6342.675636449325
 30
0.0
 11
12544.91427654685
 21
-6342.529291408039
 31
0.0
  0
LINE
  5
36F933
330
18
100
AcDbEntity
  8
姿図
100
AcDbLine
 10
12545.0223945796
 20
-6342.974908985077
 30
0.0
 11
12545.06423310718
 21
-6342.530286042314
 31
0.0
  0
LINE
  5
36F934
330
18
100
AcDbEntity
  8
姿図
100
AcDbLine
 10
12505.70611298132
 20
-6338.871447913037
 30
0.0
 11
12505.72801564348
 21
-6338.638697067981
 31
0.0
  0
LINE
  5
36F935
330
18
100
AcDbEntity
  8
姿図
100
AcDbLine
 10
12544.90107613383
 20
-6341.949525732252
 30
0.0
 11
12544.91484732469
 21
-6341.803180690966
 31
0.0
  0
LINE
  5
36F936
330
18
100
AcDbEntity
  8
姿図
100
AcDbLine
 10
12545.02296535744
 20
-6342.248798268003
 30
0.0
 11
12545.06480388502
 21
-6341.80417532524
 31
0.0
  0
LINE
  5
36F937
330
18
100
AcDbEntity
  8
姿図
100
AcDbLine
 10
12505.70668376483
 20
-6338.14532998268
 30
0.0
 11
12505.72858642699
 21
-6337.912579137626
 31
0.0
  0
LINE
  5
36F938
330
18
100
AcDbEntity
  8
姿図
100
AcDbLine
 10
12544.90164691167
 20
-6341.223415015178
 30
0.0
 11
12544.91541810253
 21
-6341.077069973891
 31
0.0
  0
LINE
  5
36F939
330
18
100
AcDbEntity
  8
姿図
100
AcDbLine
 10
12545.02353613528
 20
-6341.52268755093
 30
0.0
 11
12545.06537466286
 21
-6341.078064608167
 31
0.0
  0
LINE
  5
36F93A
330
18
100
AcDbEntity
  8
姿図
100
AcDbLine
 10
12505.70725454268
 20
-6337.419219265607
 30
0.0
 11
12505.72915720483
 21
-6337.186468420552
 31
0.0
  0
LINE
  5
36F93B
330
18
100
AcDbEntity
  8
姿図
100
AcDbLine
 10
12544.90221769518
 20
-6340.49729708482
 30
0.0
 11
12544.91598888604
 21
-6340.350952043536
 31
0.0
  0
LINE
  5
36F93C
330
18
100
AcDbEntity
  8
姿図
100
AcDbLine
 10
12545.02410691879
 20
-6340.796569620573
 30
0.0
 11
12545.06594544637
 21
-6340.351946677809
 31
0.0
  0
LINE
  5
36F93D
330
18
100
AcDbEntity
  8
姿図
100
AcDbLine
 10
12505.70782532052
 20
-6336.693108548534
 30
0.0
 11
12505.72972798267
 21
-6336.460357703478
 31
0.0
  0
LINE
  5
36F93E
330
18
100
AcDbEntity
  8
姿図
100
AcDbLine
 10
12544.90278847302
 20
-6339.771186367748
 30
0.0
 11
12544.91655966388
 21
-6339.624841326462
 31
0.0
  0
LINE
  5
36F93F
330
18
100
AcDbEntity
  8
姿図
100
AcDbLine
 10
12545.02467769663
 20
-6340.070458903499
 30
0.0
 11
12545.06651622421
 21
-6339.625835960736
 31
0.0
  0
LINE
  5
36F940
330
18
100
AcDbEntity
  8
姿図
100
AcDbLine
 10
12505.70839610403
 20
-6335.966990618176
 30
0.0
 11
12505.73029876618
 21
-6335.734239773121
 31
0.0
  0
LINE
  5
36F941
330
18
100
AcDbEntity
  8
姿図
100
AcDbLine
 10
12544.90335925086
 20
-6339.045075650673
 30
0.0
 11
12544.91713044172
 21
-6338.898730609389
 31
0.0
  0
LINE
  5
36F942
330
18
100
AcDbEntity
  8
姿図
100
AcDbLine
 10
12545.02524847448
 20
-6339.344348186426
 30
0.0
 11
12545.06708700205
 21
-6338.899725243662
 31
0.0
  0
LINE
  5
36F943
330
18
100
AcDbEntity
  8
姿図
100
AcDbLine
 10
12505.70896688187
 20
-6335.240879901103
 30
0.0
 11
12505.73086954403
 21
-6335.008129056047
 31
0.0
  0
LINE
  5
36F944
330
18
100
AcDbEntity
  8
姿図
100
AcDbLine
 10
12544.90393003437
 20
-6338.318957720318
 30
0.0
 11
12544.91770122523
 21
-6338.172612679032
 31
0.0
  0
LINE
  5
36F945
330
18
100
AcDbEntity
  8
姿図
100
AcDbLine
 10
12545.02581925799
 20
-6338.618230256069
 30
0.0
 11
12545.06765778556
 21
-6338.173607313304
 31
0.0
  0
LINE
  5
36F946
330
18
100
AcDbEntity
  8
姿図
100
AcDbLine
 10
12505.70953765971
 20
-6334.514769184029
 30
0.0
 11
12505.73144032187
 21
-6334.282018338974
 31
0.0
  0
LINE
  5
36F947
330
18
100
AcDbEntity
  8
姿図
100
AcDbLine
 10
12544.90450081221
 20
-6337.592847003243
 30
0.0
 11
12544.91827200308
 21
-6337.446501961959
 31
0.0
  0
LINE
  5
36F948
330
18
100
AcDbEntity
  8
姿図
100
AcDbLine
 10
12545.02639003583
 20
-6337.892119538995
 30
0.0
 11
12545.06822856341
 21
-6337.447496596232
 31
0.0
  0
LINE
  5
36F949
330
18
100
AcDbEntity
  8
姿図
100
AcDbLine
 10
12505.71010843755
 20
-6333.788658466956
 30
0.0
 11
12505.73201109971
 21
-6333.555907621899
 31
0.0
  0
LINE
  5
36F94A
330
18
100
AcDbEntity
  8
姿図
100
AcDbLine
 10
12544.90507159005
 20
-6336.866736286171
 30
0.0
 11
12544.91884278092
 21
-6336.720391244885
 31
0.0
  0
LINE
  5
36F94B
330
18
100
AcDbEntity
  8
姿図
100
AcDbLine
 10
12545.02696081367
 20
-6337.166008821922
 30
0.0
 11
12545.06879934125
 21
-6336.721385879157
 31
0.0
  0
LINE
  5
36F94C
330
18
100
AcDbEntity
  8
姿図
100
AcDbLine
 10
12505.71067922106
 20
-6333.062540536599
 30
0.0
 11
12505.73258188322
 21
-6332.829789691544
 31
0.0
  0
LINE
  5
36F94D
330
18
100
AcDbEntity
  8
姿図
100
AcDbLine
 10
12544.90564237356
 20
-6336.140618355813
 30
0.0
 11
12544.91941356443
 21
-6335.994273314527
 31
0.0
  0
LINE
  5
36F94E
330
18
100
AcDbEntity
  8
姿図
100
AcDbLine
 10
12545.02753159718
 20
-6336.439890891565
 30
0.0
 11
12545.06937012476
 21
-6335.995267948803
 31
0.0
  0
LINE
  5
36F94F
330
18
100
AcDbEntity
  8
姿図
100
AcDbLine
 10
12505.7112499989
 20
-6332.336429819527
 30
0.0
 11
12505.73315266106
 21
-6332.10367897447
 31
0.0
  0
LINE
  5
36F950
330
18
100
AcDbEntity
  8
姿図
100
AcDbLine
 10
12544.90621315141
 20
-6335.41450763874
 30
0.0
 11
12544.91998434227
 21
-6335.268162597454
 31
0.0
  0
LINE
  5
36F951
330
18
100
AcDbEntity
  8
姿図
100
AcDbLine
 10
12545.02810237502
 20
-6335.713780174492
 30
0.0
 11
12545.0699409026
 21
-6335.269157231729
 31
0.0
  0
LINE
  5
36F952
330
18
100
AcDbEntity
  8
姿図
100
AcDbLine
 10
12505.71182077675
 20
-6331.610319102452
 30
0.0
 11
12505.7337234389
 21
-6331.377568257398
 31
0.0
  0
LINE
  5
36F953
330
18
100
AcDbEntity
  8
姿図
100
AcDbLine
 10
12544.90678392925
 20
-6334.688396921666
 30
0.0
 11
12544.92055512011
 21
-6334.542051880379
 31
0.0
  0
LINE
  5
36F954
330
18
100
AcDbEntity
  8
姿図
100
AcDbLine
 10
12545.02867315286
 20
-6334.98766945742
 30
0.0
 11
12545.07051168044
 21
-6334.543046514655
 31
0.0
  0
LINE
  5
36F955
330
18
100
AcDbEntity
  8
姿図
100
AcDbLine
 10
12544.90735470709
 20
-6333.962286204593
 30
0.0
 11
12544.92112589795
 21
-6333.815941163307
 31
0.0
  0
LINE
  5
36F956
330
18
100
AcDbEntity
  8
姿図
100
AcDbLine
 10
12545.0292439307
 20
-6334.261558740345
 30
0.0
 11
12545.07108245828
 21
-6333.816935797582
 31
0.0
  0
LINE
  5
36F957
330
18
100
AcDbEntity
  8
姿図
100
AcDbLine
 10
12544.9079254906
 20
-6333.236168274236
 30
0.0
 11
12544.92169668146
 21
-6333.08982323295
 31
0.0
  0
LINE
  5
36F958
330
18
100
AcDbEntity
  8
姿図
100
AcDbLine
 10
12545.02981471421
 20
-6333.535440809987
 30
0.0
 11
12545.07165324179
 21
-6333.090817867224
 31
0.0
  0
LINE
  5
36F959
330
18
100
AcDbEntity
  8
姿図
100
AcDbLine
 10
12544.90849626844
 20
-6332.510057557163
 30
0.0
 11
12544.9222674593
 21
-6332.363712515877
 31
0.0
  0
LINE
  5
36F95A
330
18
100
AcDbEntity
  8
姿図
100
AcDbLine
 10
12545.03038549206
 20
-6332.809330092914
 30
0.0
 11
12545.07222401963
 21
-6332.364707150151
 31
0.0
  0
LINE
  5
36F95B
330
18
100
AcDbEntity
  8
姿図
100
AcDbLine
 10
12544.90906704628
 20
-6331.783946840089
 30
0.0
 11
12544.92283823715
 21
-6331.637601798803
 31
0.0
  0
LINE
  5
36F95C
330
18
100
AcDbEntity
  8
姿図
100
AcDbLine
 10
12545.0309562699
 20
-6332.083219375841
 30
0.0
 11
12545.07279479748
 21
-6331.638596433077
 31
0.0
  0
LINE
  5
36F95D
330
18
100
AcDbEntity
  8
姿図
100
AcDbLine
 10
12505.52478874109
 20
-6332.861689218764
 30
0.0
 11
12505.41694652951
 21
-6332.860973633422
 31
0.0
  0
LINE
  5
36F95E
330
18
100
AcDbEntity
  8
姿図
100
AcDbLine
 10
12505.34330571834
 20
-6348.332735864015
 30
0.0
 11
12505.39004867072
 21
-6347.836007742433
 31
0.0
  0
LINE
  5
36F95F
330
18
100
AcDbEntity
  8
姿図
100
AcDbLine
 10
12505.52463329537
 20
-6346.560270655164
 30
0.0
 11
12505.53952846592
 21
-6346.401990190429
 31
0.0
  0
LINE
  5
36F960
330
18
100
AcDbEntity
  8
姿図
100
AcDbLine
 10
12505.52520407321
 20
-6345.834159938091
 30
0.0
 11
12505.54025315242
 21
-6345.674270548403
 31
0.0
  0
LINE
  5
36F961
330
18
100
AcDbEntity
  8
姿図
100
AcDbLine
 10
12505.52577485672
 20
-6345.108042007734
 30
0.0
 11
12505.54097522386
 21
-6344.946543028302
 31
0.0
  0
LINE
  5
36F962
330
18
100
AcDbEntity
  8
姿図
100
AcDbLine
 10
12505.52634563456
 20
-6344.381931290661
 30
0.0
 11
12505.5416972628
 21
-6344.218824040472
 31
0.0
  0
LINE
  5
36F963
330
18
100
AcDbEntity
  8
姿図
100
AcDbLine
 10
12505.52691641241
 20
-6343.655820573586
 30
0.0
 11
12505.54241932857
 21
-6343.491103733652
 31
0.0
  0
LINE
  5
36F964
330
18
100
AcDbEntity
  8
姿図
100
AcDbLine
 10
12505.52748719025
 20
-6342.929709856512
 30
0.0
 11
12505.54294340698
 21
-6342.765475693004
 31
0.0
  0
LINE
  5
36F965
330
18
100
AcDbEntity
  8
姿図
100
AcDbLine
 10
12505.52805797376
 20
-6342.203591926157
 30
0.0
 11
12505.54336290257
 21
-6342.040967352392
 31
0.0
  0
LINE
  5
36F966
330
18
100
AcDbEntity
  8
姿図
100
AcDbLine
 10
12505.5286287516
 20
-6341.477481209082
 30
0.0
 11
12505.54378241931
 21
-6341.316464906075
 31
0.0
  0
LINE
  5
36F967
330
18
100
AcDbEntity
  8
姿図
100
AcDbLine
 10
12505.52919952944
 20
-6340.751370492009
 30
0.0
 11
12505.54420190922
 21
-6340.591963778749
 31
0.0
  0
LINE
  5
36F968
330
18
100
AcDbEntity
  8
姿図
100
AcDbLine
 10
12505.52977031295
 20
-6340.025252561652
 30
0.0
 11
12505.54462143163
 21
-6339.867454119147
 31
0.0
  0
LINE
  5
36F969
330
18
100
AcDbEntity
  8
姿図
100
AcDbLine
 10
12505.53034109079
 20
-6339.299141844579
 30
0.0
 11
12505.54504092154
 21
-6339.142952991821
 31
0.0
  0
LINE
  5
36F96A
330
18
100
AcDbEntity
  8
姿図
100
AcDbLine
 10
12505.53091186863
 20
-6338.573031127507
 30
0.0
 11
12505.54546043829
 21
-6338.418450545502
 31
0.0
  0
LINE
  5
36F96B
330
18
100
AcDbEntity
  8
姿図
100
AcDbLine
 10
12505.53148265215
 20
-6337.846913197149
 30
0.0
 11
12505.54587993387
 21
-6337.693942204892
 31
0.0
  0
LINE
  5
36F96C
330
18
100
AcDbEntity
  8
姿図
100
AcDbLine
 10
12505.53205342999
 20
-6337.120802480074
 30
0.0
 11
12505.54629945061
 21
-6336.969439758572
 31
0.0
  0
LINE
  5
36F96D
330
18
100
AcDbEntity
  8
姿図
100
AcDbLine
 10
12505.53262420783
 20
-6336.394691763002
 30
0.0
 11
12505.54671894052
 21
-6336.244938631246
 31
0.0
  0
LINE
  5
36F96E
330
18
100
AcDbEntity
  8
姿図
100
AcDbLine
 10
12505.53319498567
 20
-6335.668581045929
 30
0.0
 11
12505.54713845727
 21
-6335.520436184927
 31
0.0
  0
LINE
  5
36F96F
330
18
100
AcDbEntity
  8
姿図
100
AcDbLine
 10
12505.53376576918
 20
-6334.942463115573
 30
0.0
 11
12505.54755795285
 21
-6334.795927844317
 31
0.0
  0
LINE
  5
36F970
330
18
100
AcDbEntity
  8
姿図
100
AcDbLine
 10
12505.53433654702
 20
-6334.216352398499
 30
0.0
 11
12505.54797482203
 21
-6334.071426052194
 31
0.0
  0
LINE
  5
36F971
330
18
100
AcDbEntity
  8
姿図
100
AcDbLine
 10
12505.53490732486
 20
-6333.490241681425
 30
0.0
 11
12505.5483969595
 21
-6333.346924270672
 31
0.0
  0
SPLINE
  5
36F972
330
18
100
AcDbEntity
  8
姿図
100
AcDbSpline
210
0.0
220
0.0
230
1.0
 70
     8
 71
     3
 72
    22
 73
    18
 74
     0
 42
0.000000001
 43
0.0000000001
 40
0.0
 40
0.0
 40
0.0
 40
0.0
 40
0.0041696669726592
 40
0.5155754058651724
 40
0.7719469489341685
 40
0.8980572730750418
 40
0.9128575466616174
 40
0.919740074496262
 40
0.9263961804675227
 40
0.939109025197092
 40
0.9514732184123676
 40
0.9638127736978042
 40
0.9764335936896195
 40
0.9830192575556925
 40
0.9898171295612547
 40
0.9968934062754804
 40
0.9999999999999998
 40
0.9999999999999998
 40
0.9999999999999998
 40
0.9999999999999998
 10
12524.82293883048
 20
-6297.635533205409
 30
0.0
 10
12524.82279824899
 20
-6297.631566723342
 30
0.0
 10
12524.80541547998
 20
-6297.141114940242
 30
0.0
 10
12524.20640740291
 20
-6296.416710746708
 30
0.0
 10
12523.81520251642
 20
-6295.56956253046
 30
0.0
 10
12523.67666084283
 20
-6295.196518229026
 30
0.0
 10
12523.57709702301
 20
-6295.055374229153
 30
0.0
 10
12523.5148258667
 20
-6295.032870140108
 30
0.0
 10
12523.44327902493
 20
-6295.015294865471
 30
0.0
 10
12523.33337258617
 20
-6295.000872371143
 30
0.0
 10
12523.18866230937
 20
-6294.997126491262
 30
0.0
 10
12523.04895699054
 20
-6295.006903174414
 30
0.0
 10
12522.95148768117
 20
-6295.025593273397
 30
0.0
 10
12522.89295196115
 20
-6295.045689255477
 30
0.0
 10
12522.86133031423
 20
-6295.063512640809
 30
0.0
 10
12522.84504194366
 20
-6295.079415710011
 30
0.0
 10
12522.84655311285
 20
-6295.089118968665
 30
0.0
 10
12522.84701414089
 20
-6295.092079242253
 30
0.0
  0
LWPOLYLINE
  5
36F973
330
18
100
AcDbEntity
  8
姿図
100
AcDbPolyline
 90
        6
 70
   128
 43
0.0
 10
12524.40321024929
 20
-6311.205762914902
 10
12524.40113019709
 20
-6310.94862320665
 10
12524.3744489176
 20
-6307.647952852409
 10
12524.34049256716
 20
-6303.445715509258
 10
12524.31562849624
 20
-6300.367617162329
 10
12524.3065474867
 20
-6299.243506878006
  0
SPLINE
  5
36F974
330
18
100
AcDbEntity
  8
姿図
100
AcDbSpline
210
0.0
220
0.0
230
1.0
 70
     8
 71
     3
 72
    22
 73
    18
 74
     0
 42
0.000000001
 43
0.0000000001
 40
0.0
 40
0.0
 40
0.0
 40
0.0
 40
0.0033779051602898
 40
0.0102608036547043
 40
0.0169175171845236
 40
0.0296309584283344
 40
0.0419958926754467
 40
0.054336250264185
 40
0.0669576693970946
 40
0.0735437580611631
 40
0.0803420226641214
 40
0.0874185792896251
 40
0.0949286933216886
 40
0.6063641354458167
 40
0.8627508130874979
 40
0.988868342554102
 40
1.0
 40
1.0
 40
1.0
 40
1.0
 10
12530.14130136733
 20
-6295.224361089339
 30
0.0
 10
12530.14353868864
 20
-6295.221173853359
 30
0.0
 10
12530.15033482817
 20
-6295.211492230865
 30
0.0
 10
12530.13181939631
 20
-6295.195529083908
 30
0.0
 10
12530.09425238412
 20
-6295.172458453553
 30
0.0
 10
12530.01381862684
 20
-6295.148618725267
 30
0.0
 10
12529.88593324713
 20
-6295.131296747646
 30
0.0
 10
12529.74171737791
 20
-6295.126935411121
 30
0.0
 10
12529.62293184794
 20
-6295.134833470521
 30
0.0
 10
12529.53822817972
 20
-6295.147789015702
 30
0.0
 10
12529.48122409467
 20
-6295.161143597414
 30
0.0
 10
12529.43368513871
 20
-6295.177905030846
 30
0.0
 10
12528.77263053456
 20
-6295.65193775447
 30
0.0
 10
12528.0795686165
 20
-6296.368105137359
 30
0.0
 10
12527.24189642394
 20
-6297.1899784824
 30
0.0
 10
12526.71375402327
 20
-6297.543902907065
 30
0.0
 10
12526.65263732068
 20
-6297.673575026446
 30
0.0
 10
12526.64768042284
 20
-6297.6840921424
 30
0.0
  0
LWPOLYLINE
  5
36F975
330
18
100
AcDbEntity
  8
姿図
100
AcDbPolyline
 90
        6
 70
   128
 43
0.0
 10
12527.84574312946
 20
-6299.313758305804
 10
12527.84000808496
 20
-6300.208262151119
 10
12527.81705381371
 20
-6303.786297413122
 10
12527.79118947101
 20
-6307.813354160556
 10
12527.76959259303
 20
-6311.17287883216
 10
12527.7690660521
 20
-6311.254801040269
  0
SPLINE
  5
36F976
330
18
100
AcDbEntity
  8
姿図
100
AcDbSpline
210
0.0
220
0.0
230
1.0
 70
     8
 71
     3
 72
    19
 73
    15
 74
     0
 42
0.000000001
 43
0.0000000001
 40
0.0
 40
0.0
 40
0.0
 40
0.0
 40
0.5201930068353593
 40
0.7809699139848943
 40
0.9092471052334582
 40
0.9243016828091247
 40
0.9313022947057984
 40
0.9380728739058655
 40
0.9510040399408838
 40
0.9635806553896731
 40
0.9761322537422324
 40
0.9889699532403566
 40
0.9956688146259804
 40
1.0
 40
1.0
 40
1.0
 40
1.0
 10
12522.32589648687
 20
-6297.78768931691
 30
0.0
 10
12521.37854741755
 20
-6297.362780177667
 30
0.0
 10
12519.95628469686
 20
-6296.724860694769
 30
0.0
 10
12518.25284437485
 20
-6295.984664936003
 30
0.0
 10
12517.55883750194
 20
-6295.652369276076
 30
0.0
 10
12517.25115859066
 20
-6295.531357994256
 30
0.0
 10
12517.15930044354
 20
-6295.516508380251
 30
0.0
 10
12517.06642023204
 20
-6295.507106264833
 30
0.0
 10
12516.94293923737
 20
-6295.50429517447
 30
0.0
 10
12516.80376332987
 20
-6295.514697109924
 30
0.0
 10
12516.68949361297
 20
-6295.537120441249
 30
0.0
 10
12516.62907534279
 20
-6295.563764370697
 30
0.0
 10
12516.60620791116
 20
-6295.585565845035
 30
0.0
 10
12516.60623178381
 20
-6295.595909448838
 30
0.0
 10
12516.60624115792
 20
-6295.599971087604
 30
0.0
  0
LWPOLYLINE
  5
36F977
330
18
100
AcDbEntity
  8
姿図
100
AcDbPolyline
 90
        6
 70
   128
 43
0.0
 10
12520.11603785286
 20
-6311.427810998051
 10
12520.11613235306
 20
-6311.241257784152
 10
12520.11776058835
 20
-6307.942114795888
 10
12520.11988820433
 20
-6303.741819802286
 10
12520.12148130454
 20
-6300.665142208792
 10
12520.12207455854
 20
-6299.541550978002
  0
SPLINE
  5
36F978
330
18
100
AcDbEntity
  8
姿図
100
AcDbSpline
210
0.0
220
0.0
230
1.0
 70
     8
 71
     3
 72
    18
 73
    14
 74
     0
 42
0.000000001
 43
0.0000000001
 40
0.0
 40
0.0
 40
0.0
 40
0.0
 40
0.0043488455747813
 40
0.0199806002949571
 40
0.0351834358756316
 40
0.0503565555187749
 40
0.0658748469149665
 40
0.0739728677891122
 40
0.0823314934826205
 40
0.0910324936006264
 40
0.1002664385717814
 40
0.7290942287227399
 40
1.0
 40
1.0
 40
1.0
 40
1.0
 10
12536.0032594998
 20
-6295.970589438834
 30
0.0
 10
12536.00342125575
 20
-6295.967220177399
 30
0.0
 10
12536.00416443711
 20
-6295.951740237985
 30
0.0
 10
12535.96678202005
 20
-6295.925048100038
 30
0.0
 10
12535.87604843242
 20
-6295.896779566701
 30
0.0
 10
12535.74902508167
 20
-6295.878945290187
 30
0.0
 10
12535.62714705194
 20
-6295.874851141333
 30
0.0
 10
12535.52898264639
 20
-6295.878688891789
 30
0.0
 10
12535.45584264865
 20
-6295.88555053748
 30
0.0
 10
12535.3862503772
 20
-6295.896462762684
 30
0.0
 10
12534.05011775602
 20
-6296.270527213494
 30
0.0
 10
12532.43129416967
 20
-6296.843418433903
 30
0.0
 10
12530.70258949224
 20
-6297.387478735969
 30
0.0
 10
12530.18208420709
 20
-6297.551292871698
 30
0.0
  0
LWPOLYLINE
  5
36F979
330
18
100
AcDbEntity
  8
姿図
100
AcDbPolyline
 90
        5
 70
   128
 43
0.0
 10
12531.79916466537
 20
-6299.773335508413
 10
12531.8011181624
 20
-6300.598154951997
 10
12531.80890757444
 20
-6303.897449947895
 10
12531.81875767976
 20
-6308.097982232165
 10
12531.82690196938
 20
-6311.594884132428
  0
SPLINE
  5
36F97A
330
18
100
AcDbEntity
  8
姿図
100
AcDbSpline
210
0.0
220
0.0
230
1.0
 70
     8
 71
     3
 72
    16
 73
    12
 74
     0
 42
0.000000001
 43
0.0000000001
 40
0.0
 40
0.0
 40
0.0
 40
0.0
 40
0.0073580564713141
 40
0.0355270380151773
 40
0.0636396061313726
 40
0.0923934101507747
 40
0.1073977713478907
 40
0.1228850498666802
 40
0.1390064448629835
 40
0.1561155417520947
 40
0.9999999999999998
 40
0.9999999999999998
 40
0.9999999999999998
 40
0.9999999999999998
 10
12540.27586186849
 20
-6297.221043470309
 30
0.0
 10
12540.27735956892
 20
-6297.217981409782
 30
0.0
 10
12540.28459094318
 20
-6297.203196807195
 30
0.0
 10
12540.24376480413
 20
-6297.177000675151
 30
0.0
 10
12540.15726415881
 20
-6297.148457355117
 30
0.0
 10
12540.04986070067
 20
-6297.132980402874
 30
0.0
 10
12539.95331906726
 20
-6297.127120012429
 30
0.0
 10
12539.87514896934
 20
-6297.126442716294
 30
0.0
 10
12539.79410646806
 20
-6297.12984569192
 30
0.0
 10
12538.47088375418
 20
-6297.288742468438
 30
0.0
 10
12537.24294149645
 20
-6297.473671352093
 30
0.0
 10
12536.03940009856
 20
-6297.65492545076
 30
0.0
  0
LWPOLYLINE
  5
36F97B
330
18
100
AcDbEntity
  8
姿図
100
AcDbPolyline
 90
        5
 70
   128
 43
0.0
 10
12526.66997785622
 20
-6311.218853703607
 10
12526.67637486097
 20
-6310.094831204686
 10
12526.72004194386
 20
-6302.39322600568
 10
12526.7300252361
 20
-6300.625828821519
 10
12526.73364976349
 20
-6299.983739539211
  0
LWPOLYLINE
  5
36F97C
330
18
100
AcDbEntity
  8
姿図
100
AcDbPolyline
 90
        4
 70
   128
 43
0.0
 10
12525.29730256378
 20
-6299.955228707652
 10
12525.31136518059
 20
-6301.881103557703
 10
12525.36775273798
 20
-6309.584697008419
 10
12525.37955916953
 20
-6311.194379779475
  0
LWPOLYLINE
  5
36F97D
330
18
100
AcDbEntity
  8
姿図
100
AcDbPolyline
 90
        5
 70
   128
 43
0.0
 10
12522.58681261507
 20
-6311.256181939318
 10
12522.60183999103
 20
-6310.150605295138
 10
12522.70653354745
 20
-6302.44226220422
 10
12522.7305420296
 20
-6300.673322092559
 10
12522.73926535511
 20
-6300.03067241766
  0
SPLINE
  5
36F97E
330
18
100
AcDbEntity
  8
姿図
100
AcDbSpline
210
0.0
220
0.0
230
1.0
 70
     8
 71
     3
 72
    17
 73
    13
 74
     0
 42
0.000000001
 43
0.0000000001
 40
0.0
 40
0.0
 40
0.0
 40
0.0
 40
0.1763789466764016
 40
0.6367160434035501
 40
0.8631576558025436
 40
0.8897324356282469
 40
0.9020904670362972
 40
0.9140421815052064
 40
0.9368689367548606
 40
0.9590698116465439
 40
0.9812266709515872
 40
1.0
 40
1.0
 40
1.0
 40
1.0
 10
12516.5676296195
 20
-6297.448116514008
 30
0.0
 10
12516.27443570474
 20
-6297.390148686178
 30
0.0
 10
12515.21602554372
 20
-6297.180888756493
 30
0.0
 10
12513.75792791654
 20
-6296.901203911868
 30
0.0
 10
12512.61028437185
 20
-6296.660204243293
 30
0.0
 10
12512.14141479891
 20
-6296.577750548535
 30
0.0
 10
12512.03394630117
 20
-6296.572814627626
 30
0.0
 10
12511.9339079687
 20
-6296.573017352471
 30
0.0
 10
12511.81539152523
 20
-6296.582245401002
 30
0.0
 10
12511.70398551638
 20
-6296.605216698684
 30
0.0
 10
12511.63302672987
 20
-6296.635015251119
 30
0.0
 10
12511.62790388043
 20
-6296.656894091753
 30
0.0
 10
12511.62555419815
 20
-6296.666929195207
 30
0.0
  0
LWPOLYLINE
  5
36F97F
330
18
100
AcDbEntity
  8
姿図
100
AcDbPolyline
 90
        4
 70
   128
 43
0.0
 10
12521.37029076896
 20
-6300.141920012778
 10
12521.36790315824
 20
-6302.067049809349
 10
12521.35856261345
 20
-6309.767645055782
 10
12521.35671215327
 20
-6311.325042492449
  0
LWPOLYLINE
  5
36F980
330
18
100
AcDbEntity
  8
姿図
100
AcDbPolyline
 90
        5
 70
   128
 43
0.0
 10
12530.53362051303
 20
-6311.45439550241
 10
12530.53059197697
 20
-6310.433757094344
 10
12530.50751082144
 20
-6302.732521303223
 10
12530.50216310559
 20
-6300.965204896114
 10
12530.50021626376
 20
-6300.323144469793
  0
SPLINE
  5
36F981
330
18
100
AcDbEntity
  8
姿図
100
AcDbSpline
210
0.0
220
0.0
230
1.0
 70
     8
 71
     3
 72
    15
 73
    11
 74
     0
 42
0.000000001
 43
0.0000000001
 40
0.0
 40
0.0
 40
0.0
 40
0.0
 40
0.3332233411038143
 40
0.7786086460841563
 40
0.8308779790387107
 40
0.8551852918398484
 40
0.8786931990666088
 40
0.9235908632349763
 40
0.9672579557260355
 40
0.9999999999999998
 40
0.9999999999999998
 40
0.9999999999999998
 40
0.9999999999999998
 10
12511.58352325873
 20
-6298.21423286982
 30
0.0
 10
12511.23708012182
 20
-6298.190277020601
 30
0.0
 10
12510.42758214104
 20
-6298.13430185613
 30
0.0
 10
12509.58459452149
 20
-6298.066563915424
 30
0.0
 10
12509.02575025592
 20
-6298.035248392118
 30
0.0
 10
12508.91909749066
 20
-6298.04097737515
 30
0.0
 10
12508.82687815878
 20
-6298.050752683294
 30
0.0
 10
12508.73319854692
 20
-6298.070634428828
 30
0.0
 10
12508.66522521248
 20
-6298.099967047154
 30
0.0
 10
12508.6611505789
 20
-6298.12072535845
 30
0.0
 10
12508.65940455953
 20
-6298.129620492936
 30
0.0
  0
SPLINE
  5
36F982
330
18
100
AcDbEntity
  8
姿図
100
AcDbSpline
210
0.0
220
0.0
230
1.0
 70
     8
 71
     3
 72
    15
 73
    11
 74
     0
 42
0.000000001
 43
0.0000000001
 40
0.0
 40
0.0
 40
0.0
 40
0.0
 40
0.0135427707341344
 40
0.0766486763402533
 40
0.1411932626194856
 40
0.17487402550475
 40
0.2096384744085114
 40
0.2458258672051222
 40
0.2842312208519842
 40
1.0
 40
1.0
 40
1.0
 40
1.0
 10
12542.32049728433
 20
-6298.784849472563
 30
0.0
 10
12542.32180221618
 20
-6298.782343290384
 30
0.0
 10
12542.32918780227
 20
-6298.768158929559
 30
0.0
 10
12542.29005072491
 20
-6298.742125623006
 30
0.0
 10
12542.2184482264
 20
-6298.71769381284
 30
0.0
 10
12542.13753401613
 20
-6298.703017530133
 30
0.0
 10
12542.0663826536
 20
-6298.694905491441
 30
0.0
 10
12541.98618718811
 20
-6298.690286009155
 30
0.0
 10
12541.39728650881
 20
-6298.698069927601
 30
0.0
 10
12540.84365657337
 20
-6298.718630155136
 30
0.0
 10
12540.31821953468
 20
-6298.738143379363
 30
0.0
  0
SPLINE
  5
36F983
330
18
100
AcDbEntity
  8
姿図
100
AcDbSpline
210
0.0
220
0.0
230
1.0
 70
     8
 71
     3
 72
    13
 73
     9
 74
     0
 42
0.000000001
 43
0.0000000001
 40
0.0
 40
0.0
 40
0.0
 40
0.0
 40
0.1422939984179457
 40
0.3945712930867451
 40
0.5118812724930045
 40
0.6253428444504868
 40
0.8420388190507226
 40
1.0
 40
1.0
 40
1.0
 40
1.0
 10
12508.61201794069
 20
-6299.673246117293
 30
0.0
 10
12508.58058983875
 20
-6299.674088689013
 30
0.0
 10
12508.49344191289
 20
-6299.67642508139
 30
0.0
 10
12508.37857552943
 20
-6299.682036068672
 30
0.0
 10
12508.28875758097
 20
-6299.697466755262
 30
0.0
 10
12508.21943709288
 20
-6299.715355384007
 30
0.0
 10
12508.16333249372
 20
-6299.740098390806
 30
0.0
 10
12508.16065423077
 20
-6299.76119112295
 30
0.0
 10
12508.1595250342
 20
-6299.770084141085
 30
0.0
  0
ARC
  5
36F984
330
18
100
AcDbEntity
  8
姿図
100
AcDbCircle
 10
12529.79636378478
 20
-6338.42285064062
 30
0.0
 40
19.4845817806165
100
AcDbArc
 50
222.7159713350477
 51
235.6888844867234
  0
LWPOLYLINE
  5
36F985
330
18
100
AcDbEntity
  8
姿図
100
AcDbPolyline
 90
        3
 70
   128
 43
0.0
 10
12524.89373315105
 20
-6357.403732894642
 10
12525.43786554692
 20
-6357.549710515955
 10
12526.30323072094
 20
-6357.744554918263
  0
ARC
  5
36F986
330
18
100
AcDbEntity
  8
姿図
100
AcDbCircle
 10
12529.73049056135
 20
-6338.462961079166
 30
0.0
 40
19.54850022723096
100
AcDbArc
 50
226.2611327452314
 51
232.6109650786909
  0
SPLINE
  5
36F987
330
18
100
AcDbEntity
  8
姿図
100
AcDbSpline
210
0.0
220
0.0
230
1.0
 70
     8
 71
     3
 72
    11
 73
     7
 74
     0
 42
0.000000001
 43
0.0000000001
 40
0.0
 40
0.0
 40
0.0
 40
0.0
 40
0.347304983877145
 40
0.7012047328461253
 40
0.933165719605569
 40
1.0
 40
1.0
 40
1.0
 40
1.0
 10
12516.68008198237
 20
-6360.657419902204
 30
0.0
 10
12517.07479521802
 20
-6360.740412334724
 30
0.0
 10
12517.87171666115
 20
-6360.907973093061
 30
0.0
 10
12519.1139237578
 20
-6361.016120229881
 30
0.0
 10
12520.02770162768
 20
-6361.058512042522
 30
0.0
 10
12520.47218398118
 20
-6361.056598998005
 30
0.0
 10
12520.57160542961
 20
-6361.056171089775
 30
0.0
  0
LINE
  5
36F988
330
18
100
AcDbEntity
  8
姿図
100
AcDbLine
 10
12524.60909247924
 20
-6332.839474667776
 30
0.0
 11
12524.93607929978
 21
-6314.027820264525
 31
0.0
  0
LINE
  5
36F989
330
18
100
AcDbEntity
  8
姿図
100
AcDbLine
 10
12526.91666639064
 20
-6332.85963826815
 30
0.0
 11
12526.61124812134
 21
-6314.042714331613
 31
0.0
  0
LINE
  5
36F98A
330
18
100
AcDbEntity
  8
姿図
100
AcDbLine
 10
12523.82515569918
 20
-6332.850151251484
 30
0.0
 11
12523.66910794326
 21
-6314.44125537338
 31
0.0
  0
LINE
  5
36F98B
330
18
100
AcDbEntity
  8
姿図
100
AcDbLine
 10
12524.19419865795
 20
-6314.459566648765
 30
0.0
 11
12524.35001934889
 21
-6332.842013983671
 31
0.0
  0
LINE
  5
36F98C
330
18
100
AcDbEntity
  8
姿図
100
AcDbLine
 10
12527.13574082274
 20
-6332.865568783557
 30
0.0
 11
12527.23920678351
 21
-6314.486639529056
 31
0.0
  0
LINE
  5
36F98D
330
18
100
AcDbEntity
  8
姿図
100
AcDbLine
 10
12527.76784248744
 20
-6314.477697733487
 30
0.0
 11
12527.66422907008
 21
-6332.882802156352
 31
0.0
  0
LWPOLYLINE
  5
36F98E
330
18
100
AcDbEntity
  8
姿図
100
AcDbPolyline
 90
        3
 70
   128
 43
0.0
 10
12523.77330596002
 20
-6314.486587822027
 10
12523.89575646139
 20
-6314.483772533584
 10
12524.14440151558
 20
-6314.478848089096
  0
LINE
  5
36F98F
330
18
100
AcDbEntity
  8
姿図
100
AcDbLine
 10
12527.2863032352
 20
-6314.507511145997
 30
0.0
 11
12527.64814709819
 21
-6314.521728413706
 31
0.0
  0
LINE
  5
36F990
330
18
100
AcDbEntity
  8
姿図
100
AcDbLine
 10
12508.32568994936
 20
-6328.897896716371
 30
0.0
 11
12508.40095071342
 21
-6317.894348299915
 31
0.0
  0
LINE
  5
36F991
330
18
100
AcDbEntity
  8
姿図
100
AcDbLine
 10
12542.15050435818
 20
-6325.620970295536
 30
0.0
 11
12542.1032851344
 21
-6318.193997149605
 31
0.0
  0
LWPOLYLINE
  5
36F992
330
18
100
AcDbEntity
  8
姿図
100
AcDbPolyline
 90
        3
 70
   128
 43
0.0
 10
12542.42694389297
 20
-6345.433433345445
 10
12542.60285583675
 20
-6345.238307660384
 10
12542.68363739448
 20
-6345.131537052524
  0
ARC
  5
36F993
330
18
100
AcDbEntity
  8
姿図
100
AcDbCircle
 10
12538.03874555258
 20
-6347.825332485904
 30
0.0
 40
6.267897240365398
100
AcDbArc
 50
41.12723618851489
 51
75.71115875010753
  0
ARC
  5
36F994
330
18
100
AcDbEntity
  8
姿図
100
AcDbCircle
 10
12512.10498791104
 20
-6347.649018913155
 30
0.0
 40
6.009633879410617
100
AcDbArc
 50
106.9146372138625
 51
135.4885447721473
  0
LWPOLYLINE
  5
36F995
330
18
100
AcDbEntity
  8
姿図
100
AcDbPolyline
 90
       44
 70
   128
 43
0.0
 10
12507.64280142996
 20
-6343.102105021507
 10
12507.64757449278
 20
-6343.096806129561
 10
12507.95188485791
 20
-6342.805649677065
 10
12508.33325295571
 20
-6342.520289165348
 10
12508.78997087649
 20
-6342.241999642114
 10
12509.31999945253
 20
-6341.972023831484
 10
12509.92097098622
 20
-6341.711567522821
 10
12510.59020254143
 20
-6341.461793661771
 10
12511.32470656069
 20
-6341.223818414491
 10
12512.12120153583
 20
-6340.9987045939
 10
12512.97612921721
 20
-6340.787457407405
 10
12513.88567182282
 20
-6340.591020204629
 10
12514.84576659987
 20
-6340.41027087935
 10
12515.85212832903
 20
-6340.246016308821
 10
12516.90025991472
 20
-6340.098989737004
 10
12517.98547878018
 20
-6339.96984818959
 10
12519.10293934489
 20
-6339.859168232314
 10
12520.24765018005
 20
-6339.767444356688
 10
12521.41450040371
 20
-6339.695086395
 10
12522.59827882187
 20
-6339.642417415396
 10
12523.79369569035
 20
-6339.609672281734
 10
12524.9954169453
 20
-6339.596998381978
 10
12526.19806825494
 20
-6339.604450689938
 10
12527.39628365068
 20
-6339.631996809535
 10
12528.58471151087
 20
-6339.679514183871
 10
12529.75803993633
 20
-6339.74678907456
 10
12530.91103186619
 20
-6339.833522320766
 10
12532.03853732294
 20
-6339.939326313556
 10
12533.13552132804
 20
-6340.06372859699
 10
12534.19708428632
 20
-6340.206173393065
 10
12535.21848300552
 20
-6340.366024282104
 10
12536.19515566022
 20
-6340.542567220829
 10
12537.12274344639
 20
-6340.735014378186
 10
12537.99710009829
 20
-6340.942505720862
 10
12538.81432501873
 20
-6341.164115262966
 10
12539.57076063154
 20
-6341.398851720226
 10
12540.2630369607
 20
-6341.645668492517
 10
12540.88805684518
 20
-6341.903462067758
 10
12541.44302835367
 20
-6342.171081073102
 10
12541.92547719942
 20
-6342.447331081483
 10
12542.33324536286
 20
-6342.730977576671
 10
12542.6645120037
 20
-6343.020753909633
 10
12542.91779928378
 20
-6343.315366421535
 10
12543.01415036291
 20
-6343.462906986568
  0
LWPOLYLINE
  5
36F996
330
18
100
AcDbEntity
  8
姿図
100
AcDbPolyline
 90
       38
 70
   128
 43
0.0
 10
12507.87347956439
 20
-6343.442803632781
 10
12507.99124310927
 20
-6343.309599416933
 10
12508.30641846711
 20
-6343.021225586315
 10
12508.69869527792
 20
-6342.738894116051
 10
12509.16628107108
 20
-6342.463893074158
 10
12509.70704422897
 20
-6342.197477529663
 10
12510.31851938939
 20
-6341.940862968256
 10
12510.99791676572
 20
-6341.695220364624
 10
12511.74213411462
 20
-6341.461670600587
 10
12512.54777397197
 20
-6341.241278893836
 10
12513.41116480655
 20
-6341.035050883373
 10
12514.3283637481
 20
-6340.84392801833
 10
12515.29518700741
 20
-6340.668781353723
 10
12516.30722435742
 20
-6340.510411909345
 10
12517.35985909724
 20
-6340.369540487336
 10
12518.44828380337
 20
-6340.246810341975
 10
12519.56753337051
 20
-6340.142781640212
 10
12520.71250481458
 20
-6340.057929193183
 10
12521.87797180751
 20
-6339.992640177137
 10
12523.05861501683
 20
-6339.947211886141
 10
12524.24904778518
 20
-6339.921851948638
 10
12525.44384053978
 20
-6339.91667623311
 10
12526.63754186555
 20
-6339.931708890476
 10
12527.82470029384
 20
-6339.966879594971
 10
12528.99990697641
 20
-6340.022030060342
 10
12530.15779220603
 20
-6340.096907025426
 10
12531.2930763105
 20
-6340.191169363983
 10
12532.40057922317
 20
-6340.304387032215
 10
12533.47524514284
 20
-6340.436042849653
 10
12534.51217569083
 20
-6340.58553742982
 10
12535.50663586805
 20
-6340.752187708315
 10
12536.45408784708
 20
-6340.93523302894
 10
12537.35021163395
 20
-6341.133839224835
 10
12538.1909169016
 20
-6341.347099631597
 10
12538.97236428666
 20
-6341.574040323845
 10
12539.6909942174
 20
-6341.813627427985
 10
12540.34352396211
 20
-6342.064766539182
 10
12540.79070845184
 20
-6342.261400433033
  0
ARC
  5
36F997
330
18
100
AcDbEntity
  8
姿図
100
AcDbCircle
 10
12539.67547036373
 20
-6345.800103142835
 30
0.0
 40
3.675672514250643
100
AcDbArc
 50
33.60437065633633
 51
67.37878924707896
  0
LWPOLYLINE
  5
36F998
330
18
100
AcDbEntity
  8
姿図
100
AcDbPolyline
 90
        3
 70
   128
 43
0.0
 10
12542.68734182207
 20
-6345.036562235268
 10
12542.54562128522
 20
-6345.235370898627
 10
12542.40630292475
 20
-6345.393049819135
  0
TEXT
  5
3724E0
330
18
100
AcDbEntity
  8
文字
100
AcDbText
 10
12480.24430420848
 20
-6376.317156148785
 30
0.0
 40
6.5
  1
MMP-080W/SWF・SMF/20A/DL/3
 41
0.6
100
AcDbText
  0
ENDSEC
  0
SECTION
  2
OBJECTS
  0
DICTIONARY
  5
C
330
0
100
AcDbDictionary
281
     1
  3
ACAD_GROUP
350
D
  3
ACAD_IMAGE_VARS
350
2F1759
  3
ACAD_LAYOUT
350
353
  3
ACAD_MLINESTYLE
350
E
  3
ACAD_PLOTSETTINGS
350
354
  3
ACAD_PLOTSTYLENAME
350
351
  3
ACAD_SCALELIST
350
CD53
  3
AcadDim
350
5182D
  3
AcDbVariableDictionary
350
E0D
  3
APPDATA
350
2F1758
  3
DWGPROPS
350
372502
  0
DICTIONARY
  5
361384
330
8
100
AcDbDictionary
280
     1
281
     1
  0
DICTIONARY
  5
559E
330
2
100
AcDbDictionary
280
     1
281
     1
  3
ACAD_LAYERFILTERS
360
29A509
  3
ACAD_LAYERSTATES
360
559F
  3
ACLYDICTIONARY
360
29A508
  0
DICTIONARY
  5
CD7F
330
F
100
AcDbDictionary
280
     1
281
     1
  3
ADSK_XREC_LAYER_RECONCILED
360
CD80
  0
DICTIONARY
  5
CD89
330
2A3
100
AcDbDictionary
280
     1
281
     1
  3
ADSK_XREC_LAYER_RECONCILED
360
CD8A
  0
DICTIONARY
  5
CD8D
330
2F4
100
AcDbDictionary
280
     1
281
     1
  3
ADSK_XREC_LAYER_RECONCILED
360
CD8E
  0
DICTIONARY
  5
D25F
330
18
100
AcDbDictionary
280
     1
281
     1
  3
ACAD_SORTENTS
360
D260
  0
DICTIONARY
  5
D
102
{ACAD_REACTORS
330
C
102
}
330
C
100
AcDbDictionary
281
     1
  0
RASTERVARIABLES
  5
2F1759
102
{ACAD_REACTORS
330
C
102
}
330
C
100
AcDbRasterVariables
 90
        0
 70
     1
 71
     1
 72
     0
  0
DICTIONARY
  5
353
102
{ACAD_REACTORS
330
C
102
}
330
C
100
AcDbDictionary
281
     1
  3
Model
350
355
  3
ﾚｲｱｳﾄ1
350
356
  0
DICTIONARY
  5
E
102
{ACAD_REACTORS
330
C
102
}
330
C
100
AcDbDictionary
281
     1
  3
STANDARD
350
1B
  0
DICTIONARY
  5
354
102
{ACAD_REACTORS
330
C
102
}
330
C
100
AcDbDictionary
281
     1
  0
ACDBDICTIONARYWDFLT
  5
351
102
{ACAD_REACTORS
330
C
102
}
330
C
100
AcDbDictionary
281
     1
  3
Normal
350
352
100
AcDbDictionaryWithDefault
340
352
  0
DICTIONARY
  5
CD53
102
{ACAD_REACTORS
330
C
102
}
330
C
100
AcDbDictionary
281
     1
  3
A0
350
CD54
  3
A1
350
35DF8
  3
A2
350
35DF9
  3
A3
350
35DFA
  3
A4
350
35DFB
  3
A5
350
35DFC
  3
A6
350
35DFD
  3
A7
350
35DFE
  3
A8
350
35DFF
  3
A9
350
35E00
  3
B0
350
35E01
  3
B1
350
35E02
  3
B2
350
35E03
  3
B3
350
35E04
  3
B4
350
35E05
  3
B5
350
35E06
  3
B6
350
35E07
  3
B7
350
35E08
  3
B8
350
35E09
  3
B9
350
35E0A
  3
C0
350
35E0B
  3
C1
350
35E0C
  3
C2
350
35E0D
  3
C3
350
35E0E
  3
C4
350
35E0F
  3
C5
350
35E10
  3
C6
350
35E11
  3
C7
350
35E12
  3
C8
350
35E13
  3
C9
350
35E14
  3
D0
350
35E15
  3
D1
350
35E16
  3
D2
350
35E17
  0
XRECORD
  5
5182D
102
{ACAD_REACTORS
330
C
102
}
330
C
100
AcDbXrecord
280
     1
 90
   990106
  3
OPEN30
 60
     0
 61
     0
 62
     4
 63
     4
 64
     1
 65
     0
 66
     0
 67
     3
 68
     1
 69
     0
 70
     0
 71
     0
 72
     0
 40
0.0
170
     0
340
0
  0
DICTIONARY
  5
E0D
102
{ACAD_REACTORS
330
C
102
}
330
C
100
AcDbDictionary
281
     1
  3
DIMASSOC
350
E0E
  3
INDEXCTL
350
D04A
  3
PROJECTNAME
350
E0F
  3
SORTENTS
350
D049
  0
DICTIONARY
  5
2F1758
102
{ACAD_REACTORS
330
C
102
}
330
C
100
AcDbDictionary
281
     1
  0
XRECORD
  5
372502
102
{ACAD_REACTORS
330
C
102
}
330
C
100
AcDbXrecord
280
     1
  1
DWGPROPS COOKIE
  2

  3

  4

  6

  7

  8
SPAX
  9

300
=
301
=
302
=
303
=
304
=
305
=
306
=
307
=
308
=
309
=
 40
0.0
 41
2448636.244629618
 42
2457347.473222083
  1

 90
        0
  0
DICTIONARY
  5
29A509
102
{ACAD_REACTORS
330
559E
102
}
330
559E
100
AcDbDictionary
281
     1
  0
DICTIONARY
  5
559F
102
{ACAD_REACTORS
330
559E
102
}
330
559E
100
AcDbDictionary
281
     1
  0
DICTIONARY
  5
29A508
102
{ACAD_REACTORS
330
559E
102
}
330
559E
100
AcDbDictionary
281
     1
1001
ACAD
1000
<All
  0
XRECORD
  5
CD80
102
{ACAD_REACTORS
330
CD7F
102
}
330
CD7F
100
AcDbXrecord
280
     1
290
     1
  0
XRECORD
  5
CD8A
102
{ACAD_REACTORS
330
CD89
102
}
330
CD89
100
AcDbXrecord
280
     1
290
     1
  0
XRECORD
  5
CD8E
102
{ACAD_REACTORS
330
CD8D
102
}
330
CD8D
100
AcDbXrecord
280
     1
290
     1
  0
SORTENTSTABLE
  5
D260
102
{ACAD_REACTORS
330
D25F
102
}
330
D25F
100
AcDbSortentsTable
330
18
331
8182F
  5
2FEC53
331
3073B9
  5
307455
331
35417E
  5
35417E
  0
LAYOUT
  5
355
102
{ACAD_REACTORS
330
353
102
}
330
353
100
AcDbPlotSettings
  1

  2
JUST PDF 3
  4
A4
  6

 40
3.174999952316283
 41
3.174999952316283
 42
3.175003051757812
 43
3.17498779296875
 44
209.8886566162109
 45
297.0530090332031
 46
14.27171755861491
 47
9.855173074625778
 48
12474.9839198409
 49
-6785.954658329919
140
12824.97435683072
141
-6243.969308052585
142
1.0
143
2.0
 70
  3748
 72
     1
 73
     0
 74
     4
  7
spax form.ctb
 75
    16
147
1.0
148
-12474.9839198409
149
6785.954658329919
100
AcDbLayout
  1
Model
 70
     1
 71
     0
 10
0.0
 20
0.0
 11
12.0
 21
9.0
 12
0.0
 22
0.0
 32
0.0
 14
12480.24430420848
 24
-6376.317156148785
 34
0.0
 15
12577.22430420848
 25
-6294.831468691673
 35
0.0
146
0.0
 13
0.0
 23
0.0
 33
0.0
 16
1.0
 26
0.0
 36
0.0
 17
0.0
 27
1.0
 37
0.0
 76
     0
330
18
331
3572AF
1001
ACAD_PSEXT
1000
JUST PDF 3
1000
JUST PDF 3
1000
JUST PDF 3 Port:
1000

1070
     0
  0
LAYOUT
  5
356
102
{ACAD_REACTORS
330
353
102
}
330
353
100
AcDbPlotSettings
  1

  2
Canon LASER SHOT LBP-750
  4

  6

 40
0.0
 41
0.0
 42
0.0
 43
0.0
 44
0.0
 45
0.0
 46
0.0
 47
0.0
 48
0.0
 49
0.0
140
0.0
141
0.0
142
1.0
143
1.0
 70
   688
 72
     0
 73
     0
 74
     5
  7
spax form.ctb
 75
    16
147
1.0
148
0.0
149
0.0
100
AcDbLayout
  1
ﾚｲｱｳﾄ1
 70
     0
 71
     1
 10
0.0
 20
0.0
 11
12.0
 21
9.0
 12
0.0
 22
0.0
 32
0.0
 14
1.000000000000000E+20
 24
1.000000000000000E+20
 34
1.000000000000000E+20
 15
-1.000000000000000E+20
 25
-1.000000000000000E+20
 35
-1.000000000000000E+20
146
0.0
 13
0.0
 23
0.0
 33
0.0
 16
1.0
 26
0.0
 36
0.0
 17
0.0
 27
1.0
 37
0.0
 76
     0
330
15
  0
MLINESTYLE
  5
1B
102
{ACAD_REACTORS
330
E
102
}
330
E
100
AcDbMlineStyle
  2
STANDARD
 70
     0
  3

 62
     0
 51
90.0
 52
90.0
 71
     2
 49
0.5
 62
   256
  6
BYLAYER
 49
-0.5
 62
   256
  6
BYLAYER
  0
ACDBPLACEHOLDER
  5
352
102
{ACAD_REACTORS
330
351
102
}
330
351
  0
SCALE
  5
CD54
102
{ACAD_REACTORS
330
CD53
102
}
330
CD53
100
AcDbScale
 70
     0
300
1:1
140
1.0
141
1.0
290
     1
1001
ACAD
1000
AcRTDxfName
1000
SCALE
1000
AcRTDxfName
1000
SCALE
  0
SCALE
  5
35DF8
102
{ACAD_REACTORS
330
CD53
102
}
330
CD53
100
AcDbScale
 70
     0
300
1:2
140
1.0
141
2.0
290
     0
1001
ACAD
1000
AcRTDxfName
1000
SCALE
1000
AcRTDxfName
1000
SCALE
  0
SCALE
  5
35DF9
102
{ACAD_REACTORS
330
CD53
102
}
330
CD53
100
AcDbScale
 70
     0
300
1:4
140
1.0
141
4.0
290
     0
1001
ACAD
1000
AcRTDxfName
1000
SCALE
1000
AcRTDxfName
1000
SCALE
  0
SCALE
  5
35DFA
102
{ACAD_REACTORS
330
CD53
102
}
330
CD53
100
AcDbScale
 70
     0
300
1:5
140
1.0
141
5.0
290
     0
1001
ACAD
1000
AcRTDxfName
1000
SCALE
1000
AcRTDxfName
1000
SCALE
  0
SCALE
  5
35DFB
102
{ACAD_REACTORS
330
CD53
102
}
330
CD53
100
AcDbScale
 70
     0
300
1:8
140
1.0
141
8.0
290
     0
1001
ACAD
1000
AcRTDxfName
1000
SCALE
1000
AcRTDxfName
1000
SCALE
  0
SCALE
  5
35DFC
102
{ACAD_REACTORS
330
CD53
102
}
330
CD53
100
AcDbScale
 70
     0
300
1:10
140
1.0
141
10.0
290
     0
1001
ACAD
1000
AcRTDxfName
1000
SCALE
1000
AcRTDxfName
1000
SCALE
  0
SCALE
  5
35DFD
102
{ACAD_REACTORS
330
CD53
102
}
330
CD53
100
AcDbScale
 70
     0
300
1:16
140
1.0
141
16.0
290
     0
1001
ACAD
1000
AcRTDxfName
1000
SCALE
1000
AcRTDxfName
1000
SCALE
  0
SCALE
  5
35DFE
102
{ACAD_REACTORS
330
CD53
102
}
330
CD53
100
AcDbScale
 70
     0
300
1:20
140
1.0
141
20.0
290
     0
1001
ACAD
1000
AcRTDxfName
1000
SCALE
1000
AcRTDxfName
1000
SCALE
  0
SCALE
  5
35DFF
102
{ACAD_REACTORS
330
CD53
102
}
330
CD53
100
AcDbScale
 70
     0
300
1:30
140
1.0
141
30.0
290
     0
1001
ACAD
1000
AcRTDxfName
1000
SCALE
1000
AcRTDxfName
1000
SCALE
  0
SCALE
  5
35E00
102
{ACAD_REACTORS
330
CD53
102
}
330
CD53
100
AcDbScale
 70
     0
300
1:40
140
1.0
141
40.0
290
     0
1001
ACAD
1000
AcRTDxfName
1000
SCALE
1000
AcRTDxfName
1000
SCALE
  0
SCALE
  5
35E01
102
{ACAD_REACTORS
330
CD53
102
}
330
CD53
100
AcDbScale
 70
     0
300
1:50
140
1.0
141
50.0
290
     0
1001
ACAD
1000
AcRTDxfName
1000
SCALE
1000
AcRTDxfName
1000
SCALE
  0
SCALE
  5
35E02
102
{ACAD_REACTORS
330
CD53
102
}
330
CD53
100
AcDbScale
 70
     0
300
1:100
140
1.0
141
100.0
290
     0
1001
ACAD
1000
AcRTDxfName
1000
SCALE
1000
AcRTDxfName
1000
SCALE
  0
SCALE
  5
35E03
102
{ACAD_REACTORS
330
CD53
102
}
330
CD53
100
AcDbScale
 70
     0
300
2:1
140
2.0
141
1.0
290
     0
1001
ACAD
1000
AcRTDxfName
1000
SCALE
1000
AcRTDxfName
1000
SCALE
  0
SCALE
  5
35E04
102
{ACAD_REACTORS
330
CD53
102
}
330
CD53
100
AcDbScale
 70
     0
300
4:1
140
4.0
141
1.0
290
     0
1001
ACAD
1000
AcRTDxfName
1000
SCALE
1000
AcRTDxfName
1000
SCALE
  0
SCALE
  5
35E05
102
{ACAD_REACTORS
330
CD53
102
}
330
CD53
100
AcDbScale
 70
     0
300
8:1
140
8.0
141
1.0
290
     0
1001
ACAD
1000
AcRTDxfName
1000
SCALE
1000
AcRTDxfName
1000
SCALE
  0
SCALE
  5
35E06
102
{ACAD_REACTORS
330
CD53
102
}
330
CD53
100
AcDbScale
 70
     0
300
10:1
140
10.0
141
1.0
290
     0
1001
ACAD
1000
AcRTDxfName
1000
SCALE
1000
AcRTDxfName
1000
SCALE
  0
SCALE
  5
35E07
102
{ACAD_REACTORS
330
CD53
102
}
330
CD53
100
AcDbScale
 70
     0
300
100:1
140
100.0
141
1.0
290
     0
1001
ACAD
1000
AcRTDxfName
1000
SCALE
1000
AcRTDxfName
1000
SCALE
  0
SCALE
  5
35E08
102
{ACAD_REACTORS
330
CD53
102
}
330
CD53
100
AcDbScale
 70
     0
300
1/128" = 1'-0"
140
0.0078125
141
12.0
290
     0
1001
ACAD
1000
AcRTDxfName
1000
SCALE
1000
AcRTDxfName
1000
SCALE
  0
SCALE
  5
35E09
102
{ACAD_REACTORS
330
CD53
102
}
330
CD53
100
AcDbScale
 70
     0
300
1/64" = 1'-0"
140
0.015625
141
12.0
290
     0
1001
ACAD
1000
AcRTDxfName
1000
SCALE
1000
AcRTDxfName
1000
SCALE
  0
SCALE
  5
35E0A
102
{ACAD_REACTORS
330
CD53
102
}
330
CD53
100
AcDbScale
 70
     0
300
1/32" = 1'-0"
140
0.03125
141
12.0
290
     0
1001
ACAD
1000
AcRTDxfName
1000
SCALE
1000
AcRTDxfName
1000
SCALE
  0
SCALE
  5
35E0B
102
{ACAD_REACTORS
330
CD53
102
}
330
CD53
100
AcDbScale
 70
     0
300
1/16" = 1'-0"
140
0.0625
141
12.0
290
     0
1001
ACAD
1000
AcRTDxfName
1000
SCALE
1000
AcRTDxfName
1000
SCALE
  0
SCALE
  5
35E0C
102
{ACAD_REACTORS
330
CD53
102
}
330
CD53
100
AcDbScale
 70
     0
300
3/32" = 1'-0"
140
0.09375
141
12.0
290
     0
1001
ACAD
1000
AcRTDxfName
1000
SCALE
1000
AcRTDxfName
1000
SCALE
  0
SCALE
  5
35E0D
102
{ACAD_REACTORS
330
CD53
102
}
330
CD53
100
AcDbScale
 70
     0
300
1/8" = 1'-0"
140
0.125
141
12.0
290
     0
1001
ACAD
1000
AcRTDxfName
1000
SCALE
1000
AcRTDxfName
1000
SCALE
  0
SCALE
  5
35E0E
102
{ACAD_REACTORS
330
CD53
102
}
330
CD53
100
AcDbScale
 70
     0
300
3/16" = 1'-0"
140
0.1875
141
12.0
290
     0
1001
ACAD
1000
AcRTDxfName
1000
SCALE
1000
AcRTDxfName
1000
SCALE
  0
SCALE
  5
35E0F
102
{ACAD_REACTORS
330
CD53
102
}
330
CD53
100
AcDbScale
 70
     0
300
1/4" = 1'-0"
140
0.25
141
12.0
290
     0
1001
ACAD
1000
AcRTDxfName
1000
SCALE
1000
AcRTDxfName
1000
SCALE
  0
SCALE
  5
35E10
102
{ACAD_REACTORS
330
CD53
102
}
330
CD53
100
AcDbScale
 70
     0
300
3/8" = 1'-0"
140
0.375
141
12.0
290
     0
1001
ACAD
1000
AcRTDxfName
1000
SCALE
1000
AcRTDxfName
1000
SCALE
  0
SCALE
  5
35E11
102
{ACAD_REACTORS
330
CD53
102
}
330
CD53
100
AcDbScale
 70
     0
300
1/2" = 1'-0"
140
0.5
141
12.0
290
     0
1001
ACAD
1000
AcRTDxfName
1000
SCALE
1000
AcRTDxfName
1000
SCALE
  0
SCALE
  5
35E12
102
{ACAD_REACTORS
330
CD53
102
}
330
CD53
100
AcDbScale
 70
     0
300
3/4" = 1'-0"
140
0.75
141
12.0
290
     0
1001
ACAD
1000
AcRTDxfName
1000
SCALE
1000
AcRTDxfName
1000
SCALE
  0
SCALE
  5
35E13
102
{ACAD_REACTORS
330
CD53
102
}
330
CD53
100
AcDbScale
 70
     0
300
1" = 1'-0"
140
1.0
141
12.0
290
     0
1001
ACAD
1000
AcRTDxfName
1000
SCALE
1000
AcRTDxfName
1000
SCALE
  0
SCALE
  5
35E14
102
{ACAD_REACTORS
330
CD53
102
}
330
CD53
100
AcDbScale
 70
     0
300
1-1/2" = 1'-0"
140
1.5
141
12.0
290
     0
1001
ACAD
1000
AcRTDxfName
1000
SCALE
1000
AcRTDxfName
1000
SCALE
  0
SCALE
  5
35E15
102
{ACAD_REACTORS
330
CD53
102
}
330
CD53
100
AcDbScale
 70
     0
300
3" = 1'-0"
140
3.0
141
12.0
290
     0
1001
ACAD
1000
AcRTDxfName
1000
SCALE
1000
AcRTDxfName
1000
SCALE
  0
SCALE
  5
35E16
102
{ACAD_REACTORS
330
CD53
102
}
330
CD53
100
AcDbScale
 70
     0
300
6" = 1'-0"
140
6.0
141
12.0
290
     0
1001
ACAD
1000
AcRTDxfName
1000
SCALE
1000
AcRTDxfName
1000
SCALE
  0
SCALE
  5
35E17
102
{ACAD_REACTORS
330
CD53
102
}
330
CD53
100
AcDbScale
 70
     0
300
1'-0" = 1'-0"
140
12.0
141
12.0
290
     0
1001
ACAD
1000
AcRTDxfName
1000
SCALE
1000
AcRTDxfName
1000
SCALE
  0
DICTIONARYVAR
  5
E0E
102
{ACAD_REACTORS
330
E0D
102
}
330
E0D
100
DictionaryVariables
280
     0
  1
1
  0
DICTIONARYVAR
  5
D04A
102
{ACAD_REACTORS
330
E0D
102
}
330
E0D
100
DictionaryVariables
280
     0
  1
0
  0
DICTIONARYVAR
  5
E0F
102
{ACAD_REACTORS
330
E0D
102
}
330
E0D
100
DictionaryVariables
280
     0
  1

  0
DICTIONARYVAR
  5
D049
102
{ACAD_REACTORS
330
E0D
102
}
330
E0D
100
DictionaryVariables
280
     0
  1
127
  0
ENDSEC
  0
EOF
