  0
SECTION
  2
HEADER
  9
$ACADVER
  1
AC1015
  9
$ACADMAINTVER
 70
    20
  9
$DWGCODEPAGE
  3
ANSI_932
  9
$INSBASE
 10
0.0
 20
0.0
 30
0.0
  9
$EXTMIN
 10
9120.611124056678
 20
-4485.36278909818
 30
-0.0000000000000251
  9
$EXTMAX
 10
9236.136787627556
 20
-4394.149246689432
 30
0.0000000000000359
  9
$LIMMIN
 10
0.0
 20
0.0
  9
$LIMMAX
 10
420.0
 20
297.0
  9
$ORTHOMODE
 70
     1
  9
$REGENMODE
 70
     1
  9
$FILLMODE
 70
     1
  9
$QTEXTMODE
 70
     0
  9
$MIRRTEXT
 70
     1
  9
$LTSCALE
 40
5.0
  9
$ATTMODE
 70
     0
  9
$TEXTSIZE
 40
53.44730959687513
  9
$TRACEWID
 40
1.0
  9
$TEXTSTYLE
  7
STANDARD
  9
$CLAYER
  8
寸法線
  9
$CELTYPE
  6
BYLAYER
  9
$CECOLOR
 62
   256
  9
$CELTSCALE
 40
1.0
  9
$DISPSILH
 70
     0
  9
$DIMSCALE
 40
1.0
  9
$DIMASZ
 40
2.5
  9
$DIMEXO
 40
1.5
  9
$DIMDLI
 40
0.38
  9
$DIMRND
 40
0.0
  9
$DIMDLE
 40
0.0
  9
$DIMEXE
 40
1.0
  9
$DIMTP
 40
0.0
  9
$DIMTM
 40
0.0
  9
$DIMTXT
 40
2.500000000000003
  9
$DIMCEN
 40
0.0
  9
$DIMTSZ
 40
0.0
  9
$DIMTOL
 70
     0
  9
$DIMLIM
 70
     0
  9
$DIMTIH
 70
     0
  9
$DIMTOH
 70
     0
  9
$DIMSE1
 70
     0
  9
$DIMSE2
 70
     0
  9
$DIMTAD
 70
     3
  9
$DIMZIN
 70
     8
  9
$DIMBLK
  1

  9
$DIMASO
 70
     1
  9
$DIMSHO
 70
     0
  9
$DIMPOST
  1

  9
$DIMAPOST
  1

  9
$DIMALT
 70
     0
  9
$DIMALTD
 70
     0
  9
$DIMALTF
 40
25.4
  9
$DIMLFAC
 40
1.0
  9
$DIMTOFL
 70
     1
  9
$DIMTVP
 40
0.0
  9
$DIMTIX
 70
     0
  9
$DIMSOXD
 70
     0
  9
$DIMSAH
 70
     1
  9
$DIMBLK1
  1
OPEN
  9
$DIMBLK2
  1
OPEN
  9
$DIMSTYLE
  2
STANDARD
  9
$DIMCLRD
 70
     8
  9
$DIMCLRE
 70
     8
  9
$DIMCLRT
 70
   256
  9
$DIMTFAC
 40
1.0
  9
$DIMGAP
 40
1.0
  9
$DIMJUST
 70
     0
  9
$DIMSD1
 70
     0
  9
$DIMSD2
 70
     0
  9
$DIMTOLJ
 70
     1
  9
$DIMTZIN
 70
     0
  9
$DIMALTZ
 70
     0
  9
$DIMALTTZ
 70
     0
  9
$DIMUPT
 70
     0
  9
$DIMDEC
 70
     2
  9
$DIMTDEC
 70
     2
  9
$DIMALTU
 70
     2
  9
$DIMALTTD
 70
     0
  9
$DIMTXSTY
  7
STANDARD
  9
$DIMAUNIT
 70
     0
  9
$DIMADEC
 70
     2
  9
$DIMALTRND
 40
0.0
  9
$DIMAZIN
 70
     2
  9
$DIMDSEP
 70
    46
  9
$DIMATFIT
 70
     1
  9
$DIMFRAC
 70
     0
  9
$DIMLDRBLK
  1
OPEN
  9
$DIMLUNIT
 70
     2
  9
$DIMLWD
 70
    -2
  9
$DIMLWE
 70
    -2
  9
$DIMTMOVE
 70
     0
  9
$LUNITS
 70
     2
  9
$LUPREC
 70
     2
  9
$SKETCHINC
 40
0.1
  9
$FILLETRAD
 40
15.5
  9
$AUNITS
 70
     0
  9
$AUPREC
 70
     1
  9
$MENU
  1
FM
  9
$ELEVATION
 40
0.0
  9
$PELEVATION
 40
0.0
  9
$THICKNESS
 40
0.0
  9
$LIMCHECK
 70
     0
  9
$CHAMFERA
 40
0.0
  9
$CHAMFERB
 40
0.0
  9
$CHAMFERC
 40
0.0
  9
$CHAMFERD
 40
0.0
  9
$SKPOLY
 70
     0
  9
$TDCREATE
 40
2448636.619629630
  9
$TDUCREATE
 40
2448636.244629629
  9
$TDUPDATE
 40
2457337.804738102
  9
$TDUUPDATE
 40
2457337.429738102
  9
$TDINDWG
 40
48.8110440856
  9
$TDUSRTIMER
 40
2456821.212116354
  9
$USRTIMER
 70
     1
  9
$ANGBASE
 50
0.0
  9
$ANGDIR
 70
     0
  9
$PDMODE
 70
     3
  9
$PDSIZE
 40
0.0
  9
$PLINEWID
 40
0.0
  9
$SPLFRAME
 70
     0
  9
$SPLINETYPE
 70
     6
  9
$SPLINESEGS
 70
     8
  9
$HANDSEED
  5
130896
  9
$SURFTAB1
 70
     6
  9
$SURFTAB2
 70
     6
  9
$SURFTYPE
 70
     6
  9
$SURFU
 70
     6
  9
$SURFV
 70
     6
  9
$UCSBASE
  2

  9
$UCSNAME
  2

  9
$UCSORG
 10
0.0
 20
0.0
 30
0.0
  9
$UCSXDIR
 10
1.0
 20
0.0
 30
0.0
  9
$UCSYDIR
 10
0.0
 20
1.0
 30
0.0
  9
$UCSORTHOREF
  2

  9
$UCSORTHOVIEW
 70
     0
  9
$UCSORGTOP
 10
0.0
 20
0.0
 30
0.0
  9
$UCSORGBOTTOM
 10
0.0
 20
0.0
 30
0.0
  9
$UCSORGLEFT
 10
0.0
 20
0.0
 30
0.0
  9
$UCSORGRIGHT
 10
0.0
 20
0.0
 30
0.0
  9
$UCSORGFRONT
 10
0.0
 20
0.0
 30
0.0
  9
$UCSORGBACK
 10
0.0
 20
0.0
 30
0.0
  9
$PUCSBASE
  2

  9
$PUCSNAME
  2

  9
$PUCSORG
 10
0.0
 20
0.0
 30
0.0
  9
$PUCSXDIR
 10
1.0
 20
0.0
 30
0.0
  9
$PUCSYDIR
 10
0.0
 20
1.0
 30
0.0
  9
$PUCSORTHOREF
  2

  9
$PUCSORTHOVIEW
 70
     0
  9
$PUCSORGTOP
 10
0.0
 20
0.0
 30
0.0
  9
$PUCSORGBOTTOM
 10
0.0
 20
0.0
 30
0.0
  9
$PUCSORGLEFT
 10
0.0
 20
0.0
 30
0.0
  9
$PUCSORGRIGHT
 10
0.0
 20
0.0
 30
0.0
  9
$PUCSORGFRONT
 10
0.0
 20
0.0
 30
0.0
  9
$PUCSORGBACK
 10
0.0
 20
0.0
 30
0.0
  9
$USERI1
 70
     0
  9
$USERI2
 70
     0
  9
$USERI3
 70
     0
  9
$USERI4
 70
     0
  9
$USERI5
 70
     0
  9
$USERR1
 40
0.0
  9
$USERR2
 40
0.0
  9
$USERR3
 40
0.0
  9
$USERR4
 40
0.0
  9
$USERR5
 40
0.0
  9
$WORLDVIEW
 70
     0
  9
$SHADEDGE
 70
     3
  9
$SHADEDIF
 70
    70
  9
$TILEMODE
 70
     1
  9
$MAXACTVP
 70
    16
  9
$PINSBASE
 10
0.0
 20
0.0
 30
0.0
  9
$PLIMCHECK
 70
     0
  9
$PEXTMIN
 10
1.000000000000000E+20
 20
1.000000000000000E+20
 30
1.000000000000000E+20
  9
$PEXTMAX
 10
-1.000000000000000E+20
 20
-1.000000000000000E+20
 30
-1.000000000000000E+20
  9
$PLIMMIN
 10
0.0
 20
0.0
  9
$PLIMMAX
 10
0.0
 20
0.0
  9
$UNITMODE
 70
     0
  9
$VISRETAIN
 70
     0
  9
$PLINEGEN
 70
     0
  9
$PSLTSCALE
 70
     0
  9
$TREEDEPTH
 70
  3020
  9
$CMLSTYLE
  2
STANDARD
  9
$CMLJUST
 70
     0
  9
$CMLSCALE
 40
1.0
  9
$PROXYGRAPHICS
 70
     1
  9
$MEASUREMENT
 70
     0
  9
$CELWEIGHT
370
    -1
  9
$ENDCAPS
280
     0
  9
$JOINSTYLE
280
     0
  9
$LWDISPLAY
290
     0
  9
$INSUNITS
 70
     0
  9
$HYPERLINKBASE
  1

  9
$STYLESHEET
  1
SPAX FORM.CTB
  9
$XEDIT
290
     1
  9
$CEPSNTYPE
380
     0
  9
$PSTYLEMODE
290
     1
  9
$FINGERPRINTGUID
  2
{BBAEEBA6-8B94-11D3-9160-00E0294F7E09}
  9
$VERSIONGUID
  2
{296A47CF-67DB-40DA-A7ED-5777D096B3B4}
  9
$EXTNAMES
290
     1
  9
$PSVPSCALE
 40
0.0
  9
$OLESTARTUP
290
     0
  0
ENDSEC
  0
SECTION
  2
CLASSES
  0
CLASS
  1
ACDBDICTIONARYWDFLT
  2
AcDbDictionaryWithDefault
  3
ObjectDBX Classes
 90
        0
280
     0
281
     0
  0
CLASS
  1
ACDBPLACEHOLDER
  2
AcDbPlaceHolder
  3
ObjectDBX Classes
 90
        0
280
     0
281
     0
  0
CLASS
  1
LAYOUT
  2
AcDbLayout
  3
ObjectDBX Classes
 90
        0
280
     0
281
     0
  0
CLASS
  1
DICTIONARYVAR
  2
AcDbDictionaryVar
  3
ObjectDBX Classes
 90
        0
280
     0
281
     0
  0
CLASS
  1
MATERIAL
  2
AcDbMaterial
  3
ObjectDBX Classes
 90
     1153
280
     0
281
     0
  0
CLASS
  1
VISUALSTYLE
  2
AcDbVisualStyle
  3
ObjectDBX Classes
 90
     4095
280
     0
281
     0
  0
CLASS
  1
TABLESTYLE
  2
AcDbTableStyle
  3
ObjectDBX Classes
 90
     4095
280
     0
281
     0
  0
CLASS
  1
SCALE
  2
AcDbScale
  3
ObjectDBX Classes
 90
     1153
280
     0
281
     0
  0
CLASS
  1
MLEADERSTYLE
  2
AcDbMLeaderStyle
  3
ACDB_MLEADERSTYLE_CLASS
 90
     4095
280
     0
281
     0
  0
CLASS
  1
CELLSTYLEMAP
  2
AcDbCellStyleMap
  3
ObjectDBX Classes
 90
     1152
280
     0
281
     0
  0
CLASS
  1
SORTENTSTABLE
  2
AcDbSortentsTable
  3
ObjectDBX Classes
 90
        0
280
     0
281
     0
  0
CLASS
  1
MULTILEADER
  2
AcDbMLeader
  3
ACDB_MLEADER_CLASS
 90
    33793
280
     0
281
     1
  0
CLASS
  1
DIMASSOC
  2
AcDbDimAssoc
  3
"AcDbDimAssoc|Product Desc:     AcDim ARX App For Dimension|Company:          Autodesk, Inc.|WEB Address:      www.autodesk.com"
 90
    32768
280
     0
281
     0
  0
CLASS
  1
RASTERVARIABLES
  2
AcDbRasterVariables
  3
ISM
 90
        0
280
     0
281
     0
  0
CLASS
  1
SUN
  2
AcDbSun
  3
SCENEOE
 90
    33921
280
     0
281
     0
  0
ENDSEC
  0
SECTION
  2
TABLES
  0
TABLE
  2
VPORT
  5
8
330
0
100
AcDbSymbolTable
 70
     1
  0
VPORT
  5
12C01A
330
8
100
AcDbSymbolTableRecord
100
AcDbViewportTableRecord
  2
*Active
 70
     0
 10
0.0
 20
0.0
 11
1.0
 21
1.0
 12
9178.373955842117
 22
-4439.756017893806
 13
0.0
 23
0.0
 14
1.0
 24
1.0
 15
20.0
 25
20.0
 16
0.0
 26
0.0
 36
1.0
 17
0.0
 27
0.0
 37
0.0
 40
114.3651320652514
 41
1.020066889632107
 42
50.0
 43
0.0
 44
0.0
 50
0.0
 51
0.0
 71
    16
 72
   100
 73
     1
 74
     0
 75
     0
 76
     0
 77
     0
 78
     0
281
     0
 65
     1
110
0.0
120
0.0
130
0.0
111
1.0
121
0.0
131
0.0
112
0.0
122
1.0
132
0.0
 79
     0
146
0.0
  0
ENDTAB
  0
TABLE
  2
LTYPE
  5
5
330
0
100
AcDbSymbolTable
 70
     4
  0
LTYPE
  5
12
330
5
100
AcDbSymbolTableRecord
100
AcDbLinetypeTableRecord
  2
BYBLOCK
 70
     0
  3

 72
    65
 73
     0
 40
0.0
  0
LTYPE
  5
13
330
5
100
AcDbSymbolTableRecord
100
AcDbLinetypeTableRecord
  2
BYLAYER
 70
     0
  3

 72
    65
 73
     0
 40
0.0
  0
LTYPE
  5
14
330
5
100
AcDbSymbolTableRecord
100
AcDbLinetypeTableRecord
  2
CONTINUOUS
 70
     0
  3
Solid line
 72
    65
 73
     0
 40
0.0
  0
LTYPE
  5
26
330
5
100
AcDbSymbolTableRecord
100
AcDbLinetypeTableRecord
  2
PHANTOM
 70
     0
  3
_____ _ _ _____ _ _ _____ _ _ _____ _ _ ____
 72
    65
 73
     6
 40
2.5
 49
1.25
 74
     0
 49
-0.25
 74
     0
 49
0.25
 74
     0
 49
-0.25
 74
     0
 49
0.25
 74
     0
 49
-0.25
 74
     0
  0
LTYPE
  5
27
330
5
100
AcDbSymbolTableRecord
100
AcDbLinetypeTableRecord
  2
HIDDEN
 70
     0
  3
_ _ _ _ _ _ _ _ _ _ _ _ _ _ _ _ _ _ _ _ _ _ _
 72
    65
 73
     2
 40
0.375
 49
0.25
 74
     0
 49
-0.125
 74
     0
  0
LTYPE
  5
514
330
5
100
AcDbSymbolTableRecord
100
AcDbLinetypeTableRecord
  2
CENTER
 70
     0
  3
Center ____ _ ____ _ ____ _ ____ _ ____ _ ____
 72
    65
 73
     4
 40
2.0
 49
1.25
 74
     0
 49
-0.25
 74
     0
 49
0.25
 74
     0
 49
-0.25
 74
     0
  0
ENDTAB
  0
TABLE
  2
LAYER
  5
2
102
{ACAD_XDICTIONARY
360
8BF
102
}
330
0
100
AcDbSymbolTable
 70
     5
  0
LAYER
  5
F
102
{ACAD_XDICTIONARY
360
A60
102
}
330
2
100
AcDbSymbolTableRecord
100
AcDbLayerTableRecord
  2
0
 70
     0
 62
     7
  6
CONTINUOUS
370
    -3
390
616
  0
LAYER
  5
34
102
{ACAD_XDICTIONARY
360
A66
102
}
330
2
100
AcDbSymbolTableRecord
100
AcDbLayerTableRecord
  2
寸法線
 70
     0
 62
     7
  6
CONTINUOUS
370
    -3
390
616
  0
LAYER
  5
2A3
102
{ACAD_XDICTIONARY
360
A6A
102
}
330
2
100
AcDbSymbolTableRecord
100
AcDbLayerTableRecord
  2
ﾊｯﾁﾝｸﾞ
 70
     0
 62
     8
  6
CONTINUOUS
370
    -3
390
616
  0
LAYER
  5
2F4
102
{ACAD_XDICTIONARY
360
A6E
102
}
330
2
100
AcDbSymbolTableRecord
100
AcDbLayerTableRecord
  2
文字
 70
     0
 62
     7
  6
CONTINUOUS
370
    -3
390
616
  0
LAYER
  5
305
102
{ACAD_XDICTIONARY
360
A72
102
}
330
2
100
AcDbSymbolTableRecord
100
AcDbLayerTableRecord
  2
姿図
 70
     0
 62
     8
  6
CONTINUOUS
370
    -3
390
616
  0
ENDTAB
  0
TABLE
  2
STYLE
  5
3
330
0
100
AcDbSymbolTable
 70
     2
  0
STYLE
  5
10
330
3
100
AcDbSymbolTableRecord
100
AcDbTextStyleTableRecord
  2
STANDARD
 70
     0
 40
0.0
 41
1.0
 50
0.0
 71
     0
 42
53.44730959687513
  3
MONOTXT
  4
BIGFONT
  0
STYLE
  5
5B6F
330
3
100
AcDbSymbolTableRecord
100
AcDbTextStyleTableRecord
  2
EXTFONT
 70
     0
 40
2.5
 41
1.0
 50
0.0
 71
     0
 42
2.5
  3
txt.shx
  4
extfont
  0
ENDTAB
  0
TABLE
  2
VIEW
  5
6
330
0
100
AcDbSymbolTable
 70
     0
  0
ENDTAB
  0
TABLE
  2
UCS
  5
7
330
0
100
AcDbSymbolTable
 70
     0
  0
ENDTAB
  0
TABLE
  2
APPID
  5
9
330
0
100
AcDbSymbolTable
 70
    15
  0
APPID
  5
11
330
9
100
AcDbSymbolTableRecord
100
AcDbRegAppTableRecord
  2
ACAD
 70
     0
  0
APPID
  5
8BB
330
9
100
AcDbSymbolTableRecord
100
AcDbRegAppTableRecord
  2
ACAD_PSEXT
 70
     0
  0
APPID
  5
A5A
330
9
100
AcDbSymbolTableRecord
100
AcDbRegAppTableRecord
  2
ACAD_MLEADERVER
 70
     0
  0
APPID
  5
A5E
330
9
100
AcDbSymbolTableRecord
100
AcDbRegAppTableRecord
  2
ACAD_DSTYLE_DIMJAG
 70
     0
  0
APPID
  5
A5F
330
9
100
AcDbSymbolTableRecord
100
AcDbRegAppTableRecord
  2
ACAD_DSTYLE_DIMTALN
 70
     0
  0
APPID
  5
12C0
330
9
100
AcDbSymbolTableRecord
100
AcDbRegAppTableRecord
  2
ACAD_EXEMPT_FROM_CAD_STANDARDS
 70
     0
  0
APPID
  5
1C50
330
9
100
AcDbSymbolTableRecord
100
AcDbRegAppTableRecord
  2
AcAecLayerStandard
 70
     0
  0
APPID
  5
5088
330
9
100
AcDbSymbolTableRecord
100
AcDbRegAppTableRecord
  2
ACAD_DSTYLE_DIMRADIAL_EXTENSION
 70
     0
  0
APPID
  5
14AF3
330
9
100
AcDbSymbolTableRecord
100
AcDbRegAppTableRecord
  2
WACOM_STRING
 70
     0
  0
APPID
  5
14AF4
330
9
100
AcDbSymbolTableRecord
100
AcDbRegAppTableRecord
  2
WACOM_DRSYM_ARROW
 70
     0
  0
APPID
  5
1E1A8
330
9
100
AcDbSymbolTableRecord
100
AcDbRegAppTableRecord
  2
GENIUS_GENODEF_13
 70
     0
  0
APPID
  5
1E1A9
330
9
100
AcDbSymbolTableRecord
100
AcDbRegAppTableRecord
  2
GENIUS_GENREC_14
 70
     0
  0
APPID
  5
1E1AA
330
9
100
AcDbSymbolTableRecord
100
AcDbRegAppTableRecord
  2
GENIUS_GENOBJ-N-REC_13
 70
     0
  0
APPID
  5
27C72
330
9
100
AcDbSymbolTableRecord
100
AcDbRegAppTableRecord
  2
ASK_MEN_XD
 70
     0
  0
APPID
  5
29316
330
9
100
AcDbSymbolTableRecord
100
AcDbRegAppTableRecord
  2
ACAD_DSTYLE_DIMBREAK
 70
     0
  0
ENDTAB
  0
TABLE
  2
DIMSTYLE
  5
A
330
0
100
AcDbSymbolTable
 70
     1
100
AcDbDimStyleTable
 71
     0
  0
DIMSTYLE
105
1CC
330
A
100
AcDbSymbolTableRecord
100
AcDbDimStyleTableRecord
  2
STANDARD
 70
     0
 41
2.5
 42
1.5
 44
1.0
 73
     0
 74
     0
 77
     3
 78
     8
 79
     2
140
2.500000000000003
141
0.0
147
1.0
171
     0
172
     1
173
     1
176
     8
177
     8
178
   256
179
     2
271
     2
272
     2
274
     0
289
     1
340
10
341
608
343
608
344
608
1001
ACAD_DSTYLE_DIMJAG
1070
   388
1040
1.5
1001
ACAD_DSTYLE_DIMTALN
1070
   392
1070
     0
  0
ENDTAB
  0
TABLE
  2
BLOCK_RECORD
  5
1
330
0
100
AcDbSymbolTable
 70
     3
  0
BLOCK_RECORD
  5
18
102
{ACAD_XDICTIONARY
360
143F
102
}
330
1
100
AcDbSymbolTableRecord
100
AcDbBlockTableRecord
  2
*MODEL_SPACE
340
619
  0
BLOCK_RECORD
  5
15
330
1
100
AcDbSymbolTableRecord
100
AcDbBlockTableRecord
  2
*PAPER_SPACE
340
61A
  0
BLOCK_RECORD
  5
608
330
1
100
AcDbSymbolTableRecord
100
AcDbBlockTableRecord
  2
_OPEN
340
0
  0
BLOCK_RECORD
  5
89D
330
1
100
AcDbSymbolTableRecord
100
AcDbBlockTableRecord
  2
SUN
340
0
  0
BLOCK_RECORD
  5
1F1F
330
1
100
AcDbSymbolTableRecord
100
AcDbBlockTableRecord
  2
_OPEN30
340
0
  0
ENDTAB
  0
ENDSEC
  0
SECTION
  2
BLOCKS
  0
BLOCK
  5
39
330
18
100
AcDbEntity
  8
0
100
AcDbBlockBegin
  2
*MODEL_SPACE
 70
     0
 10
0.0
 20
0.0
 30
0.0
  3
*MODEL_SPACE
  1
*MODEL_SPACE
  0
ENDBLK
  5
3A
330
18
100
AcDbEntity
  8
0
100
AcDbBlockEnd
  0
BLOCK
  5
37
330
15
100
AcDbEntity
 67
     1
  8
0
100
AcDbBlockBegin
  2
*PAPER_SPACE
 70
     0
 10
0.0
 20
0.0
 30
0.0
  3
*PAPER_SPACE
  1
*PAPER_SPACE
  0
ENDBLK
  5
38
330
15
100
AcDbEntity
 67
     1
  8
0
100
AcDbBlockEnd
  0
BLOCK
  5
609
330
608
100
AcDbEntity
  8
0
100
AcDbBlockBegin
  2
_OPEN
 70
     0
 10
0.0
 20
0.0
 30
0.0
  3
_OPEN
  1
_OPEN
  0
LINE
  5
60A
330
608
100
AcDbEntity
  8
0
  6
ByBlock
 62
     0
100
AcDbLine
 10
-1.0
 20
0.1666666666666667
 30
0.0
 11
0.0
 21
0.0
 31
0.0
  0
LINE
  5
60B
330
608
100
AcDbEntity
  8
0
  6
ByBlock
 62
     0
100
AcDbLine
 10
0.0
 20
0.0
 30
0.0
 11
-1.0
 21
-0.1666666666666667
 31
0.0
  0
LINE
  5
60C
330
608
100
AcDbEntity
  8
0
  6
ByBlock
 62
     0
100
AcDbLine
 10
0.0
 20
0.0
 30
0.0
 11
-1.0
 21
0.0
 31
0.0
  0
ENDBLK
  5
60D
330
608
100
AcDbEntity
  8
0
100
AcDbBlockEnd
  0
BLOCK
  5
89E
330
89D
100
AcDbEntity
  8
0
100
AcDbBlockBegin
  2
SUN
 70
     0
 10
0.0
 20
0.0
 30
0.0
  3
SUN
  1
SUN
  0
LINE
  5
89F
330
89D
100
AcDbEntity
  8
0
100
AcDbLine
 10
-0.0000000000000568
 20
0.0
 30
0.0
 11
-1.500000000000056
 21
0.0
 31
0.0
  0
LINE
  5
8A0
330
89D
100
AcDbEntity
  8
0
100
AcDbLine
 10
-0.0000000000000568
 20
0.0000000000000284
 30
0.0
 11
-1.500000000000056
 21
0.401923788646684
 31
0.0
  0
LINE
  5
8A1
330
89D
100
AcDbEntity
  8
0
100
AcDbLine
 10
-0.0000000000000568
 20
0.0000000000000284
 30
0.0
 11
-1.500000000000056
 21
-0.4019237886466557
 31
0.0
  0
ENDBLK
  5
8A2
330
89D
100
AcDbEntity
  8
0
100
AcDbBlockEnd
  0
BLOCK
  5
1F20
330
1F1F
100
AcDbEntity
  8
0
100
AcDbBlockBegin
  2
_OPEN30
 70
     0
 10
0.0
 20
0.0
 30
0.0
  3
_OPEN30
  1
_OPEN30
  0
LINE
  5
1F21
330
1F1F
100
AcDbEntity
  8
0
  6
ByBlock
 62
     0
100
AcDbLine
 10
-1.0
 20
0.26794919
 30
0.0
 11
0.0
 21
0.0
 31
0.0
  0
LINE
  5
1F22
330
1F1F
100
AcDbEntity
  8
0
  6
ByBlock
 62
     0
100
AcDbLine
 10
0.0
 20
0.0
 30
0.0
 11
-1.0
 21
-0.26794919
 31
0.0
  0
LINE
  5
1F23
330
1F1F
100
AcDbEntity
  8
0
  6
ByBlock
 62
     0
100
AcDbLine
 10
0.0
 20
0.0
 30
0.0
 11
-1.0
 21
0.0
 31
0.0
  0
ENDBLK
  5
1F24
330
1F1F
100
AcDbEntity
  8
0
100
AcDbBlockEnd
  0
ENDSEC
  0
SECTION
  2
ENTITIES
  0
MTEXT
  5
D0CC6
330
18
100
AcDbEntity
  8
寸法線
100
AcDbMText
 10
2610.774875364868
 20
-2740.315466585338
 30
0.0
 40
2.500000000000003
 41
0.0
 71
     9
 72
     1
  1
\A1;
 73
     1
 44
1.0
1001
ACAD
1000
MTEXTBEGIN
1070
    73
1070
     1
1070
    44
1040
1.0
1070
    74
1070
     0
1000
MTEXTEND
  0
MTEXT
  5
F6D77
330
18
100
AcDbEntity
  8
文字
100
AcDbMText
 10
5821.057140836062
 20
-2842.341718131324
 30
0.0
 40
2.5
 41
64.39156592258223
 71
     1
 72
     5
  1
   
 73
     1
 44
1.0
1001
ACAD
1000
MTEXTBEGIN
1070
    73
1070
     1
1070
    44
1040
1.0
1070
    74
1070
     0
1000
MTEXTEND
  0
MTEXT
  5
F6D78
330
18
100
AcDbEntity
  8
寸法線
100
AcDbMText
 10
6222.662262480188
 20
-2968.738290481128
 30
0.0
 40
3.000000000000001
 41
0.0
 71
     7
 72
     1
  1
\A1;
 73
     1
 44
1.0
1001
ACAD
1000
MTEXTBEGIN
1070
    73
1070
     1
1070
    44
1040
1.0
1070
    74
1070
     0
1000
MTEXTEND
  0
HATCH
  5
128BAC
330
18
100
AcDbEntity
  8
ﾊｯﾁﾝｸﾞ
100
AcDbHatch
 10
0.0
 20
0.0
 30
0.0
210
0.0
220
0.0
230
1.0
  2
SOLID
 70
     1
 71
     0
 91
        0
 75
     0
 76
     1
 98
        1
 10
9397.486348855242
 20
-4213.427107903014
1001
ACAD
1010
0.0
1020
0.0
1030
0.0
  0
TEXT
  5
12F5A2
330
18
100
AcDbEntity
  8
文字
100
AcDbText
 10
9121.224094639371
 20
-4484.133525222552
 30
0.0
 40
6.5
  1
SX-B1652D/CE/WC,NC
100
AcDbText
  0
SPLINE
  5
1303C6
330
18
100
AcDbEntity
  8
姿図
100
AcDbSpline
210
0.0
220
0.0
230
1.0
 70
     8
 71
     3
 72
     8
 73
     4
 74
     0
 42
0.0000000001
 43
0.0000000001
 40
36.0
 40
36.0
 40
36.0
 40
36.0
 40
37.0
 40
37.0
 40
37.0
 40
37.0
 10
9207.64166875711
 20
-4429.25804050984
 30
0.0
 10
9205.388576309195
 20
-4432.210659596212
 30
0.0
 10
9203.67929218376
 20
-4434.204853118347
 30
0.0
 10
9203.005948271
 20
-4434.74866144083
 30
0.0
  0
SPLINE
  5
1303C7
330
18
100
AcDbEntity
  8
姿図
100
AcDbSpline
210
0.0
220
0.0
230
1.0
 70
     8
 71
     3
 72
    12
 73
     8
 74
     6
 42
0.0000000001
 43
0.0000000001
 44
0.0000000001
 40
0.0
 40
0.0
 40
0.0
 40
0.0
 40
2.344472056216763
 40
3.485069501827238
 40
4.152524498740204
 40
4.565337826232475
 40
5.186795096789611
 40
5.186795096789611
 40
5.186795096789611
 40
5.186795096789611
 10
9202.554035294417
 20
-4430.79406447111
 30
0.0
 10
9202.71523198736
 20
-4431.566362256226
 30
0.0
 10
9202.954851682068
 20
-4432.714386797657
 30
0.0
 10
9202.775808296285
 20
-4434.101688980184
 30
0.0
 10
9202.538352371991
 20
-4434.809812318611
 30
0.0
 10
9202.210762696017
 20
-4435.282291627242
 30
0.0
 10
9201.931871346884
 20
-4435.489240123781
 30
0.0
 10
9201.764295224212
 20
-4435.61358828571
 30
0.0
 11
9202.554035294417
 21
-4430.79406447111
 31
0.0
 11
9202.861182833503
 21
-4433.118329862931
 31
0.0
 11
9202.709498757078
 21
-4434.248796348012
 31
0.0
 11
9202.475831657004
 21
-4434.874012997861
 31
0.0
 11
9202.238216393528
 21
-4435.211583479268
 31
0.0
 11
9201.764295224212
 21
-4435.61358828571
 31
0.0
  0
LINE
  5
1303C8
330
18
100
AcDbEntity
  8
姿図
100
AcDbLine
 10
9204.245416682756
 20
-4431.513389179803
 30
0.0
 11
9202.862131447643
 21
-4432.990826569723
 31
0.0
  0
LINE
  5
1303C9
330
18
100
AcDbEntity
  8
姿図
100
AcDbLine
 10
9204.202863239171
 20
-4430.953807745066
 30
0.0
 11
9202.831468504188
 21
-4432.412628107996
 31
0.0
  0
LINE
  5
1303CA
330
18
100
AcDbEntity
  8
姿図
100
AcDbLine
 10
9204.143759286834
 20
-4430.507959754003
 30
0.0
 11
9202.757652150582
 21
-4431.850209679018
 31
0.0
  0
SPLINE
  5
1303CB
330
18
100
AcDbEntity
  8
姿図
100
AcDbSpline
210
0.0
220
0.0
230
1.0
 70
     8
 71
     3
 72
     8
 73
     4
 74
     0
 42
0.0000000001
 43
0.0000000001
 40
0.0
 40
0.0
 40
0.0
 40
0.0
 40
0.9786274959647334
 40
0.9786274959647334
 40
0.9786274959647334
 40
0.9786274959647334
 10
9198.597948596519
 20
-4437.511628020691
 30
0.0
 10
9197.562234496624
 20
-4431.556271946289
 30
0.0
 10
9197.075541973791
 20
-4428.641650760237
 30
0.0
 10
9195.980636173146
 20
-4427.238561261449
 30
0.0
  0
SPLINE
  5
1303CC
330
18
100
AcDbEntity
  8
姿図
100
AcDbSpline
210
0.0
220
0.0
230
1.0
 70
     8
 71
     3
 72
     8
 73
     4
 74
     0
 42
0.0000000001
 43
0.0000000001
 40
0.0
 40
0.0
 40
0.0
 40
0.0
 40
1.0
 40
1.0
 40
1.0
 40
1.0
 10
9204.048460981832
 20
-4433.692704259913
 30
0.0
 10
9205.22061682665
 20
-4428.653595457029
 30
0.0
 10
9201.059297066572
 20
-4423.844848099901
 30
0.0
 10
9199.413058188531
 20
-4422.080959211013
 30
0.0
  0
SPLINE
  5
1303CD
330
18
100
AcDbEntity
  8
姿図
100
AcDbSpline
210
0.0
220
0.0
230
1.0
 70
     8
 71
     3
 72
     8
 73
     4
 74
     0
 42
0.0000000001
 43
0.0000000001
 40
0.0
 40
0.0
 40
0.0
 40
0.0
 40
1.0
 40
1.0
 40
1.0
 40
1.0
 10
9197.60576109652
 20
-4424.767530798469
 30
0.0
 10
9199.546038874299
 20
-4426.384314110101
 30
0.0
 10
9201.449626385146
 20
-4430.419382198208
 30
0.0
 10
9201.36931748455
 20
-4431.989176425222
 30
0.0
  0
SPLINE
  5
1303CE
330
18
100
AcDbEntity
  8
姿図
100
AcDbSpline
210
0.0
220
0.0
230
1.0
 70
     8
 71
     3
 72
     8
 73
     4
 74
     0
 42
0.0000000001
 43
0.0000000001
 40
4.0
 40
4.0
 40
4.0
 40
4.0
 40
5.0
 40
5.0
 40
5.0
 40
5.0
 10
9169.650103137536
 20
-4435.722245425205
 30
0.0
 10
9169.203791017309
 20
-4434.476154387879
 30
0.0
 10
9168.220044001254
 20
-4431.823603118348
 30
0.0
 10
9169.397060874082
 20
-4429.648714337965
 30
0.0
  0
LINE
  5
1303CF
330
18
100
AcDbEntity
  8
姿図
100
AcDbLine
 10
9190.115779000169
 20
-4433.195612395692
 30
0.0
 11
9188.038644804205
 21
-4431.74608846991
 31
0.0
  0
LINE
  5
1303D0
330
18
100
AcDbEntity
  8
姿図
100
AcDbLine
 10
9192.688920818742
 20
-4444.478989131801
 30
0.0
 11
9192.512531929853
 21
-4428.736280798469
 31
0.0
  0
LINE
  5
1303D1
330
18
100
AcDbEntity
  8
姿図
100
AcDbLine
 10
9194.40871248541
 20
-4428.956766909579
 30
0.0
 11
9194.761490263188
 21
-4442.009544687357
 31
0.0
  0
LINE
  5
1303D2
330
18
100
AcDbEntity
  8
姿図
100
AcDbLine
 10
9184.942451363447
 20
-4428.052773854024
 30
0.0
 11
9184.841854575253
 21
-4436.599194481195
 31
0.0
  0
LINE
  5
1303D3
330
18
100
AcDbEntity
  8
姿図
100
AcDbLine
 10
9188.029343046389
 20
-4427.641257198209
 30
0.0
 11
9188.195310521434
 21
-4436.959551469041
 31
0.0
  0
SPLINE
  5
1303D4
330
18
100
AcDbEntity
  8
姿図
100
AcDbSpline
210
0.0
220
0.0
230
1.0
 70
     8
 71
     3
 72
     8
 73
     4
 74
     0
 42
0.0000000001
 43
0.0000000001
 40
0.0
 40
0.0
 40
0.0
 40
0.0
 40
1.0
 40
1.0
 40
1.0
 40
1.0
 10
9169.650103137536
 20
-4435.722245425205
 30
0.0
 10
9170.258593127769
 20
-4434.254290238572
 30
0.0
 10
9171.448787490835
 20
-4431.874590531541
 30
0.0
 10
9174.300379152077
 20
-4427.435412742913
 30
0.0
  0
SPLINE
  5
1303D5
330
18
100
AcDbEntity
  8
姿図
100
AcDbSpline
210
0.0
220
0.0
230
1.0
 70
     8
 71
     3
 72
     8
 73
     4
 74
     0
 42
0.0000000001
 43
0.0000000001
 40
0.0
 40
0.0
 40
0.0
 40
0.0
 40
1.0
 40
1.0
 40
1.0
 40
1.0
 10
9174.256281929856
 20
-4427.325169687358
 30
0.0
 10
9171.843250923995
 20
-4427.325169687358
 30
0.0
 10
9168.082670818739
 20
-4429.309544687358
 30
0.0
 10
9169.890656929855
 20
-4434.909891909579
 30
0.0
  0
LINE
  5
1303D6
330
18
100
AcDbEntity
  8
姿図
100
AcDbLine
 10
9186.059609702207
 20
-4427.641257198209
 30
0.0
 11
9186.265454157503
 21
-4440.517646087097
 31
0.0
  0
LINE
  5
1303D7
330
18
100
AcDbEntity
  8
姿図
100
AcDbLine
 10
9186.412387479984
 20
-4427.259023854025
 30
0.0
 11
9186.618231935279
 21
-4440.576384965136
 31
0.0
  0
LINE
  5
1303D8
330
18
100
AcDbEntity
  8
姿図
100
AcDbLine
 10
9193.144534696779
 20
-4444.339462764615
 30
0.0
 11
9192.909406929855
 21
-4428.603989131801
 31
0.0
  0
LINE
  5
1303D9
330
18
100
AcDbEntity
  8
姿図
100
AcDbLine
 10
9195.004024985408
 20
-4429.92690579847
 30
0.0
 11
9195.173179173774
 21
-4438.890871998555
 31
0.0
  0
SPLINE
  5
1303DA
330
18
100
AcDbEntity
  8
姿図
100
AcDbSpline
210
0.0
220
0.0
230
1.0
 70
     8
 71
     3
 72
     8
 73
     4
 74
     0
 42
0.0000000001
 43
0.0000000001
 40
0.0
 40
0.0
 40
0.0
 40
0.0
 40
1.0
 40
1.0
 40
1.0
 40
1.0
 10
9178.445518040964
 20
-4438.518457176509
 30
0.0
 10
9172.3601013743
 20
-4438.930146087098
 30
0.0
 10
9167.27419303554
 20
-4440.958618309319
 30
0.0
 10
9167.362387479982
 20
-4441.34067939873
 30
0.0
  0
SPLINE
  5
1303DB
330
18
100
AcDbEntity
  8
姿図
100
AcDbSpline
210
0.0
220
0.0
230
1.0
 70
     8
 71
     3
 72
     8
 73
     4
 74
     0
 42
0.0000000001
 43
0.0000000001
 40
0.0
 40
0.0
 40
0.0
 40
0.0
 40
1.0
 40
1.0
 40
1.0
 40
1.0
 10
9168.259662599345
 20
-4439.311345902634
 30
0.0
 10
9170.563484078291
 20
-4437.790336245518
 30
0.0
 10
9174.769515029897
 20
-4436.773516312792
 30
0.0
 10
9179.752931777946
 20
-4436.5542359851
 30
0.0
  0
SPLINE
  5
1303DC
330
18
100
AcDbEntity
  8
姿図
100
AcDbSpline
210
0.0
220
0.0
230
1.0
 70
     8
 71
     3
 72
     8
 73
     4
 74
     0
 42
0.0000000001
 43
0.0000000001
 40
0.0
 40
0.0
 40
0.0
 40
0.0
 40
1.0
 40
1.0
 40
1.0
 40
1.0
 10
9166.757428712624
 20
-4442.029698495951
 30
0.0
 10
9167.280135825251
 20
-4439.559392777634
 30
0.0
 10
9172.64802522955
 20
-4437.56761082234
 30
0.0
 10
9179.599797283589
 20
-4437.166429452982
 30
0.0
  0
SPLINE
  5
1303DD
330
18
100
AcDbEntity
  8
姿図
100
AcDbSpline
210
0.0
220
0.0
230
1.0
 70
     8
 71
     3
 72
    11
 73
     7
 74
     0
 42
0.0000000001
 43
0.0000000001
 40
0.0
 40
0.0
 40
0.0
 40
0.0
 40
1.0
 40
1.0
 40
1.0
 40
2.0
 40
2.0
 40
2.0
 40
2.0
 10
9164.448439590444
 20
-4447.868963090134
 30
0.0
 10
9168.078536704159
 20
-4445.798116193435
 30
0.0
 10
9174.815076417701
 20
-4444.606974429111
 30
0.0
 10
9182.520290854549
 20
-4444.606974429111
 30
0.0
 10
9190.38156811692
 20
-4444.606974429111
 30
0.0
 10
9196.812011096518
 20
-4445.812930104025
 30
0.0
 10
9200.390948542267
 20
-4447.795065791959
 30
0.0
  0
ELLIPSE
  5
1303DE
330
18
100
AcDbEntity
  8
姿図
100
AcDbEllipse
 10
9182.524511096522
 20
-4452.218051631802
 30
0.0
 11
17.21996527777777
 21
0.0
 31
0.0
210
0.0
220
0.0
230
1.0
 40
0.3329065300896287
 41
0.0
 42
6.283185307179585
  0
SPLINE
  5
1303DF
330
18
100
AcDbEntity
  8
姿図
100
AcDbSpline
210
0.0
220
0.0
230
1.0
 70
    11
 71
     3
 72
    20
 73
    16
 74
     0
 42
0.0000000001
 43
0.0000000001
 40
0.0
 40
0.0
 40
0.0
 40
0.0
 40
1.0
 40
1.0
 40
1.0
 40
2.0
 40
2.0
 40
2.0
 40
3.0
 40
3.0
 40
3.0
 40
4.0
 40
4.0
 40
4.0
 40
5.0
 40
5.0
 40
5.0
 40
5.0
 10
9167.231043214576
 20
-4450.746134585361
 30
0.0
 10
9169.178986329809
 20
-4448.589332556281
 30
0.0
 10
9175.298595569177
 20
-4447.014579409581
 30
0.0
 10
9182.546559707629
 20
-4447.014579409581
 30
0.0
 10
9191.362731311363
 20
-4447.014579409581
 30
0.0
 10
9198.509754152077
 20
-4449.344497486837
 30
0.0
 10
9198.509754152077
 20
-4452.218051631802
 30
0.0
 10
9198.509754152077
 20
-4455.091605776767
 30
0.0
 10
9191.362731311363
 20
-4457.421523854026
 30
0.0
 10
9182.546559707629
 20
-4457.421523854026
 30
0.0
 10
9173.730301976513
 20
-4457.421523854026
 30
0.0
 10
9166.583365263189
 20
-4455.091605776767
 30
0.0
 10
9166.583365263189
 20
-4452.218051631802
 30
0.0
 10
9166.583365263189
 20
-4451.706799461663
 30
0.0
 10
9166.809535781851
 20
-4451.212772768955
 30
0.0
 10
9167.231043214576
 20
-4450.746134585361
 30
0.0
  0
ELLIPSE
  5
1303E0
330
18
100
AcDbEntity
  8
姿図
100
AcDbEllipse
 10
9182.414397232044
 20
-4451.697842213401
 30
0.0
 11
20.7433074951172
 21
0.0
 31
0.0
210
0.0
220
0.0
230
1.0
 40
0.3248236933025159
 41
0.0
 42
6.283185307179585
  0
SPLINE
  5
1303E1
330
18
100
AcDbEntity
  8
姿図
100
AcDbSpline
210
0.0
220
0.0
230
1.0
 70
     8
 71
     3
 72
     8
 73
     4
 74
     0
 42
0.0000000001
 43
0.0000000001
 40
3.0
 40
3.0
 40
3.0
 40
3.0
 40
4.0
 40
4.0
 40
4.0
 40
4.0
 10
9168.273873618222
 20
-4439.293086896561
 30
0.0
 10
9168.273873618222
 20
-4439.293086896561
 30
0.0
 10
9169.333929499298
 20
-4436.150126284579
 30
0.0
 10
9169.650103137536
 20
-4435.722245425205
 30
0.0
  0
SPLINE
  5
1303E2
330
18
100
AcDbEntity
  8
姿図
100
AcDbSpline
210
0.0
220
0.0
230
1.0
 70
     8
 71
     3
 72
     8
 73
     4
 74
     0
 42
0.0000000001
 43
0.0000000001
 40
48.0
 40
48.0
 40
48.0
 40
48.0
 40
49.0
 40
49.0
 40
49.0
 40
49.0
 10
9164.479962214143
 20
-4447.829861256369
 30
0.0
 10
9164.517255372778
 20
-4446.788236636143
 30
0.0
 10
9164.554376276646
 20
-4444.66812487399
 30
0.0
 10
9164.572979792268
 20
-4444.389072139614
 30
0.0
  0
LINE
  5
1303E3
330
18
100
AcDbEntity
  8
姿図
100
AcDbLine
 10
9165.299119793351
 20
-4442.908714609233
 30
0.0
 11
9165.132635553986
 21
-4447.459341236838
 31
0.0
  0
LINE
  5
1303E4
330
18
100
AcDbEntity
  8
姿図
100
AcDbLine
 10
9165.763260282718
 20
-4442.845497107061
 30
0.0
 11
9165.576622234759
 21
-4447.209744068869
 31
0.0
  0
LINE
  5
1303E5
330
18
100
AcDbEntity
  8
姿図
100
AcDbLine
 10
9167.352482830462
 20
-4441.382537308885
 30
0.0
 11
9167.130532553768
 21
-4446.627006167393
 31
0.0
  0
SPLINE
  5
1303E6
330
18
100
AcDbEntity
  8
姿図
100
AcDbSpline
210
0.0
220
0.0
230
1.0
 70
    24
 71
     3
 72
     8
 73
     4
 74
     0
 42
0.0000000001
 43
0.0000000001
 40
51.0
 40
51.0
 40
51.0
 40
51.0
 40
52.0
 40
52.0
 40
52.0
 40
52.0
 10
9165.763260282718
 20
-4442.845497107061
 30
0.0
 10
9165.763260282718
 20
-4442.845497107061
 30
0.0
 10
9166.26503844027
 20
-4442.450000145257
 30
0.0
 10
9166.26503844027
 20
-4442.450000145257
 30
0.0
  0
SPLINE
  5
1303E7
330
18
100
AcDbEntity
  8
姿図
100
AcDbSpline
210
0.0
220
0.0
230
1.0
 70
     8
 71
     3
 72
     8
 73
     4
 74
     0
 42
0.0000000001
 43
0.0000000001
 40
50.0
 40
50.0
 40
50.0
 40
50.0
 40
51.0
 40
51.0
 40
51.0
 40
51.0
 10
9165.298258519481
 20
-4442.845497107061
 30
0.0
 10
9165.61443215772
 20
-4442.826893591438
 30
0.0
 10
9165.763260282718
 20
-4442.845497107061
 30
0.0
 10
9165.763260282718
 20
-4442.845497107061
 30
0.0
  0
SPLINE
  5
1303E8
330
18
100
AcDbEntity
  8
姿図
100
AcDbSpline
210
0.0
220
0.0
230
1.0
 70
     8
 71
     3
 72
     8
 73
     4
 74
     0
 42
0.0000000001
 43
0.0000000001
 40
49.0
 40
49.0
 40
49.0
 40
49.0
 40
50.0
 40
50.0
 40
50.0
 40
50.0
 10
9164.572979792268
 20
-4444.389072139614
 30
0.0
 10
9164.591583307894
 20
-4444.110191660015
 30
0.0
 10
9164.982171008627
 20
-4442.864100622688
 30
0.0
 10
9165.298258519481
 20
-4442.845497107061
 30
0.0
  0
SPLINE
  5
1303E9
330
18
100
AcDbEntity
  8
姿図
100
AcDbSpline
210
0.0
220
0.0
230
1.0
 70
     8
 71
     3
 72
     8
 73
     4
 74
     0
 42
0.0000000001
 43
0.0000000001
 40
2.0
 40
2.0
 40
2.0
 40
2.0
 40
3.0
 40
3.0
 40
3.0
 40
3.0
 10
9166.823316163798
 20
-4440.743816605761
 30
0.0
 10
9167.399852893394
 20
-4439.888399396559
 30
0.0
 10
9168.273873618222
 20
-4439.293086896561
 30
0.0
 10
9168.273873618222
 20
-4439.293086896561
 30
0.0
  0
SPLINE
  5
1303EA
330
18
100
AcDbEntity
  8
姿図
100
AcDbSpline
210
0.0
220
0.0
230
1.0
 70
     8
 71
     3
 72
     8
 73
     4
 74
     0
 42
0.0000000001
 43
0.0000000001
 40
1.0
 40
1.0
 40
1.0
 40
1.0
 40
2.0
 40
2.0
 40
2.0
 40
2.0
 10
9166.377004043571
 20
-4442.361805700813
 30
0.0
 10
9166.377004043571
 20
-4442.361805700813
 30
0.0
 10
9166.246779434194
 20
-4441.599406069736
 30
0.0
 10
9166.823316163798
 20
-4440.743816605761
 30
0.0
  0
SPLINE
  5
1303EB
330
18
100
AcDbEntity
  8
姿図
100
AcDbSpline
210
0.0
220
0.0
230
1.0
 70
    24
 71
     3
 72
     8
 73
     4
 74
     0
 42
0.0000000001
 43
0.0000000001
 40
0.0
 40
0.0
 40
0.0
 40
0.0
 40
1.0
 40
1.0
 40
1.0
 40
1.0
 10
9166.301728707198
 20
-4442.421061343173
 30
0.0
 10
9166.301728707198
 20
-4442.421061343173
 30
0.0
 10
9166.377004043571
 20
-4442.361805700813
 30
0.0
 10
9166.377004043571
 20
-4442.361805700813
 30
0.0
  0
LINE
  5
1303EC
330
18
100
AcDbEntity
  8
姿図
100
AcDbLine
 10
9166.26503844027
 20
-4442.450000145258
 30
0.0
 11
9166.301728707198
 21
-4442.421061343173
 31
0.0
  0
LINE
  5
1303ED
330
18
100
AcDbEntity
  8
姿図
100
AcDbLine
 10
9166.377004043571
 20
-4442.361805700813
 30
0.0
 11
9167.297016793133
 21
-4441.687772768955
 31
0.0
  0
SPLINE
  5
1303EE
330
18
100
AcDbEntity
  8
姿図
100
AcDbSpline
210
0.0
220
0.0
230
1.0
 70
     8
 71
     3
 72
     8
 73
     4
 74
     0
 42
0.0000000001
 43
0.0000000001
 40
47.57323863493615
 40
47.57323863493615
 40
47.57323863493615
 40
47.57323863493615
 40
48.0
 40
48.0
 40
48.0
 40
48.0
 10
9161.671089736927
 20
-4451.697842213401
 30
0.0
 10
9161.624510378883
 20
-4450.470149849613
 30
0.0
 10
9162.327135832731
 20
-4449.141456697699
 30
0.0
 10
9164.479962214143
 20
-4447.829861256369
 30
0.0
  0
LINE
  5
1303EF
330
18
100
AcDbEntity
  8
姿図
100
AcDbLine
 10
9204.166255167216
 20
-4433.074418501281
 30
0.0
 11
9202.22804809638
 21
-4435.357846198114
 31
0.0
  0
SPLINE
  5
1303F0
330
18
100
AcDbEntity
  8
姿図
100
AcDbSpline
210
0.0
220
0.0
230
1.0
 70
     8
 71
     3
 72
     8
 73
     4
 74
     0
 42
0.0000000001
 43
0.0000000001
 40
0.0
 40
0.0
 40
0.0
 40
0.0
 40
1.0
 40
1.0
 40
1.0
 40
1.0
 10
9198.163518088678
 20
-4435.023246058317
 30
0.0
 10
9199.529712668084
 20
-4435.276424285858
 30
0.0
 10
9201.861074835731
 20
-4434.962799441986
 30
0.0
 10
9201.36931748455
 20
-4431.989176425222
 30
0.0
  0
SPLINE
  5
1303F1
330
18
100
AcDbEntity
  8
姿図
100
AcDbSpline
210
0.0
220
0.0
230
1.0
 70
     8
 71
     3
 72
     8
 73
     4
 74
     0
 42
0.0000000001
 43
0.0000000001
 40
0.0
 40
0.0
 40
0.0
 40
0.0
 40
1.0
 40
1.0
 40
1.0
 40
1.0
 10
9198.63102151319
 20
-4437.602923051072
 30
0.0
 10
9197.923743409885
 20
-4436.637607295864
 30
0.0
 10
9196.905200929421
 20
-4436.033854311923
 30
0.0
 10
9195.290656929854
 20
-4435.72569052069
 30
0.0
  0
SPLINE
  5
1303F2
330
18
100
AcDbEntity
  8
姿図
100
AcDbSpline
210
0.0
220
0.0
230
1.0
 70
     8
 71
     3
 72
     8
 73
     4
 74
     0
 42
0.0000000001
 43
0.0000000001
 40
0.0
 40
0.0
 40
0.0
 40
0.0
 40
1.0
 40
1.0
 40
1.0
 40
1.0
 10
9198.885958579159
 20
-4436.230052499857
 30
0.0
 10
9198.636533665967
 20
-4435.95444486097
 30
0.0
 10
9198.454632624297
 20
-4435.789080277636
 30
0.0
 10
9198.297708524906
 20
-4435.700541323642
 30
0.0
  0
SPLINE
  5
1303F3
330
18
100
AcDbEntity
  8
姿図
100
AcDbSpline
210
0.0
220
0.0
230
1.0
 70
     8
 71
     3
 72
     8
 73
     4
 74
     0
 42
0.0000000001
 43
0.0000000001
 40
37.0
 40
37.0
 40
37.0
 40
37.0
 40
38.0
 40
38.0
 40
38.0
 40
38.0
 10
9203.005948271
 20
-4434.74866144083
 30
0.0
 10
9201.462027214157
 20
-4436.204646728316
 30
0.0
 10
9199.893421026398
 20
-4436.122584967419
 30
0.0
 10
9198.502347196779
 20
-4435.865389142652
 30
0.0
  0
SPLINE
  5
1303F4
330
18
100
AcDbEntity
  8
姿図
100
AcDbSpline
210
0.0
220
0.0
230
1.0
 70
     8
 71
     3
 72
     8
 73
     4
 74
     0
 42
0.0000000001
 43
0.0000000001
 40
38.0
 40
38.0
 40
38.0
 40
38.0
 40
39.0
 40
39.0
 40
39.0
 40
39.0
 10
9198.878207114317
 20
-4436.208003888746
 30
0.0
 10
9199.396177220652
 20
-4436.803660898295
 30
0.0
 10
9199.525540556157
 20
-4437.269782317565
 30
0.0
 10
9199.577389243223
 20
-4437.813762894823
 30
0.0
  0
LINE
  5
1303F5
330
18
100
AcDbEntity
  8
姿図
100
AcDbLine
 10
9204.227742037799
 20
-4432.536601956427
 30
0.0
 11
9202.678986213287
 21
-4434.361211926405
 31
0.0
  0
LINE
  5
1303F6
330
18
100
AcDbEntity
  8
姿図
100
AcDbLine
 10
9204.232416667892
 20
-4431.994082710843
 30
0.0
 11
9202.822324402669
 21
-4433.655331285338
 31
0.0
  0
SPLINE
  5
1303F7
330
18
100
AcDbEntity
  8
姿図
100
AcDbSpline
210
0.0
220
0.0
230
1.0
 70
     8
 71
     3
 72
    11
 73
     7
 74
     0
 42
0.0000000001
 43
0.0000000001
 40
41.0
 40
41.0
 40
41.0
 40
41.0
 40
42.0
 40
42.0
 40
42.0
 40
43.0
 40
43.0
 40
43.0
 40
43.0
 10
9199.396177220652
 20
-4442.630867658278
 30
0.0
 10
9200.069521133412
 20
-4443.252535138746
 30
0.0
 10
9200.224894939836
 20
-4443.640969654805
 30
0.0
 10
9200.224894939836
 20
-4444.340151783712
 30
0.0
 10
9200.224894939836
 20
-4445.039506167393
 30
0.0
 10
9200.390948542267
 20
-4447.795065791959
 30
0.0
 10
9200.390948542267
 20
-4447.795065791959
 30
0.0
  0
SPLINE
  5
1303F8
330
18
100
AcDbEntity
  8
姿図
100
AcDbSpline
210
0.0
220
0.0
230
1.0
 70
    27
 71
     3
 72
     8
 73
     4
 74
     0
 42
0.0000000001
 43
0.0000000001
 40
43.0
 40
43.0
 40
43.0
 40
43.0
 40
44.0
 40
44.0
 40
44.0
 40
44.0
 10
9200.390948542267
 20
-4447.795065791959
 30
0.0
 10
9200.390948542267
 20
-4447.795065791959
 30
0.0
 10
9200.390948542267
 20
-4447.795065791959
 30
0.0
 10
9200.390948542267
 20
-4447.795065791959
 30
0.0
  0
SPLINE
  5
1303F9
330
18
100
AcDbEntity
  8
姿図
100
AcDbSpline
210
0.0
220
0.0
230
1.0
 70
     8
 71
     3
 72
     8
 73
     4
 74
     0
 42
0.0000000001
 43
0.0000000001
 40
1.0
 40
1.0
 40
1.0
 40
1.0
 40
2.0
 40
2.0
 40
2.0
 40
2.0
 10
9196.437184707631
 20
-4440.76018080932
 30
0.0
 10
9197.333770807892
 20
-4441.215794687358
 30
0.0
 10
9198.568493030114
 20
-4441.715505787619
 30
0.0
 10
9199.396177220652
 20
-4442.630867658278
 30
0.0
  0
LINE
  5
1303FA
330
18
100
AcDbEntity
  8
姿図
100
AcDbLine
 10
9195.173179173774
 20
-4438.890871998555
 30
0.0
 11
9195.180413874302
 21
-4439.27551690958
 31
0.0
  0
SPLINE
  5
1303FB
330
18
100
AcDbEntity
  8
姿図
100
AcDbSpline
210
0.0
220
0.0
230
1.0
 70
     8
 71
     3
 72
     8
 73
     4
 74
     0
 42
0.0000000001
 43
0.0000000001
 40
0.0
 40
0.0
 40
0.0
 40
0.0
 40
1.0
 40
1.0
 40
1.0
 40
1.0
 10
9196.437184707631
 20
-4440.76018080932
 30
0.0
 10
9195.730423368656
 20
-4440.450983489443
 30
0.0
 10
9195.180413874302
 20
-4440.104234628764
 30
0.0
 10
9195.180413874302
 20
-4439.27551690958
 30
0.0
  0
SPLINE
  5
1303FC
330
18
100
AcDbEntity
  8
姿図
100
AcDbSpline
210
0.0
220
0.0
230
1.0
 70
     8
 71
     3
 72
     8
 73
     4
 74
     0
 42
0.0000000001
 43
0.0000000001
 40
0.0
 40
0.0
 40
0.0
 40
0.0
 40
0.9455772662780576
 40
0.9455772662780576
 40
0.9455772662780576
 40
0.9455772662780576
 10
9195.182136422038
 20
-4438.90103503024
 30
0.0
 10
9197.043368451344
 20
-4439.769023608532
 30
0.0
 10
9198.272827616069
 20
-4440.816440608871
 30
0.0
 10
9198.613324534752
 20
-4441.945711350856
 30
0.0
  0
SPLINE
  5
1303FD
330
18
100
AcDbEntity
  8
姿図
100
AcDbSpline
210
0.0
220
0.0
230
1.0
 70
     8
 71
     3
 72
     8
 73
     4
 74
     0
 42
0.0000000001
 43
0.0000000001
 40
0.0
 40
0.0
 40
0.0
 40
0.0
 40
1.0
 40
1.0
 40
1.0
 40
1.0
 10
9195.192299453724
 20
-4439.463102358799
 30
0.0
 10
9196.268375028813
 20
-4440.004843623989
 30
0.0
 10
9197.066948162493
 20
-4440.616692582324
 30
0.0
 10
9197.517222142527
 20
-4441.273844546298
 30
0.0
  0
SPLINE
  5
1303FE
330
18
100
AcDbEntity
  8
姿図
100
AcDbSpline
210
0.0
220
0.0
230
1.0
 70
     8
 71
     3
 72
    11
 73
     7
 74
     0
 42
0.0000000001
 43
0.0000000001
 40
39.0
 40
39.0
 40
39.0
 40
39.0
 40
40.0
 40
40.0
 40
40.0
 40
41.0
 40
41.0
 40
41.0
 40
41.0
 10
9199.577389243223
 20
-4437.813762894823
 30
0.0
 10
9199.629237930288
 20
-4438.357571217306
 30
0.0
 10
9199.681086617356
 20
-4441.62076566175
 30
0.0
 10
9199.681086617356
 20
-4441.802149939094
 30
0.0
 10
9199.681086617356
 20
-4441.983361961663
 30
0.0
 10
9199.551551027076
 20
-4442.423817419563
 30
0.0
 10
9199.396177220652
 20
-4442.630867658278
 30
0.0
  0
SPLINE
  5
1303FF
330
18
100
AcDbEntity
  8
姿図
100
AcDbSpline
210
0.0
220
0.0
230
1.0
 70
     8
 71
     3
 72
     8
 73
     4
 74
     0
 42
0.0000000001
 43
0.0000000001
 40
0.0
 40
0.0
 40
0.0
 40
0.0
 40
1.0
 40
1.0
 40
1.0
 40
1.0
 10
9198.950726374297
 20
-4442.199369448643
 30
0.0
 10
9198.950726374297
 20
-4439.78642457017
 30
0.0
 10
9198.952276667268
 20
-4437.558309064528
 30
0.0
 10
9198.531975017962
 20
-4437.566232784146
 30
0.0
  0
SPLINE
  5
130400
330
18
100
AcDbEntity
  8
姿図
100
AcDbSpline
210
0.0
220
0.0
230
1.0
 70
     8
 71
     3
 72
     8
 73
     4
 74
     0
 42
0.0000000001
 43
0.0000000001
 40
44.0
 40
44.0
 40
44.0
 40
44.0
 40
44.97482086101027
 40
44.97482086101027
 40
44.97482086101027
 40
44.97482086101027
 10
9200.390948542267
 20
-4447.795065791959
 30
0.0
 10
9200.390948542267
 20
-4447.795065791959
 30
0.0
 10
9203.178377639659
 20
-4449.045748128683
 30
0.0
 10
9203.157704727164
 20
-4451.697842213401
 30
0.0
  0
LINE
  5
130401
330
18
100
AcDbEntity
  8
姿図
100
AcDbLine
 10
9186.559493057242
 20
-4434.344034975985
 30
0.0
 11
9188.058798612798
 21
-4434.667529442132
 31
0.0
  0
LINE
  5
130402
330
18
100
AcDbEntity
  8
姿図
100
AcDbLine
 10
9186.588862496259
 20
-4434.990851653502
 30
0.0
 11
9188.088168051816
 21
-4435.31434611965
 31
0.0
  0
LINE
  5
130403
330
18
100
AcDbEntity
  8
姿図
100
AcDbLine
 10
9186.588862496259
 20
-4435.608212764615
 30
0.0
 11
9188.088168051816
 21
-4435.93170723076
 31
0.0
  0
LINE
  5
130404
330
18
100
AcDbEntity
  8
姿図
100
AcDbLine
 10
9186.559493057242
 20
-4436.255029442133
 30
0.0
 11
9188.058798612798
 21
-4436.578523908278
 31
0.0
  0
LINE
  5
130405
330
18
100
AcDbEntity
  8
姿図
100
AcDbLine
 10
9186.588862496259
 20
-4436.842934986837
 30
0.0
 11
9188.088168051816
 21
-4437.166429452982
 31
0.0
  0
LINE
  5
130406
330
18
100
AcDbEntity
  8
姿図
100
AcDbLine
 10
9186.618318062668
 20
-4438.136396087098
 30
0.0
 11
9188.117623618222
 21
-4438.459890553244
 31
0.0
  0
LINE
  5
130407
330
18
100
AcDbEntity
  8
姿図
100
AcDbLine
 10
9186.588862496259
 20
-4437.460296097948
 30
0.0
 11
9188.088168051816
 21
-4437.783790564094
 31
0.0
  0
LINE
  5
130408
330
18
100
AcDbEntity
  8
姿図
100
AcDbLine
 10
9186.500668051817
 20
-4431.962784975985
 30
0.0
 11
9187.999973607372
 21
-4432.286279442133
 31
0.0
  0
LINE
  5
130409
330
18
100
AcDbEntity
  8
姿図
100
AcDbLine
 10
9186.530037490838
 20
-4432.550862775465
 30
0.0
 11
9188.029343046389
 21
-4432.874357241611
 31
0.0
  0
LINE
  5
13040A
330
18
100
AcDbEntity
  8
姿図
100
AcDbLine
 10
9186.559493057242
 20
-4433.19750719821
 30
0.0
 11
9188.058798612798
 21
-4433.521001664354
 31
0.0
  0
LINE
  5
13040B
330
18
100
AcDbEntity
  8
姿図
100
AcDbLine
 10
9186.559493057242
 20
-4433.756129431282
 30
0.0
 11
9188.058798612798
 21
-4434.079623897427
 31
0.0
  0
LINE
  5
13040C
330
18
100
AcDbEntity
  8
姿図
100
AcDbLine
 10
9186.353648601947
 20
-4440.576384965136
 30
0.0
 11
9188.088081924426
 21
-4440.811684986837
 31
0.0
  0
LINE
  5
13040D
330
18
100
AcDbEntity
  8
姿図
100
AcDbLine
 10
9186.618318062668
 20
-4439.341834997686
 30
0.0
 11
9188.117623618222
 21
-4439.665329463834
 31
0.0
  0
LINE
  5
13040E
330
18
100
AcDbEntity
  8
姿図
100
AcDbLine
 10
9186.618318062668
 20
-4440.017934986837
 30
0.0
 11
9188.117623618222
 21
-4440.341429452983
 31
0.0
  0
LINE
  5
13040F
330
18
100
AcDbEntity
  8
姿図
100
AcDbLine
 10
9186.618318062668
 20
-4438.69501832017
 30
0.0
 11
9188.117623618222
 21
-4439.018512786317
 31
0.0
  0
SPLINE
  5
130410
330
18
100
AcDbEntity
  8
姿図
100
AcDbSpline
210
0.0
220
0.0
230
1.0
 70
     8
 71
     3
 72
     8
 73
     4
 74
     0
 42
0.0000000001
 43
0.0000000001
 40
0.0
 40
0.0
 40
0.0
 40
0.0
 40
1.0
 40
1.0
 40
1.0
 40
1.0
 10
9183.208018040964
 20
-4436.754568287619
 30
0.0
 10
9183.208018040964
 20
-4436.575940086664
 30
0.0
 10
9183.037141304852
 20
-4436.431246076247
 30
0.0
 10
9182.825870824169
 20
-4436.431246076247
 30
0.0
  0
SPLINE
  5
130411
330
18
100
AcDbEntity
  8
姿図
100
AcDbSpline
210
0.0
220
0.0
230
1.0
 70
     8
 71
     3
 72
     8
 73
     4
 74
     0
 42
0.0000000001
 43
0.0000000001
 40
0.0
 40
0.0
 40
0.0
 40
0.0
 40
1.0
 40
1.0
 40
1.0
 40
1.0
 10
9183.105181940703
 20
-4436.527881004631
 30
0.0
 10
9183.716514134713
 20
-4436.544761972515
 30
0.0
 10
9184.319147462622
 20
-4436.573700774597
 30
0.0
 10
9184.911273249298
 20
-4436.614180646558
 30
0.0
  0
SPLINE
  5
130412
330
18
100
AcDbEntity
  8
姿図
100
AcDbSpline
210
0.0
220
0.0
230
1.0
 70
     8
 71
     3
 72
     8
 73
     4
 74
     0
 42
0.0000000001
 43
0.0000000001
 40
0.0
 40
0.0
 40
0.0
 40
0.0
 40
1.0
 40
1.0
 40
1.0
 40
1.0
 10
9183.178217965009
 20
-4437.103039696038
 30
0.0
 10
9183.728571968915
 20
-4437.114925275465
 30
0.0
 10
9184.271260635362
 20
-4437.136457122254
 30
0.0
 10
9184.804819798776
 20
-4437.167635236402
 30
0.0
  0
LINE
  5
130413
330
18
100
AcDbEntity
  8
姿図
100
AcDbLine
 10
9184.236895807892
 20
-4438.400979420429
 30
0.0
 11
9184.560304146652
 21
-4438.342240542393
 31
0.0
  0
SPLINE
  5
130414
330
18
100
AcDbEntity
  8
姿図
100
AcDbSpline
210
0.0
220
0.0
230
1.0
 70
     8
 71
     3
 72
     8
 73
     4
 74
     0
 42
0.0000000001
 43
0.0000000001
 40
0.0
 40
0.0
 40
0.0
 40
0.0
 40
1.0
 40
1.0
 40
1.0
 40
1.0
 10
9184.824887479985
 20
-4438.048201642653
 30
0.0
 10
9184.824887479985
 20
-4438.194445946038
 30
0.0
 10
9184.690270373863
 20
-4438.342240542393
 30
0.0
 10
9184.560304146652
 20
-4438.342240542393
 30
0.0
  0
LINE
  5
130415
330
18
100
AcDbEntity
  8
姿図
100
AcDbLine
 10
9184.841854575253
 20
-4436.599194481195
 30
0.0
 11
9184.824887479985
 21
-4438.048201642653
 31
0.0
  0
LINE
  5
130416
330
18
100
AcDbEntity
  8
姿図
100
AcDbLine
 10
9179.650870824167
 20
-4436.784023854026
 30
0.0
 11
9179.666718263405
 21
-4437.150237504198
 31
0.0
  0
SPLINE
  5
130417
330
18
100
AcDbEntity
  8
姿図
100
AcDbSpline
210
0.0
220
0.0
230
1.0
 70
     8
 71
     3
 72
     8
 73
     4
 74
     0
 42
0.0000000001
 43
0.0000000001
 40
0.0
 40
0.0
 40
0.0
 40
0.0
 40
1.0
 40
1.0
 40
1.0
 40
1.0
 10
9179.650870824167
 20
-4436.784023854026
 30
0.0
 10
9179.650870824167
 20
-4436.60539565307
 30
0.0
 10
9179.808656197433
 20
-4436.460701642653
 30
0.0
 10
9180.003648601944
 20
-4436.460701642653
 30
0.0
  0
SPLINE
  5
130418
330
18
100
AcDbEntity
  8
姿図
100
AcDbSpline
210
0.0
220
0.0
230
1.0
 70
     8
 71
     3
 72
     8
 73
     4
 74
     0
 42
0.0000000001
 43
0.0000000001
 40
0.0
 40
0.0
 40
0.0
 40
0.0
 40
1.0
 40
1.0
 40
1.0
 40
1.0
 10
9178.621906929853
 20
-4438.694846065397
 30
0.0
 10
9178.621906929853
 20
-4438.597349863139
 30
0.0
 10
9178.543014243222
 20
-4438.518457176509
 30
0.0
 10
9178.445518040964
 20
-4438.518457176509
 30
0.0
  0
LINE
  5
130419
330
18
100
AcDbEntity
  8
姿図
100
AcDbLine
 10
9180.003648601944
 20
-4436.460701642653
 30
0.0
 11
9182.825870824169
 21
-4436.431246076247
 31
0.0
  0
LINE
  5
13041A
330
18
100
AcDbEntity
  8
姿図
100
AcDbLine
 10
9183.090454157502
 20
-4441.781651620951
 30
0.0
 11
9183.090454157502
 21
-4444.574590531542
 31
0.0
  0
LINE
  5
13041B
330
18
100
AcDbEntity
  8
姿図
100
AcDbLine
 10
9183.32558192443
 20
-4439.165273854025
 30
0.0
 11
9183.031629152075
 21
-4441.781651620951
 31
0.0
  0
LINE
  5
13041C
330
18
100
AcDbEntity
  8
姿図
100
AcDbLine
 10
9183.854748591096
 20
-4438.783212764614
 30
0.0
 11
9183.64899026319
 21
-4441.311396087098
 31
0.0
  0
SPLINE
  5
13041D
330
18
100
AcDbEntity
  8
姿図
100
AcDbSpline
210
0.0
220
0.0
230
1.0
 70
     8
 71
     3
 72
     8
 73
     4
 74
     0
 42
0.0000000001
 43
0.0000000001
 40
0.0
 40
0.0
 40
0.0
 40
0.0
 40
1.0
 40
1.0
 40
1.0
 40
1.0
 10
9183.64899026319
 20
-4441.311396087098
 30
0.0
 10
9183.64899026319
 20
-4441.538772389181
 30
0.0
 10
9183.478113527078
 20
-4441.722912742913
 30
0.0
 10
9183.266843046391
 20
-4441.722912742913
 30
0.0
  0
LINE
  5
13041E
330
18
100
AcDbEntity
  8
姿図
100
AcDbLine
 10
9183.266843046391
 20
-4441.722912742913
 30
0.0
 11
9183.149193035541
 21
-4444.515851653504
 31
0.0
  0
LINE
  5
13041F
330
18
100
AcDbEntity
  8
姿図
100
AcDbLine
 10
9179.209898601946
 20
-4441.811107187358
 30
0.0
 11
9179.298093046391
 21
-4444.633329409579
 31
0.0
  0
LINE
  5
130420
330
18
100
AcDbEntity
  8
姿図
100
AcDbLine
 10
9179.503851374297
 20
-4441.75236830932
 30
0.0
 11
9179.35683192443
 21
-4444.603873843173
 31
0.0
  0
LINE
  5
130421
330
18
100
AcDbEntity
  8
姿図
100
AcDbLine
 10
9179.739065268611
 20
-4438.753757198209
 30
0.0
 11
9179.445026368874
 21
-4441.722912742913
 31
0.0
  0
CIRCLE
  5
130422
330
18
100
AcDbEntity
  8
姿図
100
AcDbCircle
 10
9181.285482504939
 20
-4443.619093298469
 30
0.0
 40
0.7760938856336806
  0
LINE
  5
130423
330
18
100
AcDbEntity
  8
姿図
100
AcDbLine
 10
9179.827259713055
 20
-4438.812496076247
 30
0.0
 11
9183.208018040964
 21
-4438.783212764614
 31
0.0
  0
LINE
  5
130424
330
18
100
AcDbEntity
  8
姿図
100
AcDbLine
 10
9179.503851374297
 20
-4441.75236830932
 30
0.0
 11
9183.031629152075
 21
-4441.781651620951
 31
0.0
  0
SPLINE
  5
130425
330
18
100
AcDbEntity
  8
姿図
100
AcDbSpline
210
0.0
220
0.0
230
1.0
 70
     8
 71
     3
 72
     8
 73
     4
 74
     0
 42
0.0000000001
 43
0.0000000001
 40
0.0
 40
0.0
 40
0.0
 40
0.0
 40
1.0
 40
1.0
 40
1.0
 40
1.0
 10
9183.854748591096
 20
-4438.783212764614
 30
0.0
 10
9183.854748591096
 20
-4438.571856156541
 30
0.0
 10
9184.025625327207
 20
-4438.400979420429
 30
0.0
 10
9184.236895807892
 20
-4438.400979420429
 30
0.0
  0
LINE
  5
130426
330
18
100
AcDbEntity
  8
姿図
100
AcDbLine
 10
9183.208018040964
 20
-4436.754568287619
 30
0.0
 11
9183.32558192443
 21
-4439.165273854025
 31
0.0
  0
SPLINE
  5
130427
330
18
100
AcDbEntity
  8
姿図
100
AcDbSpline
210
0.0
220
0.0
230
1.0
 70
     8
 71
     3
 72
     8
 73
     4
 74
     0
 42
0.0000000001
 43
0.0000000001
 40
0.0
 40
0.0
 40
0.0
 40
0.0
 40
1.0
 40
1.0
 40
1.0
 40
1.0
 10
9179.209898601946
 20
-4441.811107187358
 30
0.0
 10
9179.274149632762
 20
-4441.811107187358
 30
0.0
 10
9178.680645807892
 20
-4441.781479366176
 30
0.0
 10
9178.651276368873
 20
-4438.606651620952
 30
0.0
  0
LINE
  5
130428
330
18
100
AcDbEntity
  8
姿図
100
AcDbLine
 10
9179.666718263405
 20
-4437.150237504198
 30
0.0
 11
9179.739065268611
 21
-4438.812496076247
 31
0.0
  0
LINE
  5
130429
330
18
100
AcDbEntity
  8
姿図
100
AcDbLine
 10
9194.474858318745
 20
-4434.73350302069
 30
0.0
 11
9193.019649985409
 21
-4434.424822465136
 31
0.0
  0
LINE
  5
13042A
330
18
100
AcDbEntity
  8
姿図
100
AcDbLine
 10
9188.195310521434
 20
-4436.959551469041
 30
0.0
 11
9188.204870661408
 21
-4437.495780581456
 31
0.0
  0
LINE
  5
13042B
330
18
100
AcDbEntity
  8
姿図
100
AcDbLine
 10
9194.518955540965
 20
-4437.158850242913
 30
0.0
 11
9193.063747207633
 21
-4436.850169687358
 31
0.0
  0
LINE
  5
13042C
330
18
100
AcDbEntity
  8
姿図
100
AcDbLine
 10
9194.518955540965
 20
-4436.497391909579
 30
0.0
 11
9193.063747207633
 21
-4436.188711354025
 31
0.0
  0
LINE
  5
13042D
330
18
100
AcDbEntity
  8
姿図
100
AcDbLine
 10
9194.563052763189
 20
-4435.880030798469
 30
0.0
 11
9193.107844429857
 21
-4435.571350242913
 31
0.0
  0
LINE
  5
13042E
330
18
100
AcDbEntity
  8
姿図
100
AcDbLine
 10
9194.563052763189
 20
-4435.350864131802
 30
0.0
 11
9193.107844429857
 21
-4435.042183576245
 31
0.0
  0
LINE
  5
13042F
330
18
100
AcDbEntity
  8
姿図
100
AcDbLine
 10
9194.518955540965
 20
-4438.393572465137
 30
0.0
 11
9193.063747207633
 21
-4438.084891909581
 31
0.0
  0
LINE
  5
130430
330
18
100
AcDbEntity
  8
姿図
100
AcDbLine
 10
9194.518955540965
 20
-4437.776211354026
 30
0.0
 11
9193.063747207633
 21
-4437.467530798469
 31
0.0
  0
SPLINE
  5
130431
330
18
100
AcDbEntity
  8
姿図
100
AcDbSpline
210
0.0
220
0.0
230
1.0
 70
     8
 71
     3
 72
     8
 73
     4
 74
     0
 42
0.0000000001
 43
0.0000000001
 40
0.0
 40
0.0
 40
0.0
 40
0.0
 40
1.0
 40
1.0
 40
1.0
 40
1.0
 10
9188.104532255376
 20
-4436.95472833536
 30
0.0
 10
9189.74577574496
 20
-4437.196229528938
 30
0.0
 10
9191.261790013621
 20
-4437.529025752896
 30
0.0
 10
9192.603826960235
 20
-4437.934341236837
 30
0.0
  0
SPLINE
  5
130432
330
18
100
AcDbEntity
  8
姿図
100
AcDbSpline
210
0.0
220
0.0
230
1.0
 70
     8
 71
     3
 72
     8
 73
     4
 74
     0
 42
0.0000000001
 43
0.0000000001
 40
0.0
 40
0.0
 40
0.0
 40
0.0
 40
1.0
 40
1.0
 40
1.0
 40
1.0
 10
9188.203751005374
 20
-4437.504565574945
 30
0.0
 10
9189.821912355201
 20
-4437.736075991612
 30
0.0
 10
9191.304681452423
 20
-4438.058192419563
 30
0.0
 10
9192.59883157178
 20
-4438.4521390884
 30
0.0
  0
LINE
  5
130433
330
18
100
AcDbEntity
  8
姿図
100
AcDbLine
 10
9194.474858318745
 20
-4434.160239131802
 30
0.0
 11
9193.019649985409
 21
-4433.851558576247
 31
0.0
  0
LINE
  5
130434
330
18
100
AcDbEntity
  8
姿図
100
AcDbLine
 10
9194.474858318745
 20
-4433.586975242913
 30
0.0
 11
9193.019649985409
 21
-4433.278294687357
 31
0.0
  0
LINE
  5
130435
330
18
100
AcDbEntity
  8
姿図
100
AcDbLine
 10
9194.474858318745
 20
-4432.92551690958
 30
0.0
 11
9193.019649985409
 21
-4432.616836354025
 31
0.0
  0
LINE
  5
130436
330
18
100
AcDbEntity
  8
姿図
100
AcDbLine
 10
9194.518955540965
 20
-4432.396350242914
 30
0.0
 11
9193.063747207633
 21
-4432.087669687358
 31
0.0
  0
SPLINE
  5
130437
330
18
100
AcDbEntity
  8
姿図
100
AcDbSpline
210
0.0
220
0.0
230
1.0
 70
     8
 71
     3
 72
     8
 73
     4
 74
     0
 42
0.0000000001
 43
0.0000000001
 40
0.0
 40
0.0
 40
0.0
 40
0.0
 40
1.0
 40
1.0
 40
1.0
 40
1.0
 10
9192.525278783152
 20
-4432.650942799337
 30
0.0
 10
9192.525278783152
 20
-4433.073483760709
 30
0.0
 10
9191.271608535755
 20
-4434.005554344476
 30
0.0
 10
9190.115779000169
 20
-4433.195612395692
 30
0.0
  0
LINE
  5
130438
330
18
100
AcDbEntity
  8
姿図
100
AcDbLine
 10
9190.151435738448
 20
-4433.761813838834
 30
0.0
 11
9188.074301542483
 21
-4432.312289913052
 31
0.0
  0
SPLINE
  5
130439
330
18
100
AcDbEntity
  8
姿図
100
AcDbSpline
210
0.0
220
0.0
230
1.0
 70
     8
 71
     3
 72
     8
 73
     4
 74
     0
 42
0.0000000001
 43
0.0000000001
 40
0.0
 40
0.0
 40
0.0
 40
0.0
 40
1.0
 40
1.0
 40
1.0
 40
1.0
 10
9190.050408313314
 20
-4433.698251827114
 30
0.0
 10
9191.206323976294
 20
-4434.5081937759
 30
0.0
 10
9192.541987496259
 20
-4433.583185637878
 30
0.0
 10
9192.541987496259
 20
-4433.160644676507
 30
0.0
  0
LINE
  5
13043A
330
18
100
AcDbEntity
  8
姿図
100
AcDbLine
 10
9188.117537490835
 20
-4440.78222942043
 30
0.0
 11
9188.176276368871
 21
-4443.428062753765
 31
0.0
  0
SPLINE
  5
13043B
330
18
100
AcDbEntity
  8
姿図
100
AcDbSpline
210
0.0
220
0.0
230
1.0
 70
     8
 71
     3
 72
     8
 73
     4
 74
     0
 42
0.0000000001
 43
0.0000000001
 40
0.0
 40
0.0
 40
0.0
 40
0.0
 40
1.0
 40
1.0
 40
1.0
 40
1.0
 10
9188.20573193528
 20
-4443.398607187357
 30
0.0
 10
9188.20573193528
 20
-4443.642347692999
 30
0.0
 10
9188.324070965229
 20
-4443.839579409579
 30
0.0
 10
9188.470315268613
 20
-4443.839579409579
 30
0.0
  0
SPLINE
  5
13043C
330
18
100
AcDbEntity
  8
姿図
100
AcDbSpline
210
0.0
220
0.0
230
1.0
 70
     8
 71
     3
 72
     8
 73
     4
 74
     0
 42
0.0000000001
 43
0.0000000001
 40
0.0
 40
0.0
 40
0.0
 40
0.0
 40
1.0
 40
1.0
 40
1.0
 40
1.0
 10
9188.470315268613
 20
-4443.839579409579
 30
0.0
 10
9188.970026368872
 20
-4443.957229420431
 30
0.0
 10
9191.527751385148
 20
-4444.13361830932
 30
0.0
 10
9192.733018040966
 20
-4444.574590531542
 30
0.0
  0
SPLINE
  5
13043D
330
18
100
AcDbEntity
  8
姿図
100
AcDbSpline
210
0.0
220
0.0
230
1.0
 70
     8
 71
     3
 72
     8
 73
     4
 74
     0
 42
0.0000000001
 43
0.0000000001
 40
0.0
 40
0.0
 40
0.0
 40
0.0
 40
1.0
 40
1.0
 40
1.0
 40
1.0
 10
9193.144534696779
 20
-4444.339462764615
 30
0.0
 10
9193.144534696779
 20
-4444.453150915657
 30
0.0
 10
9192.993639514488
 20
-4444.646593027202
 30
0.0
 10
9192.64482359652
 20
-4444.545134965135
 30
0.0
  0
LINE
  5
13043E
330
18
100
AcDbEntity
  8
姿図
100
AcDbLine
 10
9194.651247207632
 20
-4441.965447465135
 30
0.0
 11
9193.196038874301
 21
-4441.656766909579
 31
0.0
  0
LINE
  5
13043F
330
18
100
AcDbEntity
  8
姿図
100
AcDbLine
 10
9194.651247207632
 20
-4441.392183576247
 30
0.0
 11
9193.196038874301
 21
-4441.083503020691
 31
0.0
  0
LINE
  5
130440
330
18
100
AcDbEntity
  8
姿図
100
AcDbLine
 10
9194.60714998541
 20
-4440.774822465136
 30
0.0
 11
9193.151941652077
 21
-4440.466141909579
 31
0.0
  0
LINE
  5
130441
330
18
100
AcDbEntity
  8
姿図
100
AcDbLine
 10
9194.60714998541
 20
-4440.157461354025
 30
0.0
 11
9193.151941652077
 21
-4439.848780798469
 31
0.0
  0
LINE
  5
130442
330
18
100
AcDbEntity
  8
姿図
100
AcDbLine
 10
9194.563052763189
 20
-4439.584197465136
 30
0.0
 11
9193.107844429857
 21
-4439.27551690958
 31
0.0
  0
LINE
  5
130443
330
18
100
AcDbEntity
  8
姿図
100
AcDbLine
 10
9194.518955540965
 20
-4439.010933576245
 30
0.0
 11
9193.063747207633
 21
-4438.70225302069
 31
0.0
  0
LINE
  5
130444
330
18
100
AcDbEntity
  8
姿図
100
AcDbLine
 10
9188.204870661408
 20
-4437.495780581456
 30
0.0
 11
9188.264470813317
 21
-4440.840968298469
 31
0.0
  0
SPLINE
  5
130445
330
18
100
AcDbEntity
  8
姿図
100
AcDbSpline
210
0.0
220
0.0
230
1.0
 70
     8
 71
     3
 72
     8
 73
     4
 74
     0
 42
0.0000000001
 43
0.0000000001
 40
0.0
 40
0.0
 40
0.0
 40
0.0
 40
1.0
 40
1.0
 40
1.0
 40
1.0
 10
9174.256281929856
 20
-4427.325169687358
 30
0.0
 10
9178.180934707631
 20
-4426.884197465136
 30
0.0
 10
9182.590656929853
 20
-4428.868572465136
 30
0.0
 10
9184.795518040964
 20
-4430.235586354025
 30
0.0
  0
SPLINE
  5
130446
330
18
100
AcDbEntity
  8
姿図
100
AcDbSpline
210
0.0
220
0.0
230
1.0
 70
     8
 71
     3
 72
     8
 73
     4
 74
     0
 42
0.0000000001
 43
0.0000000001
 40
0.0
 40
0.0
 40
0.0
 40
0.0
 40
1.0
 40
1.0
 40
1.0
 40
1.0
 10
9184.883712485408
 20
-4429.596176631801
 30
0.0
 10
9184.778550945695
 20
-4429.596176631801
 30
0.0
 10
9175.194381430724
 20
-4423.768883744433
 30
0.0
 10
9170.125870824168
 20
-4428.596754431281
 30
0.0
  0
SPLINE
  5
130447
330
18
100
AcDbEntity
  8
姿図
100
AcDbSpline
210
0.0
220
0.0
230
1.0
 70
     8
 71
     3
 72
     8
 73
     4
 74
     0
 42
0.0000000001
 43
0.0000000001
 40
6.0
 40
6.0
 40
6.0
 40
6.0
 40
7.0
 40
7.0
 40
7.0
 40
7.0
 10
9171.953580106935
 20
-4426.282339283712
 30
0.0
 10
9173.457364286624
 20
-4424.339477684319
 30
0.0
 10
9175.710198352382
 20
-4421.7927769736
 30
0.0
 10
9177.976382163143
 20
-4418.926113019606
 30
0.0
  0
SPLINE
  5
130448
330
18
100
AcDbEntity
  8
姿図
100
AcDbSpline
210
0.0
220
0.0
230
1.0
 70
     8
 71
     3
 72
     8
 73
     4
 74
     0
 42
0.0000000001
 43
0.0000000001
 40
5.0
 40
5.0
 40
5.0
 40
5.0
 40
6.0
 40
6.0
 40
6.0
 40
6.0
 10
9169.397060874082
 20
-4429.648714337965
 30
0.0
 10
9170.27133998107
 20
-4428.098593623989
 30
0.0
 10
9171.539738011668
 20
-4426.748116193434
 30
0.0
 10
9171.953580106935
 20
-4426.282339283712
 30
0.0
  0
LINE
  5
130449
330
18
100
AcDbEntity
  8
姿図
100
AcDbLine
 10
9209.731808188537
 20
-4401.281798105326
 30
0.0
 11
9208.659654599658
 21
-4402.843256687785
 31
0.0
  0
LINE
  5
13044A
330
18
100
AcDbEntity
  8
姿図
100
AcDbLine
 10
9209.254834718482
 20
-4403.284776620952
 30
0.0
 11
9208.343434707634
 21
-4402.608676631802
 31
0.0
  0
SPLINE
  5
13044B
330
18
100
AcDbEntity
  8
姿図
100
AcDbSpline
210
0.0
220
0.0
230
1.0
 70
     8
 71
     3
 72
     8
 73
     4
 74
     0
 42
0.0000000001
 43
0.0000000001
 40
0.0
 40
0.0
 40
0.0
 40
0.0
 40
1.0
 40
1.0
 40
1.0
 40
1.0
 10
9213.017051244086
 20
-4404.037874494215
 30
0.0
 10
9214.075384577425
 20
-4402.626763383104
 30
0.0
 10
9211.407502632976
 20
-4399.363568938659
 30
0.0
 10
9209.731808188537
 20
-4401.281798105326
 30
0.0
  0
LINE
  5
13044C
330
18
100
AcDbEntity
  8
姿図
100
AcDbLine
 10
9207.549684707633
 20
-4402.785065520691
 30
0.0
 11
9203.845518040965
 21
-4408.635268293044
 31
0.0
  0
LINE
  5
13044D
330
18
100
AcDbEntity
  8
姿図
100
AcDbLine
 10
9207.338328099559
 20
-4402.575517587748
 30
0.0
 11
9203.187504803118
 21
-4409.047215585795
 31
0.0
  0
ELLIPSE
  5
13044E
330
18
100
AcDbEntity
  8
姿図
100
AcDbEllipse
 10
9206.358370688532
 20
-4410.274875362271
 30
0.0
 11
-1.128268771701389
 21
0.9467983669704858
 31
0.0
210
0.0
220
0.0
230
0.9999999999999998
 40
0.7417511887598579
 41
0.0
 42
6.283185307179585
  0
SPLINE
  5
13044F
330
18
100
AcDbEntity
  8
姿図
100
AcDbSpline
210
0.0
220
0.0
230
1.0
 70
     8
 71
     3
 72
     8
 73
     4
 74
     0
 42
0.0000000001
 43
0.0000000001
 40
0.0
 40
0.0
 40
0.0
 40
0.0
 40
1.0
 40
1.0
 40
1.0
 40
1.0
 10
9206.006281929857
 20
-4412.943963090135
 30
0.0
 10
9205.304343724558
 20
-4412.706940520691
 30
0.0
 10
9204.892827068745
 20
-4413.252643645692
 30
0.0
 10
9204.72746248541
 20
-4413.53005995971
 30
0.0
  0
SPLINE
  5
130450
330
18
100
AcDbEntity
  8
姿図
100
AcDbSpline
210
0.0
220
0.0
230
1.0
 70
     8
 71
     3
 72
     8
 73
     4
 74
     0
 42
0.0000000001
 43
0.0000000001
 40
0.0
 40
0.0
 40
0.0
 40
0.0
 40
1.0
 40
1.0
 40
1.0
 40
1.0
 10
9205.813630275939
 20
-4413.35004101036
 30
0.0
 10
9205.105906224559
 20
-4413.147912742913
 30
0.0
 10
9204.694389568743
 20
-4413.693615867913
 30
0.0
 10
9204.479156895741
 20
-4413.919217967158
 30
0.0
  0
LINE
  5
130451
330
18
100
AcDbEntity
  8
姿図
100
AcDbLine
 10
9204.547585242654
 20
-4417.002666623524
 30
0.0
 11
9206.198927326196
 21
-4413.468055406492
 31
0.0
  0
LINE
  5
130452
330
18
100
AcDbEntity
  8
姿図
100
AcDbLine
 10
9198.377462485408
 20
-4414.999996076247
 30
0.0
 11
9201.905240263188
 21
-4409.620134965137
 31
0.0
  0
SPLINE
  5
130453
330
18
100
AcDbEntity
  8
姿図
100
AcDbSpline
210
0.0
220
0.0
230
1.0
 70
     8
 71
     3
 72
     8
 73
     4
 74
     0
 42
0.0000000001
 43
0.0000000001
 40
0.0
 40
0.0
 40
0.0
 40
0.0
 40
1.0
 40
1.0
 40
1.0
 40
1.0
 10
9203.845518040965
 20
-4408.635268293044
 30
0.0
 10
9203.757323596519
 20
-4408.929221065396
 30
0.0
 10
9203.198873618221
 20
-4409.16443495971
 30
0.0
 10
9202.875379152075
 20
-4409.076240515264
 30
0.0
  0
SPLINE
  5
130454
330
18
100
AcDbEntity
  8
姿図
100
AcDbSpline
210
0.0
220
0.0
230
1.0
 70
     8
 71
     3
 72
     8
 73
     4
 74
     0
 42
0.0000000001
 43
0.0000000001
 40
0.0
 40
0.0
 40
0.0
 40
0.0
 40
1.0
 40
1.0
 40
1.0
 40
1.0
 10
9201.905240263185
 20
-4409.576037742914
 30
0.0
 10
9202.16982359652
 20
-4409.223259965136
 30
0.0
 10
9202.339150039664
 20
-4409.076240515264
 30
0.0
 10
9202.875379152075
 20
-4409.076240515264
 30
0.0
  0
SPLINE
  5
130455
330
18
100
AcDbEntity
  8
姿図
100
AcDbSpline
210
0.0
220
0.0
230
1.0
 70
     8
 71
     3
 72
     8
 73
     4
 74
     0
 42
0.0000000001
 43
0.0000000001
 40
0.134000468148693
 40
0.134000468148693
 40
0.134000468148693
 40
0.134000468148693
 40
1.0
 40
1.0
 40
1.0
 40
1.0
 10
9204.547585242654
 20
-4417.002666623524
 30
0.0
 10
9204.450205234946
 20
-4417.155096722334
 30
0.0
 10
9204.401209296065
 20
-4417.325590560603
 30
0.0
 10
9204.484238744091
 20
-4417.388308521993
 30
0.0
  0
LINE
  5
130456
330
18
100
AcDbEntity
  8
姿図
100
AcDbLine
 10
9209.078445829593
 20
-4403.578815520692
 30
0.0
 11
9209.225379152075
 21
-4403.343601626377
 31
0.0
  0
LINE
  5
130457
330
18
100
AcDbEntity
  8
姿図
100
AcDbLine
 10
9208.755123618225
 20
-4412.574648854024
 30
0.0
 11
9212.341640274035
 21
-4406.812554398729
 31
0.0
  0
SPLINE
  5
130458
330
18
100
AcDbEntity
  8
姿図
100
AcDbSpline
210
0.0
220
0.0
230
1.0
 70
     8
 71
     3
 72
     8
 73
     4
 74
     0
 42
0.0000000001
 43
0.0000000001
 40
0.0
 40
0.0
 40
0.0
 40
0.0
 40
1.0
 40
1.0
 40
1.0
 40
1.0
 10
9208.755123618225
 20
-4412.574648854024
 30
0.0
 10
9208.225956951556
 20
-4413.750546070822
 30
0.0
 10
9206.543200061362
 20
-4413.316808549121
 30
0.0
 10
9206.006281929857
 20
-4412.943963090135
 30
0.0
  0
SPLINE
  5
130459
330
18
100
AcDbEntity
  8
姿図
100
AcDbSpline
210
0.0
220
0.0
230
1.0
 70
     8
 71
     3
 72
     8
 73
     4
 74
     0
 42
0.0000000001
 43
0.0000000001
 40
0.0
 40
0.0
 40
0.0
 40
0.0
 40
0.8940086046754551
 40
0.8940086046754551
 40
0.8940086046754551
 40
0.8940086046754551
 10
9208.492343558731
 20
-4412.958252448831
 30
0.0
 10
9207.962212852935
 20
-4413.837583710917
 30
0.0
 10
9206.672181401883
 20
-4413.651855977843
 30
0.0
 10
9205.813630275939
 20
-4413.35004101036
 30
0.0
  0
SPLINE
  5
13045A
330
18
100
AcDbEntity
  8
姿図
100
AcDbSpline
210
0.0
220
0.0
230
1.0
 70
     8
 71
     3
 72
     8
 73
     4
 74
     0
 42
0.0000000001
 43
0.0000000001
 40
1.0
 40
1.0
 40
1.0
 40
1.0
 40
2.0
 40
2.0
 40
2.0
 40
2.0
 10
9208.956786692725
 20
-4406.346996210087
 30
0.0
 10
9209.5643292817
 20
-4406.856784214644
 30
0.0
 10
9209.760871979183
 20
-4407.628830113082
 30
0.0
 10
9209.410850277796
 20
-4408.095468296675
 30
0.0
  0
SPLINE
  5
13045B
330
18
100
AcDbEntity
  8
姿図
100
AcDbSpline
210
0.0
220
0.0
230
1.0
 70
     8
 71
     3
 72
     8
 73
     4
 74
     0
 42
0.0000000001
 43
0.0000000001
 40
0.0
 40
0.0
 40
0.0
 40
0.0
 40
1.0
 40
1.0
 40
1.0
 40
1.0
 10
9207.175844581179
 20
-4406.183095792335
 30
0.0
 10
9207.580471046023
 20
-4405.779847365685
 30
0.0
 10
9208.359062625886
 20
-4405.845476434697
 30
0.0
 10
9208.956786692725
 20
-4406.346996210087
 30
0.0
  0
SPLINE
  5
13045C
330
18
100
AcDbEntity
  8
姿図
100
AcDbSpline
210
0.0
220
0.0
230
1.0
 70
     8
 71
     3
 72
     8
 73
     4
 74
     0
 42
0.0000000001
 43
0.0000000001
 40
0.0
 40
0.0
 40
0.0
 40
0.0
 40
1.0
 40
1.0
 40
1.0
 40
1.0
 10
9212.312184707629
 20
-4405.871871076247
 30
0.0
 10
9212.344740859974
 20
-4405.871871076247
 30
0.0
 10
9212.635679173777
 20
-4406.371582176507
 30
0.0
 10
9212.341640274035
 20
-4406.842009965135
 30
0.0
  0
LINE
  5
13045D
330
18
100
AcDbEntity
  8
姿図
100
AcDbLine
 10
9212.312184707633
 20
-4405.84241550984
 30
0.0
 11
9211.283306940705
 21
-4404.960471065396
 31
0.0
  0
LINE
  5
13045E
330
18
100
AcDbEntity
  8
姿図
100
AcDbLine
 10
9210.989268040965
 20
-4405.254509965136
 30
0.0
 11
9211.283306940705
 21
-4404.960471065396
 31
0.0
  0
ELLIPSE
  5
13045F
330
18
100
AcDbEntity
  8
姿図
100
AcDbEllipse
 10
9208.532656577204
 20
-4406.879173932693
 30
0.0
 11
-1.159877522786457
 21
0.9731964111328125
 31
0.0
210
0.0
220
0.0
230
1.0
 40
0.7351229721554963
 41
0.0
 42
6.283185307179585
  0
ELLIPSE
  5
130460
330
18
100
AcDbEntity
  8
姿図
100
AcDbEllipse
 10
9206.310358872711
 20
-4410.250713227562
 30
0.0
 11
-0.6214952256944444
 21
0.5215874565972224
 31
0.0
210
0.0
220
0.0
230
1.0
 40
0.7351581471724162
 41
0.0
 42
6.283185307179585
  0
LINE
  5
130461
330
18
100
AcDbEntity
  8
姿図
100
AcDbLine
 10
9213.017051244086
 20
-4404.037874494215
 30
0.0
 11
9212.002599797342
 21
-4405.577042206527
 31
0.0
  0
LINE
  5
130462
330
18
100
AcDbEntity
  8
姿図
100
AcDbLine
 10
9210.989268040965
 20
-4405.254509965136
 30
0.0
 11
9209.078445829593
 21
-4403.578815520692
 31
0.0
  0
SPLINE
  5
130463
330
18
100
AcDbEntity
  8
姿図
100
AcDbSpline
210
0.0
220
0.0
230
1.0
 70
     8
 71
     3
 72
     8
 73
     4
 74
     0
 42
0.0000000001
 43
0.0000000001
 40
0.0
 40
0.0
 40
0.0
 40
0.0
 40
1.0
 40
1.0
 40
1.0
 40
1.0
 10
9207.549684707633
 20
-4402.785065520691
 30
0.0
 10
9207.931918051814
 20
-4402.138248843174
 30
0.0
 10
9208.343434707634
 20
-4402.706172834061
 30
0.0
 10
9208.343434707634
 20
-4402.608676631802
 30
0.0
  0
SPLINE
  5
130464
330
18
100
AcDbEntity
  8
姿図
100
AcDbSpline
210
0.0
220
0.0
230
1.0
 70
     8
 71
     3
 72
     8
 73
     4
 74
     0
 42
0.0000000001
 43
0.0000000001
 40
0.0
 40
0.0
 40
0.0
 40
0.0
 40
1.0
 40
1.0
 40
1.0
 40
1.0
 10
9207.338328099559
 20
-4402.575517587748
 30
0.0
 10
9207.720389188965
 20
-4401.958328731412
 30
0.0
 10
9208.131905844785
 20
-4402.526252722297
 30
0.0
 10
9208.131905844785
 20
-4402.428756520039
 30
0.0
  0
SPLINE
  5
130465
330
18
100
AcDbEntity
  8
姿図
100
AcDbSpline
210
0.0
220
0.0
230
1.0
 70
     8
 71
     3
 72
     8
 73
     4
 74
     0
 42
0.0000000001
 43
0.0000000001
 40
0.0
 40
0.0
 40
0.0
 40
0.0
 40
1.0
 40
1.0
 40
1.0
 40
1.0
 10
9184.83892624409
 20
-4412.173811994215
 30
0.0
 10
9185.478335966314
 20
-4411.490305049771
 30
0.0
 10
9186.779204021865
 20
-4410.343777271994
 30
0.0
 10
9188.939967910755
 20
-4410.07919393866
 30
0.0
  0
SPLINE
  5
130466
330
18
100
AcDbEntity
  8
姿図
100
AcDbSpline
210
0.0
220
0.0
230
1.0
 70
     8
 71
     3
 72
     8
 73
     4
 74
     0
 42
0.0000000001
 43
0.0000000001
 40
0.0
 40
0.0
 40
0.0
 40
0.0
 40
1.0
 40
1.0
 40
1.0
 40
1.0
 10
9185.875210966313
 20
-4410.894992549771
 30
0.0
 10
9186.602815132976
 20
-4410.321728660882
 30
0.0
 10
9187.484759577424
 20
-4409.792561994215
 30
0.0
 10
9189.270697077425
 20
-4409.351589771994
 30
0.0
  0
SPLINE
  5
130467
330
18
100
AcDbEntity
  8
姿図
100
AcDbSpline
210
0.0
220
0.0
230
1.0
 70
     8
 71
     3
 72
     8
 73
     4
 74
     0
 42
0.0000000001
 43
0.0000000001
 40
8.718707976915393
 40
8.718707976915393
 40
8.718707976915393
 40
8.718707976915393
 40
9.0
 40
9.0
 40
9.0
 40
9.0
 10
9184.676307635772
 20
-4412.388773164575
 30
0.0
 10
9184.977618331037
 20
-4411.964190276363
 30
0.0
 10
9185.217204232818
 20
-4411.645586224454
 30
0.0
 10
9185.875210966313
 20
-4410.894992549771
 30
0.0
  0
SPLINE
  5
130468
330
18
100
AcDbEntity
  8
姿図
100
AcDbSpline
210
0.0
220
0.0
230
1.0
 70
     8
 71
     3
 72
     8
 73
     4
 74
     0
 42
0.0000000001
 43
0.0000000001
 40
7.0
 40
7.0
 40
7.0
 40
7.0
 40
8.0
 40
8.0
 40
8.0
 40
8.0
 10
9177.976382163143
 20
-4418.926113019606
 30
0.0
 10
9180.447376900557
 20
-4415.80029175767
 30
0.0
 10
9182.835517091529
 20
-4412.535977657193
 30
0.0
 10
9184.586142362798
 20
-4412.41445191392
 30
0.0
  0
SPLINE
  5
130469
330
18
100
AcDbEntity
  8
姿図
100
AcDbSpline
210
0.0
220
0.0
230
1.0
 70
     8
 71
     3
 72
     8
 73
     4
 74
     0
 42
0.0000000001
 43
0.0000000001
 40
0.0
 40
0.0
 40
0.0
 40
0.0
 40
1.0
 40
1.0
 40
1.0
 40
1.0
 10
9198.377462485408
 20
-4414.999996076247
 30
0.0
 10
9193.531418919871
 20
-4412.202061777201
 30
0.0
 10
9187.397340279462
 20
-4411.588662525899
 30
0.0
 10
9184.586142362798
 20
-4412.41445191392
 30
0.0
  0
SPLINE
  5
13046A
330
18
100
AcDbEntity
  8
姿図
100
AcDbSpline
210
0.0
220
0.0
230
1.0
 70
     8
 71
     3
 72
     8
 73
     4
 74
     0
 42
0.0000000001
 43
0.0000000001
 40
0.0106763948050698
 40
0.0106763948050698
 40
0.0106763948050698
 40
0.0106763948050698
 40
1.0
 40
1.0
 40
1.0
 40
1.0
 10
9199.578747402913
 20
-4413.168036577057
 30
0.0
 10
9197.851557269597
 20
-4411.856853497211
 30
0.0
 10
9192.931785603176
 20
-4409.446610807076
 30
0.0
 10
9188.939967910755
 20
-4410.07919393866
 30
0.0
  0
SPLINE
  5
13046B
330
18
100
AcDbEntity
  8
姿図
100
AcDbSpline
210
0.0
220
0.0
230
1.0
 70
     8
 71
     3
 72
     8
 73
     4
 74
     0
 42
0.0000000001
 43
0.0000000001
 40
0.0
 40
0.0
 40
0.0
 40
0.0
 40
0.9548759970193254
 40
0.9548759970193254
 40
0.9548759970193254
 40
0.9548759970193254
 10
9189.270697077425
 20
-4409.351589771994
 30
0.0
 10
9195.186783831871
 20
-4409.098945497784
 30
0.0
 10
9198.589912740191
 20
-4411.520088371856
 30
0.0
 10
9200.075175458312
 20
-4412.41098379257
 30
0.0
  0
LINE
  5
13046C
330
18
100
AcDbEntity
  8
姿図
100
AcDbLine
 10
9204.041697035886
 20
-4429.960797758751
 30
0.0
 11
9202.660307061867
 21
-4431.312779984661
 31
0.0
  0
LINE
  5
13046D
330
18
100
AcDbEntity
  8
姿図
100
AcDbLine
 10
9203.928600287751
 20
-4429.48998336836
 30
0.0
 11
9202.554683730115
 21
-4430.778362207602
 31
0.0
  0
LINE
  5
13046E
330
18
100
AcDbEntity
  8
姿図
100
AcDbLine
 10
9203.761142248264
 20
-4428.919395382767
 30
0.0
 11
9202.364410908199
 21
-4430.115918137843
 31
0.0
  0
LINE
  5
13046F
330
18
100
AcDbEntity
  8
姿図
100
AcDbLine
 10
9203.566759709707
 20
-4428.363220441596
 30
0.0
 11
9202.175915050968
 21
-4429.592564922034
 31
0.0
  0
LINE
  5
130470
330
18
100
AcDbEntity
  8
姿図
100
AcDbLine
 10
9203.345642514445
 20
-4427.814461566916
 30
0.0
 11
9201.92848886371
 21
-4429.013332294688
 31
0.0
  0
SPLINE
  5
130471
330
18
100
AcDbEntity
  8
姿図
100
AcDbSpline
210
0.0
220
0.0
230
1.0
 70
     8
 71
     3
 72
     8
 73
     4
 74
     0
 42
0.0000000001
 43
0.0000000001
 40
35.0
 40
35.0
 40
35.0
 40
35.0
 40
36.0
 40
36.0
 40
36.0
 40
36.0
 10
9208.982155410755
 20
-4423.080467538921
 30
0.0
 10
9209.221417292265
 20
-4424.18186456583
 30
0.0
 10
9209.946609892092
 20
-4426.745876881369
 30
0.0
 10
9207.64166875711
 20
-4429.25804050984
 30
0.0
  0
SPLINE
  5
130472
330
18
100
AcDbEntity
  8
姿図
100
AcDbSpline
210
0.0
220
0.0
230
1.0
 70
     8
 71
     3
 72
     8
 73
     4
 74
     0
 42
0.0000000001
 43
0.0000000001
 40
0.3748330610719267
 40
0.3748330610719267
 40
0.3748330610719267
 40
0.3748330610719267
 40
0.9335741083362055
 40
0.9335741083362055
 40
0.9335741083362055
 40
0.9335741083362055
 10
9202.554035294417
 20
-4430.79406447111
 30
0.0
 10
9201.900326987997
 20
-4427.962177577331
 30
0.0
 10
9199.429250747524
 20
-4425.073325469859
 30
0.0
 10
9198.221452848898
 20
-4423.726631651801
 30
0.0
  0
LINE
  5
130473
330
18
100
AcDbEntity
  8
姿図
100
AcDbLine
 10
9199.803660291056
 20
-4422.506960953145
 30
0.0
 11
9198.539996749154
 21
-4424.085457432485
 31
0.0
  0
LINE
  5
130474
330
18
100
AcDbEntity
  8
姿図
100
AcDbLine
 10
9201.471321367533
 20
-4424.565138590309
 30
0.0
 11
9200.115355715764
 21
-4426.028277063519
 31
0.0
  0
LINE
  5
130475
330
18
100
AcDbEntity
  8
姿図
100
AcDbLine
 10
9201.162289217791
 20
-4424.121132727083
 30
0.0
 11
9199.767127949382
 21
-4425.567964135231
 31
0.0
  0
LINE
  5
130476
330
18
100
AcDbEntity
  8
姿図
100
AcDbLine
 10
9200.755558644031
 20
-4423.625269564094
 30
0.0
 11
9199.394469146911
 21
-4425.09733719099
 31
0.0
  0
LINE
  5
130477
330
18
100
AcDbEntity
  8
姿図
100
AcDbLine
 10
9200.302179509565
 20
-4423.076657253156
 30
0.0
 11
9198.980362119741
 21
-4424.596636815159
 31
0.0
  0
LINE
  5
130478
330
18
100
AcDbEntity
  8
姿図
100
AcDbLine
 10
9202.213438278711
 20
-4425.668717434517
 30
0.0
 11
9200.804382030211
 21
-4427.015096567532
 31
0.0
  0
LINE
  5
130479
330
18
100
AcDbEntity
  8
姿図
100
AcDbLine
 10
9201.826082492264
 20
-4425.073014680771
 30
0.0
 11
9200.445786682275
 21
-4426.487142072629
 31
0.0
  0
LINE
  5
13047A
330
18
100
AcDbEntity
  8
姿図
100
AcDbLine
 10
9203.147952881582
 20
-4427.374816305421
 30
0.0
 11
9201.711600381974
 21
-4428.565987505293
 31
0.0
  0
LINE
  5
13047B
330
18
100
AcDbEntity
  8
姿図
100
AcDbLine
 10
9202.848645313073
 20
-4426.773584654855
 30
0.0
 11
9201.423380533151
 21
-4428.028539185346
 31
0.0
  0
LINE
  5
13047C
330
18
100
AcDbEntity
  8
姿図
100
AcDbLine
 10
9202.551079810048
 20
-4426.232293922288
 30
0.0
 11
9201.159104846269
 21
-4427.576674742922
 31
0.0
  0
LINE
  5
13047D
330
18
100
AcDbEntity
  8
姿図
100
AcDbLine
 10
9186.44184304639
 20
-4428.964173864875
 30
0.0
 11
9187.941148601945
 21
-4429.287668331022
 31
0.0
  0
LINE
  5
13047E
330
18
100
AcDbEntity
  8
姿図
100
AcDbLine
 10
9186.44184304639
 20
-4429.493340531541
 30
0.0
 11
9187.941148601945
 21
-4429.816834997687
 31
0.0
  0
LINE
  5
13047F
330
18
100
AcDbEntity
  8
姿図
100
AcDbLine
 10
9186.44184304639
 20
-4430.110701642653
 30
0.0
 11
9187.941148601945
 21
-4430.434196108798
 31
0.0
  0
LINE
  5
130480
330
18
100
AcDbEntity
  8
姿図
100
AcDbLine
 10
9186.559493057242
 20
-4430.75751832017
 30
0.0
 11
9188.058798612798
 21
-4431.081012786317
 31
0.0
  0
LINE
  5
130481
330
18
100
AcDbEntity
  8
姿図
100
AcDbLine
 10
9186.559493057242
 20
-4431.345423864876
 30
0.0
 11
9188.058798612798
 21
-4431.668918331021
 31
0.0
  0
LINE
  5
130482
330
18
100
AcDbEntity
  8
姿図
100
AcDbLine
 10
9194.518955540965
 20
-4431.734891909579
 30
0.0
 11
9193.063747207633
 21
-4431.426211354025
 31
0.0
  0
LINE
  5
130483
330
18
100
AcDbEntity
  8
姿図
100
AcDbLine
 10
9194.430761096521
 20
-4431.073433576245
 30
0.0
 11
9192.975552763188
 21
-4430.764753020691
 31
0.0
  0
LINE
  5
130484
330
18
100
AcDbEntity
  8
姿図
100
AcDbLine
 10
9194.386663874299
 20
-4430.456072465136
 30
0.0
 11
9192.931455540966
 21
-4430.147391909581
 31
0.0
  0
LINE
  5
130485
330
18
100
AcDbEntity
  8
姿図
100
AcDbLine
 10
9194.386663874299
 20
-4429.882808576247
 30
0.0
 11
9192.931455540966
 21
-4429.574128020691
 31
0.0
  0
LINE
  5
130486
330
18
100
AcDbEntity
  8
姿図
100
AcDbLine
 10
9194.380957878378
 20
-4429.371312888905
 30
0.0
 11
9192.925749545045
 21
-4429.062632333349
 31
0.0
  0
SPLINE
  5
130487
330
18
100
AcDbEntity
  8
姿図
100
AcDbSpline
210
0.0
220
0.0
230
1.0
 70
     8
 71
     3
 72
     8
 73
     4
 74
     0
 42
0.0000000001
 43
0.0000000001
 40
0.0
 40
0.0
 40
0.0
 40
0.0
 40
1.0
 40
1.0
 40
1.0
 40
1.0
 10
9195.004024985408
 20
-4429.92690579847
 30
0.0
 10
9195.004024985408
 20
-4429.609957013746
 30
0.0
 10
9194.777165447652
 20
-4429.35364190958
 30
0.0
 10
9194.496906929854
 20
-4429.35364190958
 30
0.0
  0
LINE
  5
130488
330
18
100
AcDbEntity
  8
姿図
100
AcDbLine
 10
9192.925598878641
 20
-4428.586246890048
 30
0.0
 11
9194.33670998975
 21
-4428.894927445604
 31
0.0
  0
SPLINE
  5
130489
330
18
100
AcDbEntity
  8
姿図
100
AcDbSpline
210
0.0
220
0.0
230
1.0
 70
     8
 71
     3
 72
     8
 73
     4
 74
     0
 42
0.0000000001
 43
0.0000000001
 40
0.0
 40
0.0
 40
0.0
 40
0.0
 40
1.0
 40
1.0
 40
1.0
 40
1.0
 10
9192.514965014959
 20
-4428.736098915583
 30
0.0
 10
9192.555100377376
 20
-4428.534905339194
 30
0.0
 10
9192.846899965051
 20
-4428.484606945096
 30
0.0
 10
9192.917352167739
 20
-4428.555059147788
 30
0.0
  0
LINE
  5
13048A
330
18
100
AcDbEntity
  8
姿図
100
AcDbLine
 10
9186.471212485409
 20
-4427.288479420431
 30
0.0
 11
9187.970518040966
 21
-4427.611801631801
 31
0.0
  0
LINE
  5
13048B
330
18
100
AcDbEntity
  8
姿図
100
AcDbLine
 10
9186.44184304639
 20
-4428.346812753765
 30
0.0
 11
9187.941148601945
 21
-4428.670307219911
 31
0.0
  0
LINE
  5
13048C
330
18
100
AcDbEntity
  8
姿図
100
AcDbLine
 10
9186.44184304639
 20
-4427.75890720906
 30
0.0
 11
9187.941148601945
 21
-4428.082401675204
 31
0.0
  0
SPLINE
  5
13048D
330
18
100
AcDbEntity
  8
姿図
100
AcDbSpline
210
0.0
220
0.0
230
1.0
 70
     8
 71
     3
 72
     8
 73
     4
 74
     0
 42
0.0000000001
 43
0.0000000001
 40
0.0
 40
0.0
 40
0.0
 40
0.0
 40
1.0
 40
1.0
 40
1.0
 40
1.0
 10
9184.942451363447
 20
-4428.052773854024
 30
0.0
 10
9184.942451363447
 20
-4427.809033348382
 30
0.0
 10
9185.166038060495
 20
-4427.611801631801
 30
0.0
 10
9185.442248591096
 20
-4427.611801631801
 30
0.0
  0
LINE
  5
13048E
330
18
100
AcDbEntity
  8
姿図
100
AcDbLine
 10
9185.442248591096
 20
-4427.611801631801
 30
0.0
 11
9185.971415257762
 21
-4427.611801631801
 31
0.0
  0
SPLINE
  5
13048F
330
18
100
AcDbEntity
  8
姿図
100
AcDbSpline
210
0.0
220
0.0
230
1.0
 70
     8
 71
     3
 72
     8
 73
     4
 74
     0
 42
0.0000000001
 43
0.0000000001
 40
0.0
 40
0.0
 40
0.0
 40
0.0
 40
1.0
 40
1.0
 40
1.0
 40
1.0
 10
9185.971415257762
 20
-4427.611801631801
 30
0.0
 10
9185.971415257762
 20
-4427.465557328416
 30
0.0
 10
9186.168646974342
 20
-4427.34721829847
 30
0.0
 10
9186.412387479984
 20
-4427.34721829847
 30
0.0
  0
LINE
  5
130490
330
18
100
AcDbEntity
  8
姿図
100
AcDbLine
 10
9204.72746248541
 20
-4413.53005995971
 30
0.0
 11
9194.673295818743
 21
-4429.287496076247
 31
0.0
  0
SPLINE
  5
130491
330
18
100
AcDbEntity
  8
姿図
100
AcDbSpline
210
0.0
220
0.0
230
1.0
 70
     8
 71
     3
 72
     8
 73
     4
 74
     0
 42
0.0000000001
 43
0.0000000001
 40
0.0
 40
0.0
 40
0.0
 40
0.0
 40
0.986699542059012
 40
0.986699542059012
 40
0.986699542059012
 40
0.986699542059012
 10
9208.982155410755
 20
-4423.080467538921
 30
0.0
 10
9208.576112114911
 20
-4421.398081785926
 30
0.0
 10
9207.254074422476
 20
-4418.742514875217
 30
0.0
 10
9204.843081074029
 20
-4416.370173277303
 30
0.0
  0
SPLINE
  5
130492
330
18
100
AcDbEntity
  8
姿図
100
AcDbSpline
210
0.0
220
0.0
230
1.0
 70
     8
 71
     3
 72
     8
 73
     4
 74
     0
 42
0.0000000001
 43
0.0000000001
 40
0.0
 40
0.0
 40
0.0
 40
0.0
 40
1.0
 40
1.0
 40
1.0
 40
1.0
 10
9208.276599855201
 20
-4428.43466268866
 30
0.0
 10
9209.941269994091
 20
-4424.598204355326
 30
0.0
 10
9206.920610271867
 20
-4419.240391855327
 30
0.0
 10
9204.484238744091
 20
-4417.388308521993
 30
0.0
  0
SPLINE
  5
130493
330
18
100
AcDbEntity
  8
姿図
100
AcDbSpline
210
0.0
220
0.0
230
1.0
 70
    24
 71
     3
 72
     8
 73
     4
 74
     0
 42
0.0000000001
 43
0.0000000001
 40
0.0
 40
0.0
 40
0.0
 40
0.0
 40
1.0
 40
1.0
 40
1.0
 40
1.0
 10
9212.61159420446
 20
-4405.632127791159
 30
0.0
 10
9212.61159420446
 20
-4405.632127791159
 30
0.0
 10
9213.703661668288
 20
-4403.513352235298
 30
0.0
 10
9213.703661668288
 20
-4403.513352235298
 30
0.0
  0
SPLINE
  5
130494
330
18
100
AcDbEntity
  8
姿図
100
AcDbSpline
210
0.0
220
0.0
230
1.0
 70
     8
 71
     3
 72
     8
 73
     4
 74
     0
 42
0.0000000001
 43
0.0000000001
 40
1.0
 40
1.0
 40
1.0
 40
1.0
 40
2.0
 40
2.0
 40
2.0
 40
2.0
 10
9213.703661668288
 20
-4403.513352235298
 30
0.0
 10
9213.703661668288
 20
-4403.513352235298
 30
0.0
 10
9213.727804685367
 20
-4403.362509587064
 30
0.0
 10
9213.662431791888
 20
-4403.276525251193
 30
0.0
  0
SPLINE
  5
130495
330
18
100
AcDbEntity
  8
姿図
100
AcDbSpline
210
-0.0000000025636992
220
0.0000000018006263
230
-1.0
 70
     8
 71
     3
 72
     8
 73
     4
 74
     0
 42
0.0000000001
 43
0.0000000001
 40
1.471451898813355
 40
1.471451898813355
 40
1.471451898813355
 40
1.471451898813355
 40
1.773254205883106
 40
1.773254205883106
 40
1.773254205883106
 40
1.773254205883106
 10
9199.208184978131
 20
-4400.478700594371
 30
0.0000000000000015
 10
9200.298841271324
 20
-4398.923719607359
 30
0.0000000000000025
 10
9201.510712950076
 20
-4397.197513732852
 30
0.000000000000004
 10
9202.552044013522
 20
-4395.718090851686
 30
0.0000000000000066
  0
SPLINE
  5
130496
330
18
100
AcDbEntity
  8
姿図
100
AcDbSpline
210
0.0
220
0.0
230
1.0
 70
     8
 71
     3
 72
     8
 73
     4
 74
     0
 42
0.0000000001
 43
0.0000000001
 40
0.0
 40
0.0
 40
0.0
 40
0.0
 40
1.0
 40
1.0
 40
1.0
 40
1.0
 10
9217.648811034107
 20
-4406.120127106312
 30
0.0
 10
9217.648811034107
 20
-4406.120127106312
 30
0.0
 10
9218.066403856679
 20
-4406.41251475357
 30
0.0
 10
9217.969817728173
 20
-4406.659555798477
 30
0.0
  0
SPLINE
  5
130497
330
18
100
AcDbEntity
  8
姿図
100
AcDbSpline
210
0.0
220
0.0
230
1.0
 70
     8
 71
     3
 72
     8
 73
     4
 74
     0
 42
0.0000000001
 43
0.0000000001
 40
1.0
 40
1.0
 40
1.0
 40
1.0
 40
1.88888372913265
 40
1.88888372913265
 40
1.88888372913265
 40
1.88888372913265
 10
9217.969817728173
 20
-4406.659555798477
 30
0.0
 10
9217.969817728173
 20
-4406.659555798477
 30
0.0
 10
9213.826334584329
 20
-4412.985446144899
 30
0.0
 10
9211.114401744238
 20
-4416.979088728278
 30
0.0
  0
SPLINE
  5
130498
330
18
100
AcDbEntity
  8
姿図
100
AcDbSpline
210
0.0
220
0.0
230
1.0
 70
     8
 71
     3
 72
    11
 73
     7
 74
     0
 42
0.0000000001
 43
0.0000000001
 40
0.0
 40
0.0
 40
0.0
 40
0.0
 40
1.0
 40
1.0
 40
1.0
 40
1.788176320105198
 40
1.788176320105198
 40
1.788176320105198
 40
1.788176320105198
 10
9218.010378246109
 20
-4404.064419335531
 30
0.0
 10
9218.010378246109
 20
-4404.064419335531
 30
0.0
 10
9218.40826193925
 20
-4404.185148481121
 30
0.0
 10
9218.061920835333
 20
-4404.76510914778
 30
0.0
 10
9217.788942978547
 20
-4405.222220411832
 30
0.0
 10
9212.500392577291
 20
-4413.538054016017
 30
0.0
 10
9208.786837467121
 20
-4422.407076532957
 30
0.0
  0
SPLINE
  5
130499
330
18
100
AcDbEntity
  8
姿図
100
AcDbSpline
210
0.0
220
0.0
230
1.0
 70
    24
 71
     3
 72
     8
 73
     4
 74
     0
 42
0.0000000001
 43
0.0000000001
 40
0.0
 40
0.0
 40
0.0
 40
0.0
 40
1.0
 40
1.0
 40
1.0
 40
1.0
 10
9216.482686722299
 20
-4403.67303469233
 30
0.0
 10
9216.482686722299
 20
-4403.67303469233
 30
0.0
 10
9218.236399026531
 20
-4404.097352527705
 30
0.0
 10
9218.236399026531
 20
-4404.097352527705
 30
0.0
  0
SPLINE
  5
13049A
330
18
100
AcDbEntity
  8
姿図
100
AcDbSpline
210
0.0
220
0.0
230
1.0
 70
     8
 71
     3
 72
     8
 73
     4
 74
     0
 42
0.0000000001
 43
0.0000000001
 40
1.0
 40
1.0
 40
1.0
 40
1.0
 40
2.0
 40
2.0
 40
2.0
 40
2.0
 10
9218.236399026531
 20
-4404.097352527705
 30
0.0
 10
9218.236399026531
 20
-4404.097352527705
 30
0.0
 10
9218.676619320078
 20
-4404.239398009222
 30
0.0
 10
9218.481727105915
 20
-4404.626475498677
 30
0.0
  0
SPLINE
  5
13049B
330
18
100
AcDbEntity
  8
姿図
100
AcDbSpline
210
0.0
220
0.0
230
1.0
 70
     8
 71
     3
 72
     8
 73
     4
 74
     0
 42
0.0000000001
 43
0.0000000001
 40
2.0
 40
2.0
 40
2.0
 40
2.0
 40
2.733284138265211
 40
2.733284138265211
 40
2.733284138265211
 40
2.733284138265211
 10
9218.481727105915
 20
-4404.626475498677
 30
0.0
 10
9218.481727105915
 20
-4404.626475498677
 30
0.0
 10
9213.343346181122
 20
-4412.610519290001
 30
0.0
 10
9208.982155410755
 20
-4423.080467538921
 30
0.0
  0
SPLINE
  5
13049C
330
18
100
AcDbEntity
  8
姿図
100
AcDbSpline
210
0.0
220
0.0
230
1.0
 70
     8
 71
     3
 72
    11
 73
     7
 74
     0
 42
0.0000000001
 43
0.0000000001
 40
0.0
 40
0.0
 40
0.0
 40
0.0
 40
1.0
 40
1.0
 40
1.0
 40
1.768789991941922
 40
1.768789991941922
 40
1.768789991941922
 40
1.768789991941922
 10
9217.29588667304
 20
-4401.468183140205
 30
0.0
 10
9217.29588667304
 20
-4401.468183140205
 30
0.0
 10
9217.704682328896
 20
-4401.296207476831
 30
0.0
 10
9217.045433795723
 20
-4402.231623575828
 30
0.0
 10
9216.53861012122
 20
-4402.950762111042
 30
0.0
 10
9211.781145495887
 20
-4409.568048745526
 30
0.0
 10
9207.346817919731
 20
-4419.462200205699
 30
0.0
  0
SPLINE
  5
13049D
330
18
100
AcDbEntity
  8
姿図
100
AcDbSpline
210
0.0
220
0.0
230
1.0
 70
     8
 71
     3
 72
     8
 73
     4
 74
     0
 42
0.0000000001
 43
0.0000000001
 40
0.0
 40
0.0
 40
0.0
 40
0.0
 40
1.0
 40
1.0
 40
1.0
 40
1.0
 10
9215.287929380421
 20
-4399.189837877968
 30
0.0
 10
9215.287929380421
 20
-4399.189837877968
 30
0.0
 10
9215.785430294276
 20
-4399.062525013675
 30
0.0
 10
9215.535879729916
 20
-4399.502949718271
 30
0.0
  0
SPLINE
  5
13049E
330
18
100
AcDbEntity
  8
姿図
100
AcDbSpline
210
0.0
220
0.0
230
1.0
 70
     8
 71
     3
 72
     8
 73
     4
 74
     0
 42
0.0000000001
 43
0.0000000001
 40
1.0
 40
1.0
 40
1.0
 40
1.0
 40
1.309625444955235
 40
1.309625444955235
 40
1.309625444955235
 40
1.309625444955235
 10
9215.535879729916
 20
-4399.502949718271
 30
0.0
 10
9215.458612525386
 20
-4399.6393164134
 30
0.0
 10
9214.742865219374
 20
-4400.746290290732
 30
0.0
 10
9213.246750290696
 20
-4403.059004413473
 30
0.0
  0
SPLINE
  5
13049F
330
18
100
AcDbEntity
  8
姿図
100
AcDbSpline
210
0.0
220
0.0
230
1.0
 70
     8
 71
     3
 72
     8
 73
     4
 74
     0
 42
0.0000000001
 43
0.0000000001
 40
1.612607606405297
 40
1.612607606405297
 40
1.612607606405297
 40
1.612607606405297
 40
1.648289524194878
 40
1.648289524194878
 40
1.648289524194878
 40
1.648289524194878
 10
9206.480037931283
 20
-4413.532268115869
 30
0.0
 10
9206.115961607414
 20
-4414.096678958194
 30
0.0
 10
9205.739677460689
 20
-4414.680158698946
 30
0.0
 10
9205.350968331613
 20
-4415.283067210352
 30
0.0
  0
SPLINE
  5
1304A0
330
18
100
AcDbEntity
  8
姿図
100
AcDbSpline
210
0.0
220
0.0
230
1.0
 70
    24
 71
     3
 72
     8
 73
     4
 74
     0
 42
0.0000000001
 43
0.0000000001
 40
0.0
 40
0.0
 40
0.0
 40
0.0
 40
1.0
 40
1.0
 40
1.0
 40
1.0
 10
9214.613659150222
 20
-4401.708506163933
 30
0.0
 10
9214.613659150222
 20
-4401.708506163933
 30
0.0
 10
9217.29588667304
 20
-4401.468183140205
 30
0.0
 10
9217.29588667304
 20
-4401.468183140205
 30
0.0
  0
SPLINE
  5
1304A1
330
18
100
AcDbEntity
  8
姿図
100
AcDbSpline
210
0.0
220
0.0
230
1.0
 70
     8
 71
     3
 72
    11
 73
     7
 74
     0
 42
0.0000000001
 43
0.0000000001
 40
1.0
 40
1.0
 40
1.0
 40
1.0
 40
2.0
 40
2.0
 40
2.0
 40
2.814388548252563
 40
2.814388548252563
 40
2.814388548252563
 40
2.814388548252563
 10
9217.29588667304
 20
-4401.468183140205
 30
0.0
 10
9217.29588667304
 20
-4401.468183140205
 30
0.0
 10
9217.951723373804
 20
-4401.392793605338
 30
0.0
 10
9217.639020355596
 20
-4401.855754120524
 30
0.0
 10
9217.384358598565
 20
-4402.232783862384
 30
0.0
 10
9211.400340995533
 20
-4411.090620091626
 30
0.0
 10
9207.672645494076
 20
-4419.998083608862
 30
0.0
  0
SPLINE
  5
1304A2
330
18
100
AcDbEntity
  8
姿図
100
AcDbSpline
210
0.0
220
0.0
230
1.0
 70
     8
 71
     3
 72
     8
 73
     4
 74
     0
 42
0.0000000001
 43
0.0000000001
 40
1.0
 40
1.0
 40
1.0
 40
1.0
 40
1.201957035102942
 40
1.201957035102942
 40
1.201957035102942
 40
1.201957035102942
 10
9212.193705772007
 20
-4401.109209654868
 30
0.0
 10
9212.000768818468
 20
-4400.810726535768
 30
0.0
 10
9211.779625107014
 20
-4400.572768843865
 30
0.0
 10
9211.549536994885
 20
-4400.383063632236
 30
0.0
  0
SPLINE
  5
1304A3
330
18
100
AcDbEntity
  8
姿図
100
AcDbSpline
210
0.0
220
0.0
230
1.0
 70
     8
 71
     3
 72
     8
 73
     4
 74
     0
 42
0.0000000001
 43
0.0000000001
 40
1.371408514633379
 40
1.371408514633379
 40
1.371408514633379
 40
1.371408514633379
 40
2.0
 40
2.0
 40
2.0
 40
2.0
 10
9210.962860144931
 20
-4400.000208529728
 30
0.0
 10
9210.242201119005
 20
-4399.634884464318
 30
0.0
 10
9209.591464017604
 20
-4399.63725466181
 30
0.0
 10
9209.591464017604
 20
-4399.63725466181
 30
0.0
  0
SPLINE
  5
1304A4
330
18
100
AcDbEntity
  8
姿図
100
AcDbSpline
210
0.0
220
0.0
230
1.0
 70
    24
 71
     3
 72
     8
 73
     4
 74
     0
 42
0.0000000001
 43
0.0000000001
 40
2.0
 40
2.0
 40
2.0
 40
2.0
 40
3.0
 40
3.0
 40
3.0
 40
3.0
 10
9209.591464017604
 20
-4399.63725466181
 30
0.0
 10
9209.591464017604
 20
-4399.63725466181
 30
0.0
 10
9208.044990013391
 20
-4401.904409176644
 30
0.0
 10
9208.044990013391
 20
-4401.904409176644
 30
0.0
  0
SPLINE
  5
1304A5
330
18
100
AcDbEntity
  8
姿図
100
AcDbSpline
210
0.0
220
0.0
230
1.0
 70
    24
 71
     3
 72
     8
 73
     4
 74
     0
 42
0.0000000001
 43
0.0000000001
 40
0.1253663450285614
 40
0.1253663450285614
 40
0.1253663450285614
 40
0.1253663450285614
 40
1.0
 40
1.0
 40
1.0
 40
1.0
 10
9211.897076141859
 20
-4400.718254994026
 30
0.0
 10
9212.637639366596
 20
-4400.377624020705
 30
0.0
 10
9215.591235982019
 20
-4399.019081689257
 30
0.0
 10
9215.591235982019
 20
-4399.019081689257
 30
0.0
  0
SPLINE
  5
1304A6
330
18
100
AcDbEntity
  8
姿図
100
AcDbSpline
210
0.0
220
0.0
230
1.0
 70
     8
 71
     3
 72
    11
 73
     7
 74
     0
 42
0.0000000001
 43
0.0000000001
 40
1.0
 40
1.0
 40
1.0
 40
1.0
 40
2.0
 40
2.0
 40
2.0
 40
2.466205817988146
 40
2.466205817988146
 40
2.466205817988146
 40
2.466205817988146
 10
9215.591235982019
 20
-4399.019081689257
 30
0.0
 10
9215.591235982019
 20
-4399.019081689257
 30
0.0
 10
9216.518348405164
 20
-4398.675941015079
 30
0.0
 10
9215.987921290759
 20
-4399.568816102617
 30
0.0
 10
9215.740633084008
 20
-4399.985079663165
 30
0.0
 10
9214.369866921757
 20
-4402.167155296682
 30
0.0
 10
9212.143469620484
 20
-4405.697794507631
 30
0.0
  0
SPLINE
  5
1304A7
330
18
100
AcDbEntity
  8
姿図
100
AcDbSpline
210
0.0
220
0.0
230
1.0
 70
     8
 71
     3
 72
     8
 73
     4
 74
     0
 42
0.0000000001
 43
0.0000000001
 40
2.751548371221979
 40
2.751548371221979
 40
2.751548371221979
 40
2.751548371221979
 40
2.782200575022114
 40
2.782200575022114
 40
2.782200575022114
 40
2.782200575022114
 10
9207.155283546228
 20
-4413.600490425759
 30
0.0
 10
9206.94663535137
 20
-4413.930883030661
 30
0.0
 10
9206.734997078521
 20
-4414.266001289216
 30
0.0
 10
9205.218964593873
 20
-4416.751337475183
 30
0.0
  0
SPLINE
  5
1304A8
330
18
100
AcDbEntity
  8
姿図
100
AcDbSpline
210
0.0
220
0.0
230
1.0
 70
    24
 71
     3
 72
     8
 73
     4
 74
     0
 42
0.0000000001
 43
0.0000000001
 40
1.593919470979719
 40
1.593919470979719
 40
1.593919470979719
 40
1.593919470979719
 40
2.0
 40
2.0
 40
2.0
 40
2.0
 10
9210.41882600732
 20
-4400.783348872497
 30
0.0
 10
9212.054800744926
 20
-4398.428353609905
 30
0.0
 10
9213.152962286576
 20
-4396.847543607957
 30
0.0
 10
9213.152962286576
 20
-4396.847543607957
 30
0.0
  0
SPLINE
  5
1304A9
330
18
100
AcDbEntity
  8
姿図
100
AcDbSpline
210
0.0
220
0.0
230
1.0
 70
     8
 71
     3
 72
     8
 73
     4
 74
     0
 42
0.0000000001
 43
0.0000000001
 40
2.0
 40
2.0
 40
2.0
 40
2.0
 40
3.0
 40
3.0
 40
3.0
 40
3.0
 10
9213.152962286576
 20
-4396.847543607957
 30
0.0
 10
9213.152962286576
 20
-4396.847543607957
 30
0.0
 10
9213.515417482119
 20
-4396.642127239835
 30
0.0
 10
9213.582376376441
 20
-4397.063752158048
 30
0.0
  0
SPLINE
  5
1304AA
330
18
100
AcDbEntity
  8
姿図
100
AcDbSpline
210
0.0
220
0.0
230
1.0
 70
     8
 71
     3
 72
     8
 73
     4
 74
     0
 42
0.0000000001
 43
0.0000000001
 40
3.0
 40
3.0
 40
3.0
 40
3.0
 40
3.386391109152339
 40
3.386391109152339
 40
3.386391109152339
 40
3.386391109152339
 10
9213.582376376441
 20
-4397.063752158048
 30
0.0
 10
9213.594831806002
 20
-4397.142769152794
 30
0.0
 10
9212.657935472355
 20
-4398.643459223378
 30
0.0
 10
9211.303960715296
 20
-4400.743211072105
 30
0.0
  0
SPLINE
  5
1304AB
330
18
100
AcDbEntity
  8
姿図
100
AcDbSpline
210
0.0
220
0.0
230
1.0
 70
     8
 71
     3
 72
     8
 73
     4
 74
     0
 42
0.0000000001
 43
0.0000000001
 40
1.170835818589571
 40
1.170835818589571
 40
1.170835818589571
 40
1.170835818589571
 40
1.260682760381689
 40
1.260682760381689
 40
1.260682760381689
 40
1.260682760381689
 10
9206.245121665435
 20
-4402.160949153864
 30
0.0
 10
9207.240202576512
 20
-4400.692014099727
 30
0.0
 10
9208.705215756738
 20
-4398.527214519812
 30
0.0
 10
9210.859222892349
 20
-4395.340908599258
 30
0.0
  0
SPLINE
  5
1304AC
330
18
100
AcDbEntity
  8
姿図
100
AcDbSpline
210
0.0
220
0.0
230
1.0
 70
    24
 71
     3
 72
     8
 73
     4
 74
     0
 42
0.0000000001
 43
0.0000000001
 40
1.505104155280973
 40
1.505104155280973
 40
1.505104155280973
 40
1.505104155280973
 40
2.0
 40
2.0
 40
2.0
 40
2.0
 10
9205.595078885542
 20
-4402.046287378309
 30
0.0
 10
9208.701891780913
 20
-4397.63484996926
 30
0.0
 10
9210.346016087676
 20
-4395.300318822316
 30
0.0
 10
9210.346016087676
 20
-4395.300318822316
 30
0.0
  0
SPLINE
  5
1304AD
330
18
100
AcDbEntity
  8
姿図
100
AcDbSpline
210
0.0
220
0.0
230
1.0
 70
     8
 71
     3
 72
     8
 73
     4
 74
     0
 42
0.0000000001
 43
0.0000000001
 40
2.0
 40
2.0
 40
2.0
 40
2.0
 40
3.0
 40
3.0
 40
3.0
 40
3.0
 10
9210.346016087676
 20
-4395.300318822316
 30
0.0
 10
9210.346016087676
 20
-4395.300318822316
 30
0.0
 10
9210.909587796924
 20
-4394.828469480022
 30
0.0
 10
9211.036149937484
 20
-4395.32369707472
 30
0.0
  0
SPLINE
  5
1304AE
330
18
100
AcDbEntity
  8
姿図
100
AcDbSpline
210
0.0
220
0.0
230
1.0
 70
    24
 71
     3
 72
     8
 73
     4
 74
     0
 42
0.0000000001
 43
0.0000000001
 40
3.0
 40
3.0
 40
3.0
 40
3.0
 40
4.0
 40
4.0
 40
4.0
 40
4.0
 10
9211.036149937484
 20
-4395.32369707472
 30
0.0
 10
9211.036149937484
 20
-4395.32369707472
 30
0.0
 10
9210.064821914377
 20
-4399.660784445749
 30
0.0
 10
9210.064821914377
 20
-4399.660784445749
 30
0.0
  0
SPLINE
  5
1304AF
330
18
100
AcDbEntity
  8
姿図
100
AcDbSpline
210
0.0
220
0.0
230
1.0
 70
    24
 71
     3
 72
     8
 73
     4
 74
     0
 42
0.0000000001
 43
0.0000000001
 40
1.351290308159436
 40
1.351290308159436
 40
1.351290308159436
 40
1.351290308159436
 40
1.428242292534494
 40
1.428242292534494
 40
1.428242292534494
 40
1.428242292534494
 10
9202.855684524148
 20
-4401.473375727689
 30
0.0
 10
9203.092254849307
 20
-4401.138670175988
 30
0.0
 10
9203.340704801602
 20
-4400.787157033777
 30
0.0
 10
9203.594887095876
 20
-4400.427533632252
 30
0.0
  0
SPLINE
  5
1304B0
330
18
100
AcDbEntity
  8
姿図
100
AcDbSpline
210
0.0
220
0.0
230
1.0
 70
    24
 71
     3
 72
     8
 73
     4
 74
     0
 42
0.0000000001
 43
0.0000000001
 40
1.615278216396081
 40
1.615278216396081
 40
1.615278216396081
 40
1.615278216396081
 40
2.0
 40
2.0
 40
2.0
 40
2.0
 10
9203.594887095876
 20
-4400.427533632252
 30
0.0
 10
9206.690163148687
 20
-4396.048260457545
 30
0.0
 10
9207.688523782506
 20
-4394.635755121102
 30
0.0
 10
9207.688523782506
 20
-4394.635755121102
 30
0.0
  0
SPLINE
  5
1304B1
330
18
100
AcDbEntity
  8
姿図
100
AcDbSpline
210
0.0
220
0.0
230
1.0
 70
     8
 71
     3
 72
     8
 73
     4
 74
     0
 42
0.0000000001
 43
0.0000000001
 40
2.0
 40
2.0
 40
2.0
 40
2.0
 40
3.0
 40
3.0
 40
3.0
 40
3.0
 10
9207.688523782506
 20
-4394.635755121102
 30
0.0
 10
9207.688523782506
 20
-4394.635755121102
 30
0.0
 10
9207.904178970592
 20
-4394.314096355326
 30
0.0
 10
9208.181900921088
 20
-4395.261971752392
 30
0.0
  0
SPLINE
  5
1304B2
330
18
100
AcDbEntity
  8
姿図
100
AcDbSpline
210
0.0
220
0.0
230
1.0
 70
    24
 71
     3
 72
     8
 73
     4
 74
     0
 42
0.0000000001
 43
0.0000000001
 40
1.350323050295564
 40
1.350323050295564
 40
1.350323050295564
 40
1.350323050295564
 40
1.445359962748387
 40
1.445359962748387
 40
1.445359962748387
 40
1.445359962748387
 10
9202.451168092503
 20
-4401.376306685968
 30
0.0
 10
9202.750007281656
 20
-4400.951867507854
 30
0.0
 10
9203.067523965422
 20
-4400.500900816779
 30
0.0
 10
9203.391858926845
 20
-4400.040250174373
 30
0.0
  0
SPLINE
  5
1304B3
330
18
100
AcDbEntity
  8
姿図
100
AcDbSpline
210
0.0
220
0.0
230
1.0
 70
    24
 71
     3
 72
     8
 73
     4
 74
     0
 42
0.0000000001
 43
0.0000000001
 40
1.629831745831646
 40
1.629831745831646
 40
1.629831745831646
 40
1.629831745831646
 40
2.0
 40
2.0
 40
2.0
 40
2.0
 10
9203.391858926845
 20
-4400.040250174373
 30
0.0
 10
9206.463196599754
 20
-4395.678051089001
 30
0.0
 10
9207.40975497914
 20
-4394.333660944851
 30
0.0
 10
9207.40975497914
 20
-4394.333660944851
 30
0.0
  0
SPLINE
  5
1304B4
330
18
100
AcDbEntity
  8
姿図
100
AcDbSpline
210
0.0
220
0.0
230
1.0
 70
     8
 71
     3
 72
    11
 73
     7
 74
     0
 42
0.0000000001
 43
0.0000000001
 40
2.0
 40
2.0
 40
2.0
 40
2.0
 40
3.0
 40
3.0
 40
3.0
 40
4.0
 40
4.0
 40
4.0
 40
4.0
 10
9207.40975497914
 20
-4394.333660944851
 30
0.0
 10
9207.40975497914
 20
-4394.333660944851
 30
0.0
 10
9207.808040502749
 20
-4394.129858813311
 30
0.0
 10
9207.946924393095
 20
-4394.550422856944
 30
0.0
 10
9208.085808283442
 20
-4394.970986900579
 30
0.0
 10
9208.822722916442
 20
-4397.309375847316
 30
0.0
 10
9208.822722916442
 20
-4397.309375847316
 30
0.0
  0
SPLINE
  5
1304B5
330
18
100
AcDbEntity
  8
姿図
100
AcDbSpline
210
0.0
220
0.0
230
1.0
 70
    24
 71
     3
 72
     8
 73
     4
 74
     0
 42
0.0000000001
 43
0.0000000001
 40
1.393866661974843
 40
1.393866661974843
 40
1.393866661974843
 40
1.393866661974843
 40
1.573101002211188
 40
1.573101002211188
 40
1.573101002211188
 40
1.573101002211188
 10
9200.706664163588
 20
-4400.920131881099
 30
0.0
 10
9201.286790975929
 20
-4400.09341420782
 30
0.0
 10
9201.913142965985
 20
-4399.200822710829
 30
0.0
 10
9202.507656639433
 20
-4398.353602843739
 30
0.0
  0
SPLINE
  5
1304B6
330
18
100
AcDbEntity
  8
姿図
100
AcDbSpline
210
0.0
220
0.0
230
1.0
 70
    24
 71
     3
 72
     8
 73
     4
 74
     0
 42
0.0000000001
 43
0.0000000001
 40
1.799348189808346
 40
1.799348189808346
 40
1.799348189808346
 40
1.799348189808346
 40
2.0
 40
2.0
 40
2.0
 40
2.0
 10
9202.507656639433
 20
-4398.353602843739
 30
0.0
 10
9204.886133061421
 20
-4394.964122385838
 30
0.0
 10
9205.159056284479
 20
-4394.575189402296
 30
0.0
 10
9205.159056284479
 20
-4394.575189402296
 30
0.0
  0
SPLINE
  5
1304B7
330
18
100
AcDbEntity
  8
姿図
100
AcDbSpline
210
0.0
220
0.0
230
1.0
 70
     8
 71
     3
 72
     8
 73
     4
 74
     0
 42
0.0000000001
 43
0.0000000001
 40
2.0
 40
2.0
 40
2.0
 40
2.0
 40
3.0
 40
3.0
 40
3.0
 40
3.0
 10
9205.159056284479
 20
-4394.575189402296
 30
0.0
 10
9205.159056284479
 20
-4394.575189402296
 30
0.0
 10
9205.39614055915
 20
-4394.532193738545
 30
0.0
 10
9205.523710714006
 20
-4395.027928865054
 30
0.0
  0
SPLINE
  5
1304B8
330
18
100
AcDbEntity
  8
姿図
100
AcDbSpline
210
0.0
220
0.0
230
1.0
 70
    24
 71
     3
 72
     8
 73
     4
 74
     0
 42
0.0000000001
 43
0.0000000001
 40
1.391994967145552
 40
1.391994967145552
 40
1.391994967145552
 40
1.391994967145552
 40
1.583667207078013
 40
1.583667207078013
 40
1.583667207078013
 40
1.583667207078013
 10
9200.427562902843
 20
-4400.841422741441
 30
0.0
 10
9201.051715496971
 20
-4399.953852781361
 30
0.0
 10
9201.730081451291
 20
-4398.989189254107
 30
0.0
 10
9202.366450469785
 20
-4398.084247049821
 30
0.0
  0
SPLINE
  5
1304B9
330
18
100
AcDbEntity
  8
姿図
100
AcDbSpline
210
0.0
220
0.0
230
1.0
 70
    24
 71
     3
 72
     8
 73
     4
 74
     0
 42
0.0000000001
 43
0.0000000001
 40
1.815455566821609
 40
1.815455566821609
 40
1.815455566821609
 40
1.815455566821609
 40
2.0
 40
2.0
 40
2.0
 40
2.0
 10
9202.366450469785
 20
-4398.084247049821
 30
0.0
 10
9204.70017426699
 20
-4394.765598442057
 30
0.0
 10
9204.932831093008
 20
-4394.434751127277
 30
0.0
 10
9204.932831093008
 20
-4394.434751127277
 30
0.0
  0
SPLINE
  5
1304BA
330
18
100
AcDbEntity
  8
姿図
100
AcDbSpline
210
0.0
220
0.0
230
1.0
 70
     8
 71
     3
 72
     8
 73
     4
 74
     0
 42
0.0000000001
 43
0.0000000001
 40
2.0
 40
2.0
 40
2.0
 40
2.0
 40
3.0
 40
3.0
 40
3.0
 40
3.0
 10
9204.932831093008
 20
-4394.434751127277
 30
0.0
 10
9204.932831093008
 20
-4394.434751127277
 30
0.0
 10
9205.214116465148
 20
-4394.197310910025
 30
0.0
 10
9205.363556317932
 20
-4394.542954112033
 30
0.0
  0
SPLINE
  5
1304BB
330
18
100
AcDbEntity
  8
姿図
100
AcDbSpline
210
0.0
220
0.0
230
1.0
 70
    24
 71
     3
 72
     8
 73
     4
 74
     0
 42
0.0000000001
 43
0.0000000001
 40
3.0
 40
3.0
 40
3.0
 40
3.0
 40
4.0
 40
4.0
 40
4.0
 40
4.0
 10
9205.363556317932
 20
-4394.542954112033
 30
0.0
 10
9205.363556317932
 20
-4394.542954112033
 30
0.0
 10
9206.045858430931
 20
-4396.827942964114
 30
0.0
 10
9206.045858430931
 20
-4396.827942964114
 30
0.0
  0
SPLINE
  5
1304BC
330
18
100
AcDbEntity
  8
姿図
100
AcDbSpline
210
0.0
220
0.0
230
1.0
 70
    24
 71
     3
 72
     8
 73
     4
 74
     0
 42
0.0000000001
 43
0.0000000001
 40
1.477316060400323
 40
1.477316060400323
 40
1.477316060400323
 40
1.477316060400323
 40
1.790999460430504
 40
1.790999460430504
 40
1.790999460430504
 40
1.790999460430504
 10
9199.017682025107
 20
-4400.419235798607
 30
0.0
 10
9200.155052307717
 20
-4398.796934675099
 30
0.0
 10
9201.409035790192
 20
-4397.008300978941
 30
0.0
 10
9202.441688207342
 20
-4395.535365381679
 30
0.0
  0
ELLIPSE
  5
1304BD
330
18
100
AcDbEntity
  8
姿図
100
AcDbEllipse
 10
9205.660477485848
 20
-4406.275876127664
 30
0.0
 11
7.45547548116728
 21
-3.953919751002641
 31
0.0
210
0.0
220
0.0
230
0.9999999999999998
 40
0.5896757540129038
 41
2.589251650966877
 42
2.665769938206601
  0
ELLIPSE
  5
1304BE
330
18
100
AcDbEntity
  8
姿図
100
AcDbEllipse
 10
9205.660477485848
 20
-4406.275876127664
 30
0.0
 11
7.45547548116728
 21
-3.953919751002641
 31
0.0
210
0.0
220
0.0
230
0.9999999999999998
 40
0.5896757540129038
 41
6.965981119172361
 42
7.147828363455014
  0
ELLIPSE
  5
1304BF
330
18
100
AcDbEntity
  8
姿図
100
AcDbEllipse
 10
9205.660477485848
 20
-4406.275876127664
 30
0.0
 11
7.45547548116728
 21
-3.953919751002641
 31
0.0
210
0.0
220
0.0
230
0.9999999999999998
 40
0.5896757540129038
 41
7.723477700805621
 42
7.896541804765815
  0
ELLIPSE
  5
1304C0
330
18
100
AcDbEntity
  8
姿図
100
AcDbEllipse
 10
9205.660477485848
 20
-4406.275876127664
 30
0.0
 11
7.45547548116728
 21
-3.953919751002641
 31
0.0
210
0.0
220
0.0
230
0.9999999999999998
 40
0.5896757540129038
 41
8.489247713282603
 42
8.607693964296711
  0
ARC
  5
1304C1
330
18
100
AcDbEntity
  8
姿図
100
AcDbCircle
 10
9202.265064771426
 20
-4399.873546471638
 30
0.0
 40
0.4909226071316664
100
AcDbArc
 50
176.6035262431399
 51
269.2179010901226
  0
ARC
  5
1304C2
330
18
100
AcDbEntity
  8
姿図
100
AcDbCircle
 10
9207.941620059569
 20
-4401.193471263904
 30
0.0
 40
0.5870661458547285
100
AcDbArc
 50
178.6996333805868
 51
242.7355601294599
  0
ARC
  5
1304C3
330
18
100
AcDbEntity
  8
姿図
100
AcDbCircle
 10
9213.314790562455
 20
-4406.216123204866
 30
0.0
 40
0.5330746199154416
100
AcDbArc
 50
221.5153020365672
 51
291.9422318176752
  0
LINE
  5
1304C4
330
18
100
AcDbEntity
  8
姿図
100
AcDbLine
 10
9202.86335553585
 20
-4395.580529632524
 30
0.0000000000000062
 11
9203.494289130141
 21
-4396.48041535197
 31
0.0000000000000002
  0
ARC
  5
1304C5
330
18
100
AcDbEntity
  8
姿図
100
AcDbCircle
 10
9202.629389666155
 20
-4395.77391688758
 30
-0.0000000000000118
 40
0.3035435036363659
100
AcDbArc
 50
30.49478329119179
 51
128.1970235673505
  0
ARC
  5
1304C6
330
18
100
AcDbEntity
  8
姿図
100
AcDbCircle
 10
9202.755720649223
 20
-4395.893540109491
 30
0.0000000000000226
 40
0.2688245040821502
100
AcDbArc
 50
39.97839485125425
 51
150.4619100593407
  0
LINE
  5
1304C7
330
18
100
AcDbEntity
  8
姿図
100
AcDbLine
 10
9207.672686259527
 20
-4401.715315369744
 30
0.0
 11
9207.226699263504
 21
-4402.31884815252
 31
0.0
  0
ARC
  5
1304C8
330
18
100
AcDbEntity
  8
姿図
100
AcDbCircle
 10
9201.801913335671
 20
-4413.416771379447
 30
0.0000000000000072
 40
13.09160217354804
100
AcDbArc
 50
70.10507181515404
 51
78.98271778318279
  0
ARC
  5
1304C9
330
18
100
AcDbEntity
  8
姿図
100
AcDbCircle
 10
9204.450649469702
 20
-4400.091434682566
 30
0.0000000000000072
 40
0.4972036399820606
100
AcDbArc
 50
188.0617757773451
 51
252.8196158441444
  0
LINE
  5
1304CA
330
18
100
AcDbEntity
  8
姿図
100
AcDbLine
 10
9204.169353670796
 20
-4400.501415332271
 30
0.0000000000000072
 11
9203.352408695264
 21
-4401.588141061615
 31
0.0000000000000062
  0
LINE
  5
1304CB
330
18
100
AcDbEntity
  8
姿図
100
AcDbLine
 10
9202.135205997329
 20
-4400.346982533831
 30
0.0
 11
9201.525398803713
 21
-4401.141867004326
 31
0.0
  0
LINE
  5
1304CC
330
18
100
AcDbEntity
  8
姿図
100
AcDbLine
 10
9213.040207666569
 20
-4406.6730398096
 30
0.0
 11
9205.607003380668
 21
-4417.170112815223
 31
0.0
  0
ARC
  5
1304CD
330
18
100
AcDbEntity
  8
姿図
100
AcDbCircle
 10
9224.435240212621
 20
-4437.288259727512
 30
0.000000000000007
 40
45.30954587500439
100
AcDbArc
 50
125.0955168657244
 51
142.2118279621176
  0
ARC
  5
1304CE
330
18
100
AcDbEntity
  8
姿図
100
AcDbCircle
 10
9215.435968378846
 20
-4348.156072769358
 30
0.000000000000007
 40
54.78136851718089
100
AcDbArc
 50
251.8650335897605
 51
261.6937835389734
  0
ARC
  5
1304CF
330
18
100
AcDbEntity
  8
姿図
100
AcDbCircle
 10
9215.435968378846
 20
-4348.156072769358
 30
0.000000000000007
 40
54.78136851718089
100
AcDbArc
 50
262.3667051436631
 51
263.112361520045
  0
LINE
  5
1304D0
330
18
100
AcDbEntity
  8
姿図
100
AcDbLine
 10
9208.131905844785
 20
-4402.428756520039
 30
0.0
 11
9208.343434707634
 21
-4402.608676631802
 31
0.0
  0
ENDSEC
  0
SECTION
  2
OBJECTS
  0
DICTIONARY
  5
C
330
0
100
AcDbDictionary
281
     1
  3
ACAD_COLOR
350
13087F
  3
ACAD_GROUP
350
D
  3
ACAD_IMAGE_VARS
350
12C01C
  3
ACAD_LAYOUT
350
617
  3
ACAD_MATERIAL
350
130855
  3
ACAD_MLEADERSTYLE
350
130882
  3
ACAD_MLINESTYLE
350
E
  3
ACAD_PLOTSETTINGS
350
618
  3
ACAD_PLOTSTYLENAME
350
615
  3
ACAD_SCALELIST
350
A36
  3
ACAD_TABLESTYLE
350
130880
  3
ACAD_VISUALSTYLE
350
13086E
  3
AcadDim
350
AB4
  3
ACDB_RECOMPOSE_DATA
350
13088C
  3
AcDbVariableDictionary
350
6DE
  3
APPDATA
350
12C01B
  3
DWGPROPS
350
13088D
  0
DICTIONARY
  5
8BF
330
2
100
AcDbDictionary
280
     1
281
     1
  3
ACAD_LAYERSTATES
360
8C0
  0
DICTIONARY
  5
A60
330
F
100
AcDbDictionary
280
     1
281
     1
  3
ADSK_XREC_LAYER_RECONCILED
360
A61
  0
DICTIONARY
  5
A66
330
34
100
AcDbDictionary
280
     1
281
     1
  3
ADSK_XREC_LAYER_RECONCILED
360
A67
  0
DICTIONARY
  5
A6A
330
2A3
100
AcDbDictionary
280
     1
281
     1
  3
ADSK_XREC_LAYER_RECONCILED
360
A6B
  0
DICTIONARY
  5
A6E
330
2F4
100
AcDbDictionary
280
     1
281
     1
  3
ADSK_XREC_LAYER_RECONCILED
360
A6F
  0
DICTIONARY
  5
A72
330
305
100
AcDbDictionary
280
     1
281
     1
  3
ADSK_XREC_LAYER_RECONCILED
360
A73
  0
DICTIONARY
  5
143F
330
18
100
AcDbDictionary
280
     1
281
     1
  3
ACAD_SORTENTS
360
1440
  0
DICTIONARY
  5
13087F
102
{ACAD_REACTORS
330
C
102
}
330
C
100
AcDbDictionary
281
     1
  0
DICTIONARY
  5
D
102
{ACAD_REACTORS
330
C
102
}
330
C
100
AcDbDictionary
281
     1
  0
RASTERVARIABLES
  5
12C01C
102
{ACAD_REACTORS
330
C
102
}
330
C
100
AcDbRasterVariables
 90
        0
 70
     1
 71
     1
 72
     0
  0
DICTIONARY
  5
617
102
{ACAD_REACTORS
330
C
102
}
330
C
100
AcDbDictionary
281
     1
  3
Model
350
619
  3
ﾚｲｱｳﾄ1
350
61A
  0
DICTIONARY
  5
130855
102
{ACAD_REACTORS
330
C
102
}
330
C
100
AcDbDictionary
281
     1
  3
ByBlock
350
13085E
  3
ByLayer
350
130856
  3
Global
350
130866
  0
DICTIONARY
  5
130882
102
{ACAD_REACTORS
330
C
102
}
330
C
100
AcDbDictionary
281
     1
  3
Standard
350
130883
  0
DICTIONARY
  5
E
102
{ACAD_REACTORS
330
C
102
}
330
C
100
AcDbDictionary
281
     1
  3
STANDARD
350
1B
  0
DICTIONARY
  5
618
102
{ACAD_REACTORS
330
C
102
}
330
C
100
AcDbDictionary
281
     1
  0
ACDBDICTIONARYWDFLT
  5
615
102
{ACAD_REACTORS
330
C
102
}
330
C
100
AcDbDictionary
281
     1
  3
Normal
350
616
100
AcDbDictionaryWithDefault
340
616
  0
DICTIONARY
  5
A36
102
{ACAD_REACTORS
330
C
102
}
330
C
100
AcDbDictionary
281
     1
  3
A0
350
A37
  3
A1
350
A38
  3
A2
350
A39
  3
A3
350
A3A
  3
A4
350
A3B
  3
A5
350
A3C
  3
A6
350
A3D
  3
A7
350
A3E
  3
A8
350
A3F
  3
A9
350
A40
  3
B0
350
A41
  3
B1
350
A42
  3
B2
350
A43
  3
B3
350
A44
  3
B4
350
A45
  3
B5
350
A46
  3
B6
350
A47
  3
B7
350
A48
  3
B8
350
A49
  3
B9
350
A4A
  3
C0
350
A4B
  3
C1
350
A4C
  3
C2
350
A4D
  3
C3
350
A4E
  3
C4
350
A4F
  3
C5
350
A50
  3
C6
350
A51
  3
C7
350
A52
  3
C8
350
A53
  3
C9
350
A54
  3
D0
350
A55
  3
D1
350
A56
  3
D2
350
A57
  0
DICTIONARY
  5
130880
102
{ACAD_REACTORS
330
C
102
}
330
C
100
AcDbDictionary
281
     1
  3
Standard
350
130881
  0
DICTIONARY
  5
13086E
102
{ACAD_REACTORS
330
C
102
}
330
C
100
AcDbDictionary
281
     1
  3
2dWireframe
350
130874
  3
3D Hidden
350
130876
  3
3dWireframe
350
130875
  3
Basic
350
130873
  3
Brighten
350
13087A
  3
ColorChange
350
13087E
  3
Conceptual
350
130877
  3
Dim
350
130879
  3
Facepattern
350
13087D
  3
Flat
350
13086F
  3
FlatWithEdges
350
130870
  3
Gouraud
350
130871
  3
GouraudWithEdges
350
130872
  3
Linepattern
350
13087C
  3
Realistic
350
130878
  3
Thicken
350
13087B
  0
XRECORD
  5
AB4
102
{ACAD_REACTORS
330
C
102
}
330
C
100
AcDbXrecord
280
     1
 90
   990106
  3
OPEN
 60
     0
 61
     0
 62
     1
 63
     3
 64
     1
 65
     0
 66
     0
 67
     3
 68
     1
 69
     0
 70
     0
 71
     0
 72
     0
 40
0.0
170
     2
  0
XRECORD
  5
13088C
102
{ACAD_REACTORS
330
C
102
}
330
C
100
AcDbXrecord
280
     1
 90
        1
330
130881
  0
DICTIONARY
  5
6DE
102
{ACAD_REACTORS
330
C
102
}
330
C
100
AcDbDictionary
281
     1
  3
CANNOSCALE
350
130889
  3
CMLEADERSTYLE
350
130888
  3
CTABLESTYLE
350
130887
  3
DIMASSOC
350
6DF
  3
INDEXCTL
350
A93
  3
PROJECTNAME
350
6E0
  3
SORTENTS
350
A92
  0
DICTIONARY
  5
12C01B
102
{ACAD_REACTORS
330
C
102
}
330
C
100
AcDbDictionary
281
     1
  0
XRECORD
  5
13088D
102
{ACAD_REACTORS
330
C
102
}
330
C
100
AcDbXrecord
280
     1
  1
DWGPROPS COOKIE
  2

  3

  4

  6

  7

  8
SPAX
  9

300
=
301
=
302
=
303
=
304
=
305
=
306
=
307
=
308
=
309
=
 40
48.81104408564815
 41
2448636.61962963
 42
2457337.804738102
  1

 90
        0
  0
DICTIONARY
  5
8C0
102
{ACAD_REACTORS
330
8BF
102
}
330
8BF
100
AcDbDictionary
281
     1
  0
XRECORD
  5
A61
102
{ACAD_REACTORS
330
A60
102
}
330
A60
100
AcDbXrecord
280
     1
290
     1
  0
XRECORD
  5
A67
102
{ACAD_REACTORS
330
A66
102
}
330
A66
100
AcDbXrecord
280
     1
290
     1
  0
XRECORD
  5
A6B
102
{ACAD_REACTORS
330
A6A
102
}
330
A6A
100
AcDbXrecord
280
     1
290
     1
  0
XRECORD
  5
A6F
102
{ACAD_REACTORS
330
A6E
102
}
330
A6E
100
AcDbXrecord
280
     1
290
     1
  0
XRECORD
  5
A73
102
{ACAD_REACTORS
330
A72
102
}
330
A72
100
AcDbXrecord
280
     1
290
     1
  0
SORTENTSTABLE
  5
1440
102
{ACAD_REACTORS
330
143F
102
}
330
143F
100
AcDbSortentsTable
330
18
331
F6D77
  5
F6D77
331
D0CC6
  5
D0CC6
331
F6D78
  5
F6D78
  0
LAYOUT
  5
619
102
{ACAD_XDICTIONARY
360
13088E
102
}
102
{ACAD_REACTORS
330
617
102
}
330
617
100
AcDbPlotSettings
  1

  2
JUST PDF 2
  4
A4
  6

 40
3.174999952316283
 41
3.174999952316283
 42
3.175003051757812
 43
3.17498779296875
 44
209.8886566162109
 45
297.0530090332031
 46
14.27171755861538
 47
9.85517307462581
 48
9141.070816494531
 49
-4891.661366896265
140
9491.061253484344
141
-4349.676016618931
142
1.0
143
2.0
 70
  3748
 72
     1
 73
     0
 74
     4
  7
spax form.ctb
 75
     0
147
0.5
148
-9141.070816494531
149
4891.661366896265
100
AcDbLayout
  1
Model
 70
     1
 71
     0
 10
0.0
 20
0.0
 11
12.0
 21
9.0
 12
0.0
 22
0.0
 32
0.0
 14
9137.703963485868
 24
-4485.216858555885
 34
-0.0000000000000118
 15
9233.037296819201
 25
-4394.284330384535
 35
0.0000000000000226
146
0.0
 13
0.0
 23
0.0
 33
0.0
 16
1.0
 26
0.0
 36
0.0
 17
0.0
 27
1.0
 37
0.0
 76
     0
330
18
331
12C01A
1001
ACAD_PSEXT
1000
JUST PDF 2
1000
JUST PDF 2
1000
JUST PDF 2 Port:
1000

1070
     0
  0
LAYOUT
  5
61A
102
{ACAD_XDICTIONARY
360
130890
102
}
102
{ACAD_REACTORS
330
617
102
}
330
617
100
AcDbPlotSettings
  1

  2
Canon LASER SHOT LBP-750
  4

  6

 40
0.0
 41
0.0
 42
0.0
 43
0.0
 44
0.0
 45
0.0
 46
0.0
 47
0.0
 48
0.0
 49
0.0
140
0.0
141
0.0
142
1.0
143
1.0
 70
   688
 72
     0
 73
     0
 74
     5
  7
spax form.ctb
 75
    16
147
1.0
148
0.0
149
0.0
100
AcDbLayout
  1
ﾚｲｱｳﾄ1
 70
     0
 71
     1
 10
0.0
 20
0.0
 11
0.0
 21
0.0
 12
0.0
 22
0.0
 32
0.0
 14
1.000000000000000E+20
 24
1.000000000000000E+20
 34
1.000000000000000E+20
 15
-1.000000000000000E+20
 25
-1.000000000000000E+20
 35
-1.000000000000000E+20
146
0.0
 13
0.0
 23
0.0
 33
0.0
 16
1.0
 26
0.0
 36
0.0
 17
0.0
 27
1.0
 37
0.0
 76
     0
330
15
  0
MATERIAL
  5
13085E
102
{ACAD_XDICTIONARY
360
13085F
102
}
102
{ACAD_REACTORS
330
130855
102
}
330
130855
100
AcDbMaterial
  1
ByBlock
 72
     0
 43
0.0208333333333333
 43
0.0
 43
0.0
 43
0.0
 43
0.0
 43
0.0208333333333333
 43
0.0
 43
0.0
 43
0.0
 43
0.0
 43
1.0
 43
0.0
 43
0.0
 43
0.0
 43
0.0
 43
1.0
 77
     0
 47
0.0208333333333333
 47
0.0
 47
0.0
 47
0.0
 47
0.0
 47
0.0208333333333333
 47
0.0
 47
0.0
 47
0.0
 47
0.0
 47
1.0
 47
0.0
 47
0.0
 47
0.0
 47
0.0
 47
1.0
171
     0
 49
0.0208333333333333
 49
0.0
 49
0.0
 49
0.0
 49
0.0
 49
0.0208333333333333
 49
0.0
 49
0.0
 49
0.0
 49
0.0
 49
1.0
 49
0.0
 49
0.0
 49
0.0
 49
0.0
 49
1.0
175
     0
142
0.0208333333333333
142
0.0
142
0.0
142
0.0
142
0.0
142
0.0208333333333333
142
0.0
142
0.0
142
0.0
142
0.0
142
1.0
142
0.0
142
0.0
142
0.0
142
0.0
142
1.0
179
     0
144
0.0208333333333333
144
0.0
144
0.0
144
0.0
144
0.0
144
0.0208333333333333
144
0.0
144
0.0
144
0.0
144
0.0
144
1.0
144
0.0
144
0.0
144
0.0
144
0.0
144
1.0
147
0.0208333333333333
147
0.0
147
0.0
147
0.0
147
0.0
147
0.0208333333333333
147
0.0
147
0.0
147
0.0
147
0.0
147
1.0
147
0.0
147
0.0
147
0.0
147
0.0
147
1.0
  0
MATERIAL
  5
130856
102
{ACAD_XDICTIONARY
360
130857
102
}
102
{ACAD_REACTORS
330
130855
102
}
330
130855
100
AcDbMaterial
  1
ByLayer
 72
     0
 43
0.0208333333333333
 43
0.0
 43
0.0
 43
0.0
 43
0.0
 43
0.0208333333333333
 43
0.0
 43
0.0
 43
0.0
 43
0.0
 43
1.0
 43
0.0
 43
0.0
 43
0.0
 43
0.0
 43
1.0
 77
     0
 47
0.0208333333333333
 47
0.0
 47
0.0
 47
0.0
 47
0.0
 47
0.0208333333333333
 47
0.0
 47
0.0
 47
0.0
 47
0.0
 47
1.0
 47
0.0
 47
0.0
 47
0.0
 47
0.0
 47
1.0
171
     0
 49
0.0208333333333333
 49
0.0
 49
0.0
 49
0.0
 49
0.0
 49
0.0208333333333333
 49
0.0
 49
0.0
 49
0.0
 49
0.0
 49
1.0
 49
0.0
 49
0.0
 49
0.0
 49
0.0
 49
1.0
175
     0
142
0.0208333333333333
142
0.0
142
0.0
142
0.0
142
0.0
142
0.0208333333333333
142
0.0
142
0.0
142
0.0
142
0.0
142
1.0
142
0.0
142
0.0
142
0.0
142
0.0
142
1.0
179
     0
144
0.0208333333333333
144
0.0
144
0.0
144
0.0
144
0.0
144
0.0208333333333333
144
0.0
144
0.0
144
0.0
144
0.0
144
1.0
144
0.0
144
0.0
144
0.0
144
0.0
144
1.0
147
0.0208333333333333
147
0.0
147
0.0
147
0.0
147
0.0
147
0.0208333333333333
147
0.0
147
0.0
147
0.0
147
0.0
147
1.0
147
0.0
147
0.0
147
0.0
147
0.0
147
1.0
  0
MATERIAL
  5
130866
102
{ACAD_XDICTIONARY
360
130867
102
}
102
{ACAD_REACTORS
330
130855
102
}
330
130855
100
AcDbMaterial
  1
Global
 72
     0
 43
0.0208333333333333
 43
0.0
 43
0.0
 43
0.0
 43
0.0
 43
0.0208333333333333
 43
0.0
 43
0.0
 43
0.0
 43
0.0
 43
1.0
 43
0.0
 43
0.0
 43
0.0
 43
0.0
 43
1.0
 77
     0
 47
0.0208333333333333
 47
0.0
 47
0.0
 47
0.0
 47
0.0
 47
0.0208333333333333
 47
0.0
 47
0.0
 47
0.0
 47
0.0
 47
1.0
 47
0.0
 47
0.0
 47
0.0
 47
0.0
 47
1.0
171
     0
 49
0.0208333333333333
 49
0.0
 49
0.0
 49
0.0
 49
0.0
 49
0.0208333333333333
 49
0.0
 49
0.0
 49
0.0
 49
0.0
 49
1.0
 49
0.0
 49
0.0
 49
0.0
 49
0.0
 49
1.0
175
     0
142
0.0208333333333333
142
0.0
142
0.0
142
0.0
142
0.0
142
0.0208333333333333
142
0.0
142
0.0
142
0.0
142
0.0
142
1.0
142
0.0
142
0.0
142
0.0
142
0.0
142
1.0
179
     0
144
0.0208333333333333
144
0.0
144
0.0
144
0.0
144
0.0
144
0.0208333333333333
144
0.0
144
0.0
144
0.0
144
0.0
144
1.0
144
0.0
144
0.0
144
0.0
144
0.0
144
1.0
147
0.0208333333333333
147
0.0
147
0.0
147
0.0
147
0.0
147
0.0208333333333333
147
0.0
147
0.0
147
0.0
147
0.0
147
1.0
147
0.0
147
0.0
147
0.0
147
0.0
147
1.0
  0
MLEADERSTYLE
  5
130883
102
{ACAD_REACTORS
330
130882
102
}
330
130882
100
AcDbMLeaderStyle
170
     2
171
     1
172
     0
 90
        2
 40
0.0
 41
0.0
173
     1
 91
-1056964608
340
12
 92
       -2
290
     1
 42
0.09
291
     1
 43
0.36
  3
Standard
 44
0.18
300

342
10
174
     1
178
     6
175
     1
176
     0
 93
-1056964608
 45
0.18
292
     0
297
     0
 46
0.18
 94
-1056964608
 47
1.0
 49
1.0
140
1.0
293
     1
141
0.0
294
     1
177
     0
142
1.0
295
     0
296
     0
143
0.125
1001
ACAD_MLEADERVER
1070
     2
  0
MLINESTYLE
  5
1B
102
{ACAD_REACTORS
330
E
102
}
330
E
100
AcDbMlineStyle
  2
STANDARD
 70
     0
  3

 62
     0
 51
90.0
 52
90.0
 71
     2
 49
0.5
 62
   256
  6
BYLAYER
 49
-0.5
 62
   256
  6
BYLAYER
  0
ACDBPLACEHOLDER
  5
616
102
{ACAD_REACTORS
330
615
102
}
330
615
  0
SCALE
  5
A37
102
{ACAD_REACTORS
330
A36
102
}
330
A36
100
AcDbScale
 70
     0
300
1:1
140
1.0
141
1.0
290
     1
  0
SCALE
  5
A38
102
{ACAD_REACTORS
330
A36
102
}
330
A36
100
AcDbScale
 70
     0
300
1:2
140
1.0
141
2.0
290
     0
  0
SCALE
  5
A39
102
{ACAD_REACTORS
330
A36
102
}
330
A36
100
AcDbScale
 70
     0
300
1:4
140
1.0
141
4.0
290
     0
  0
SCALE
  5
A3A
102
{ACAD_REACTORS
330
A36
102
}
330
A36
100
AcDbScale
 70
     0
300
1:5
140
1.0
141
5.0
290
     0
  0
SCALE
  5
A3B
102
{ACAD_REACTORS
330
A36
102
}
330
A36
100
AcDbScale
 70
     0
300
1:8
140
1.0
141
8.0
290
     0
  0
SCALE
  5
A3C
102
{ACAD_REACTORS
330
A36
102
}
330
A36
100
AcDbScale
 70
     0
300
1:10
140
1.0
141
10.0
290
     0
  0
SCALE
  5
A3D
102
{ACAD_REACTORS
330
A36
102
}
330
A36
100
AcDbScale
 70
     0
300
1:16
140
1.0
141
16.0
290
     0
  0
SCALE
  5
A3E
102
{ACAD_REACTORS
330
A36
102
}
330
A36
100
AcDbScale
 70
     0
300
1:20
140
1.0
141
20.0
290
     0
  0
SCALE
  5
A3F
102
{ACAD_REACTORS
330
A36
102
}
330
A36
100
AcDbScale
 70
     0
300
1:30
140
1.0
141
30.0
290
     0
  0
SCALE
  5
A40
102
{ACAD_REACTORS
330
A36
102
}
330
A36
100
AcDbScale
 70
     0
300
1:40
140
1.0
141
40.0
290
     0
  0
SCALE
  5
A41
102
{ACAD_REACTORS
330
A36
102
}
330
A36
100
AcDbScale
 70
     0
300
1:50
140
1.0
141
50.0
290
     0
  0
SCALE
  5
A42
102
{ACAD_REACTORS
330
A36
102
}
330
A36
100
AcDbScale
 70
     0
300
1:100
140
1.0
141
100.0
290
     0
  0
SCALE
  5
A43
102
{ACAD_REACTORS
330
A36
102
}
330
A36
100
AcDbScale
 70
     0
300
2:1
140
2.0
141
1.0
290
     0
  0
SCALE
  5
A44
102
{ACAD_REACTORS
330
A36
102
}
330
A36
100
AcDbScale
 70
     0
300
4:1
140
4.0
141
1.0
290
     0
  0
SCALE
  5
A45
102
{ACAD_REACTORS
330
A36
102
}
330
A36
100
AcDbScale
 70
     0
300
8:1
140
8.0
141
1.0
290
     0
  0
SCALE
  5
A46
102
{ACAD_REACTORS
330
A36
102
}
330
A36
100
AcDbScale
 70
     0
300
10:1
140
10.0
141
1.0
290
     0
  0
SCALE
  5
A47
102
{ACAD_REACTORS
330
A36
102
}
330
A36
100
AcDbScale
 70
     0
300
100:1
140
100.0
141
1.0
290
     0
  0
SCALE
  5
A48
102
{ACAD_REACTORS
330
A36
102
}
330
A36
100
AcDbScale
 70
     0
300
1/128" = 1'-0"
140
0.0078125
141
12.0
290
     0
  0
SCALE
  5
A49
102
{ACAD_REACTORS
330
A36
102
}
330
A36
100
AcDbScale
 70
     0
300
1/64" = 1'-0"
140
0.015625
141
12.0
290
     0
  0
SCALE
  5
A4A
102
{ACAD_REACTORS
330
A36
102
}
330
A36
100
AcDbScale
 70
     0
300
1/32" = 1'-0"
140
0.03125
141
12.0
290
     0
  0
SCALE
  5
A4B
102
{ACAD_REACTORS
330
A36
102
}
330
A36
100
AcDbScale
 70
     0
300
1/16" = 1'-0"
140
0.0625
141
12.0
290
     0
  0
SCALE
  5
A4C
102
{ACAD_REACTORS
330
A36
102
}
330
A36
100
AcDbScale
 70
     0
300
3/32" = 1'-0"
140
0.09375
141
12.0
290
     0
  0
SCALE
  5
A4D
102
{ACAD_REACTORS
330
A36
102
}
330
A36
100
AcDbScale
 70
     0
300
1/8" = 1'-0"
140
0.125
141
12.0
290
     0
  0
SCALE
  5
A4E
102
{ACAD_REACTORS
330
A36
102
}
330
A36
100
AcDbScale
 70
     0
300
3/16" = 1'-0"
140
0.1875
141
12.0
290
     0
  0
SCALE
  5
A4F
102
{ACAD_REACTORS
330
A36
102
}
330
A36
100
AcDbScale
 70
     0
300
1/4" = 1'-0"
140
0.25
141
12.0
290
     0
  0
SCALE
  5
A50
102
{ACAD_REACTORS
330
A36
102
}
330
A36
100
AcDbScale
 70
     0
300
3/8" = 1'-0"
140
0.375
141
12.0
290
     0
  0
SCALE
  5
A51
102
{ACAD_REACTORS
330
A36
102
}
330
A36
100
AcDbScale
 70
     0
300
1/2" = 1'-0"
140
0.5
141
12.0
290
     0
  0
SCALE
  5
A52
102
{ACAD_REACTORS
330
A36
102
}
330
A36
100
AcDbScale
 70
     0
300
3/4" = 1'-0"
140
0.75
141
12.0
290
     0
  0
SCALE
  5
A53
102
{ACAD_REACTORS
330
A36
102
}
330
A36
100
AcDbScale
 70
     0
300
1" = 1'-0"
140
1.0
141
12.0
290
     0
  0
SCALE
  5
A54
102
{ACAD_REACTORS
330
A36
102
}
330
A36
100
AcDbScale
 70
     0
300
1-1/2" = 1'-0"
140
1.5
141
12.0
290
     0
  0
SCALE
  5
A55
102
{ACAD_REACTORS
330
A36
102
}
330
A36
100
AcDbScale
 70
     0
300
3" = 1'-0"
140
3.0
141
12.0
290
     0
  0
SCALE
  5
A56
102
{ACAD_REACTORS
330
A36
102
}
330
A36
100
AcDbScale
 70
     0
300
6" = 1'-0"
140
6.0
141
12.0
290
     0
  0
SCALE
  5
A57
102
{ACAD_REACTORS
330
A36
102
}
330
A36
100
AcDbScale
 70
     0
300
1'-0" = 1'-0"
140
12.0
141
12.0
290
     0
  0
TABLESTYLE
  5
130881
102
{ACAD_XDICTIONARY
360
13088A
102
}
102
{ACAD_REACTORS
330
130880
102
}
330
130880
100
AcDbTableStyle
  3
Standard
 70
     0
 71
     0
 40
0.06
 41
0.06
280
     0
281
     0
  7
STANDARD
140
0.18
170
     2
 62
     0
 63
     7
283
     0
274
    -2
284
     1
 64
     0
275
    -2
285
     1
 65
     0
276
    -2
286
     1
 66
     0
277
    -2
287
     1
 67
     0
278
    -2
288
     1
 68
     0
279
    -2
289
     1
 69
     0
  7
STANDARD
140
0.25
170
     5
 62
     0
 63
     7
283
     0
274
    -2
284
     1
 64
     0
275
    -2
285
     1
 65
     0
276
    -2
286
     1
 66
     0
277
    -2
287
     1
 67
     0
278
    -2
288
     1
 68
     0
279
    -2
289
     1
 69
     0
  7
STANDARD
140
0.18
170
     5
 62
     0
 63
     7
283
     0
274
    -2
284
     1
 64
     0
275
    -2
285
     1
 65
     0
276
    -2
286
     1
 66
     0
277
    -2
287
     1
 67
     0
278
    -2
288
     1
 68
     0
279
    -2
289
     1
 69
     0
  0
VISUALSTYLE
  5
130874
102
{ACAD_REACTORS
330
13086E
102
}
330
13086E
100
AcDbVisualStyle
  2
2dWireframe
 70
     4
 71
     0
 72
     2
 73
     0
 90
        0
 40
-0.6
 41
-30.0
 62
     5
 63
     7
 74
     1
 91
        4
 64
     7
 65
   257
 75
     1
175
     1
 42
1.0
 92
        0
 66
   257
 43
1.0
 76
     1
 77
     6
 78
     2
 67
     7
 79
     5
170
     0
171
     0
290
     0
174
     0
 93
        1
 44
0.0
173
     0
291
     0
 45
0.0
1001
ACAD
1000
AcDbSavedByObjectVersion
1070
     0
  0
VISUALSTYLE
  5
130876
102
{ACAD_REACTORS
330
13086E
102
}
330
13086E
100
AcDbVisualStyle
  2
3D Hidden
 70
     6
 71
     1
 72
     2
 73
     2
 90
        0
 40
-0.6
 41
-30.0
 62
     5
 63
     7
 74
     2
 91
        2
 64
     7
 65
   257
 75
     2
175
     1
 42
40.0
 92
        0
 66
   257
 43
1.0
 76
     1
 77
     6
 78
     2
 67
     7
 79
     3
170
     0
171
     0
290
     0
174
     0
 93
        1
 44
0.0
173
     0
291
     0
 45
0.0
1001
ACAD
1000
AcDbSavedByObjectVersion
1070
     0
  0
VISUALSTYLE
  5
130875
102
{ACAD_REACTORS
330
13086E
102
}
330
13086E
100
AcDbVisualStyle
  2
3dWireframe
 70
     5
 71
     0
 72
     2
 73
     0
 90
        0
 40
-0.6
 41
-30.0
 62
     5
 63
     7
 74
     1
 91
        4
 64
     7
 65
   257
 75
     1
175
     1
 42
1.0
 92
        0
 66
   257
 43
1.0
 76
     1
 77
     6
 78
     2
 67
     7
 79
     5
170
     0
171
     0
290
     0
174
     0
 93
        1
 44
0.0
173
     0
291
     0
 45
0.0
1001
ACAD
1000
AcDbSavedByObjectVersion
1070
     0
  0
VISUALSTYLE
  5
130873
102
{ACAD_REACTORS
330
13086E
102
}
330
13086E
100
AcDbVisualStyle
  2
Basic
 70
     7
 71
     1
 72
     0
 73
     1
 90
        0
 40
-0.6
 41
-30.0
 62
     5
 63
     7
 74
     0
 91
        4
 64
     7
 65
   257
 75
     1
175
     1
 42
1.0
 92
        8
 66
     7
 43
1.0
 76
     1
 77
     6
 78
     2
 67
     7
 79
     5
170
     0
171
     0
290
     0
174
     0
 93
        1
 44
0.0
173
     0
291
     1
 45
0.0
1001
ACAD
1000
AcDbSavedByObjectVersion
1070
     0
  0
VISUALSTYLE
  5
13087A
102
{ACAD_REACTORS
330
13086E
102
}
330
13086E
100
AcDbVisualStyle
  2
Brighten
 70
    12
 71
     2
 72
     2
 73
     0
 90
        0
 40
-0.6
 41
-30.0
 62
     5
 63
     7
 74
     1
 91
        4
 64
     7
 65
   257
 75
     1
175
     1
 42
1.0
 92
        8
 66
     7
 43
1.0
 76
     1
 77
     6
 78
     2
 67
     7
 79
     5
170
     0
171
     0
290
     0
174
     0
 93
        1
 44
50.0
173
     0
291
     1
 45
0.0
1001
ACAD
1000
AcDbSavedByObjectVersion
1070
     0
  0
VISUALSTYLE
  5
13087E
102
{ACAD_REACTORS
330
13086E
102
}
330
13086E
100
AcDbVisualStyle
  2
ColorChange
 70
    16
 71
     2
 72
     2
 73
     3
 90
        0
 40
-0.6
 41
-30.0
 62
     5
 63
     8
 74
     1
 91
        4
 64
     7
 65
   257
 75
     1
175
     1
 42
1.0
 92
        8
 66
     8
 43
1.0
 76
     1
 77
     6
 78
     2
 67
     7
 79
     5
170
     0
171
     0
290
     0
174
     0
 93
        1
 44
0.0
173
     0
291
     1
 45
0.0
1001
ACAD
1000
AcDbSavedByObjectVersion
1070
     0
  0
VISUALSTYLE
  5
130877
102
{ACAD_REACTORS
330
13086E
102
}
330
13086E
100
AcDbVisualStyle
  2
Conceptual
 70
     9
 71
     3
 72
     2
 73
     0
 90
        0
 40
-0.6
 41
-30.0
 62
     5
 63
     7
 74
     2
 91
        2
 64
     7
 65
   257
 75
     1
175
     1
 42
40.0
 92
        8
 66
     7
 43
1.0
 76
     1
 77
     6
 78
     2
 67
     7
 79
     3
170
     0
171
     0
290
     0
174
     0
 93
        1
 44
0.0
173
     0
291
     0
 45
0.0
1001
ACAD
1000
AcDbSavedByObjectVersion
1070
     0
  0
VISUALSTYLE
  5
130879
102
{ACAD_REACTORS
330
13086E
102
}
330
13086E
100
AcDbVisualStyle
  2
Dim
 70
    11
 71
     2
 72
     2
 73
     0
 90
        0
 40
-0.6
 41
-30.0
 62
     5
 63
     7
 74
     1
 91
        4
 64
     7
 65
   257
 75
     1
175
     1
 42
1.0
 92
        8
 66
     7
 43
1.0
 76
     1
 77
     6
 78
     2
 67
     7
 79
     5
170
     0
171
     0
290
     0
174
     0
 93
        1
 44
-50.0
173
     0
291
     1
 45
0.0
1001
ACAD
1000
AcDbSavedByObjectVersion
1070
     0
  0
VISUALSTYLE
  5
13087D
102
{ACAD_REACTORS
330
13086E
102
}
330
13086E
100
AcDbVisualStyle
  2
Facepattern
 70
    15
 71
     2
 72
     2
 73
     0
 90
        0
 40
-0.6
 41
-30.0
 62
     5
 63
     7
 74
     1
 91
        4
 64
     7
 65
   257
 75
     1
175
     1
 42
1.0
 92
        8
 66
     7
 43
1.0
 76
     1
 77
     6
 78
     2
 67
     7
 79
     5
170
     0
171
     0
290
     0
174
     0
 93
        1
 44
0.0
173
     0
291
     1
 45
0.0
1001
ACAD
1000
AcDbSavedByObjectVersion
1070
     0
  0
VISUALSTYLE
  5
13086F
102
{ACAD_REACTORS
330
13086E
102
}
330
13086E
100
AcDbVisualStyle
  2
Flat
 70
     0
 71
     2
 72
     1
 73
     1
 90
        2
 40
-0.6
 41
30.0
 62
     5
 63
     7
 74
     0
 91
        4
 64
     7
 65
   257
 75
     1
175
     1
 42
1.0
 92
        8
 66
     7
 43
1.0
 76
     1
 77
     6
 78
     2
 67
     7
 79
     5
170
     0
171
     0
290
     0
174
     0
 93
       13
 44
0.0
173
     0
291
     1
 45
0.0
1001
ACAD
1000
AcDbSavedByObjectVersion
1070
     0
  0
VISUALSTYLE
  5
130870
102
{ACAD_REACTORS
330
13086E
102
}
330
13086E
100
AcDbVisualStyle
  2
FlatWithEdges
 70
     1
 71
     2
 72
     1
 73
     1
 90
        2
 40
-0.6
 41
30.0
 62
     5
 63
     7
 74
     1
 91
        4
 64
     7
 65
   257
 75
     1
175
     1
 42
1.0
 92
        0
 66
   257
 43
1.0
 76
     1
 77
     6
 78
     2
 67
     7
 79
     5
170
     0
171
     0
290
     0
174
     0
 93
       13
 44
0.0
173
     0
291
     1
 45
0.0
1001
ACAD
1000
AcDbSavedByObjectVersion
1070
     0
  0
VISUALSTYLE
  5
130871
102
{ACAD_REACTORS
330
13086E
102
}
330
13086E
100
AcDbVisualStyle
  2
Gouraud
 70
     2
 71
     2
 72
     2
 73
     1
 90
        2
 40
-0.6
 41
30.0
 62
     5
 63
     7
 74
     0
 91
        4
 64
     7
 65
   257
 75
     1
175
     1
 42
1.0
 92
        0
 66
     7
 43
1.0
 76
     1
 77
     6
 78
     2
 67
     7
 79
     5
170
     0
171
     0
290
     0
174
     0
 93
       13
 44
0.0
173
     0
291
     1
 45
0.0
1001
ACAD
1000
AcDbSavedByObjectVersion
1070
     0
  0
VISUALSTYLE
  5
130872
102
{ACAD_REACTORS
330
13086E
102
}
330
13086E
100
AcDbVisualStyle
  2
GouraudWithEdges
 70
     3
 71
     2
 72
     2
 73
     1
 90
        2
 40
-0.6
 41
30.0
 62
     5
 63
     7
 74
     1
 91
        4
 64
     7
 65
   257
 75
     1
175
     1
 42
1.0
 92
        0
 66
   257
 43
1.0
 76
     1
 77
     6
 78
     2
 67
     7
 79
     5
170
     0
171
     0
290
     0
174
     0
 93
       13
 44
0.0
173
     0
291
     1
 45
0.0
1001
ACAD
1000
AcDbSavedByObjectVersion
1070
     0
  0
VISUALSTYLE
  5
13087C
102
{ACAD_REACTORS
330
13086E
102
}
330
13086E
100
AcDbVisualStyle
  2
Linepattern
 70
    14
 71
     2
 72
     2
 73
     0
 90
        0
 40
-0.6
 41
-30.0
 62
     5
 63
     7
 74
     1
 91
        4
 64
     7
 65
   257
 75
     7
175
     7
 42
1.0
 92
        8
 66
     7
 43
1.0
 76
     1
 77
     6
 78
     2
 67
     7
 79
     5
170
     0
171
     0
290
     0
174
     0
 93
        1
 44
0.0
173
     0
291
     1
 45
0.0
1001
ACAD
1000
AcDbSavedByObjectVersion
1070
     0
  0
VISUALSTYLE
  5
130878
102
{ACAD_REACTORS
330
13086E
102
}
330
13086E
100
AcDbVisualStyle
  2
Realistic
 70
     8
 71
     2
 72
     2
 73
     0
 90
        0
 40
-0.6
 41
-30.0
 62
     5
 63
     7
 74
     1
 91
        0
 64
     7
 65
   257
 75
     1
175
     1
 42
1.0
 92
        8
 66
     8
 43
1.0
 76
     1
 77
     6
 78
     2
 67
     7
 79
     5
170
     0
171
     0
290
     0
174
     0
 93
       13
 44
0.0
173
     0
291
     0
 45
0.0
1001
ACAD
1000
AcDbSavedByObjectVersion
1070
     0
  0
VISUALSTYLE
  5
13087B
102
{ACAD_REACTORS
330
13086E
102
}
330
13086E
100
AcDbVisualStyle
  2
Thicken
 70
    13
 71
     2
 72
     2
 73
     0
 90
        0
 40
-0.6
 41
-30.0
 62
     5
 63
     7
 74
     1
 91
        4
 64
     7
 65
   257
 75
     1
175
     1
 42
1.0
 92
       12
 66
     7
 43
1.0
 76
     1
 77
     6
 78
     2
 67
     7
 79
     5
170
     0
171
     0
290
     0
174
     0
 93
        1
 44
0.0
173
     0
291
     1
 45
0.0
1001
ACAD
1000
AcDbSavedByObjectVersion
1070
     0
  0
DICTIONARYVAR
  5
130889
102
{ACAD_REACTORS
330
6DE
102
}
330
6DE
100
DictionaryVariables
280
     0
  1
1:1
  0
DICTIONARYVAR
  5
130888
102
{ACAD_REACTORS
330
6DE
102
}
330
6DE
100
DictionaryVariables
280
     0
  1
STANDARD
  0
DICTIONARYVAR
  5
130887
102
{ACAD_REACTORS
330
6DE
102
}
330
6DE
100
DictionaryVariables
280
     0
  1
STANDARD
  0
DICTIONARYVAR
  5
6DF
102
{ACAD_REACTORS
330
6DE
102
}
330
6DE
100
DictionaryVariables
280
     0
  1
1
  0
DICTIONARYVAR
  5
A93
102
{ACAD_REACTORS
330
6DE
102
}
330
6DE
100
DictionaryVariables
280
     0
  1
0
  0
DICTIONARYVAR
  5
6E0
102
{ACAD_REACTORS
330
6DE
102
}
330
6DE
100
DictionaryVariables
280
     0
  1

  0
DICTIONARYVAR
  5
A92
102
{ACAD_REACTORS
330
6DE
102
}
330
6DE
100
DictionaryVariables
280
     0
  1
127
  0
DICTIONARY
  5
13088E
330
619
100
AcDbDictionary
280
     1
281
     1
  3
ACAD_XREC_ROUNDTRIP
360
13088F
  0
DICTIONARY
  5
130890
330
61A
100
AcDbDictionary
280
     1
281
     1
  3
ACAD_XREC_ROUNDTRIP
360
130891
  0
DICTIONARY
  5
13085F
330
13085E
100
AcDbDictionary
280
     1
281
     1
  3
ACAD_XREC_ROUNDTRIP
360
130893
  3
BUMPTILE
360
130861
  3
DIFFUSETILE
360
130860
  3
OPACITYTILE
360
130864
  3
REFLECTIONTILE
360
130863
  3
REFRACTIONTILE
360
130865
  3
SPECULARTILE
360
130862
  0
DICTIONARY
  5
130857
330
130856
100
AcDbDictionary
280
     1
281
     1
  3
ACAD_XREC_ROUNDTRIP
360
130892
  3
BUMPTILE
360
130859
  3
DIFFUSETILE
360
130858
  3
OPACITYTILE
360
13085C
  3
REFLECTIONTILE
360
13085B
  3
REFRACTIONTILE
360
13085D
  3
SPECULARTILE
360
13085A
  0
DICTIONARY
  5
130867
330
130866
100
AcDbDictionary
280
     1
281
     1
  3
ACAD_XREC_ROUNDTRIP
360
130894
  3
BUMPTILE
360
130869
  3
DIFFUSETILE
360
130868
  3
OPACITYTILE
360
13086C
  3
REFLECTIONTILE
360
13086B
  3
REFRACTIONTILE
360
13086D
  3
SPECULARTILE
360
13086A
  0
DICTIONARY
  5
13088A
330
130881
100
AcDbDictionary
280
     1
281
     1
  3
ACAD_ROUNDTRIP_2008_TABLESTYLE_CELLSTYLEMAP
360
13088B
  3
ACAD_XREC_ROUNDTRIP
360
130895
  0
XRECORD
  5
13088F
102
{ACAD_REACTORS
330
13088E
102
}
330
13088E
100
AcDbXrecord
280
     1
102
SHADEPLOT
 70
     0
102
SHADEPLOTRESLEVEL
 70
     2
102
SHADEPLOTCUSTOMDPI
 70
   300
  0
XRECORD
  5
130891
102
{ACAD_REACTORS
330
130890
102
}
330
130890
100
AcDbXrecord
280
     1
102
SHADEPLOT
 70
     0
102
SHADEPLOTRESLEVEL
 70
     2
102
SHADEPLOTCUSTOMDPI
 70
   300
  0
XRECORD
  5
130893
102
{ACAD_REACTORS
330
13085F
102
}
330
13085F
100
AcDbXrecord
280
     1
102
MATERIAL
148
0.0
149
0.0
149
0.0
 93
        0
 94
      127
282
     0
 72
     0
 77
     0
171
     0
175
     0
179
     0
273
     0
  0
XRECORD
  5
130861
102
{ACAD_REACTORS
330
13085F
102
}
330
13085F
100
AcDbXrecord
280
     1
270
     1
271
     1
  0
XRECORD
  5
130860
102
{ACAD_REACTORS
330
13085F
102
}
330
13085F
100
AcDbXrecord
280
     1
270
     1
271
     1
  0
XRECORD
  5
130864
102
{ACAD_REACTORS
330
13085F
102
}
330
13085F
100
AcDbXrecord
280
     1
270
     1
271
     1
  0
XRECORD
  5
130863
102
{ACAD_REACTORS
330
13085F
102
}
330
13085F
100
AcDbXrecord
280
     1
270
     1
271
     1
  0
XRECORD
  5
130865
102
{ACAD_REACTORS
330
13085F
102
}
330
13085F
100
AcDbXrecord
280
     1
270
     1
271
     1
  0
XRECORD
  5
130862
102
{ACAD_REACTORS
330
13085F
102
}
330
13085F
100
AcDbXrecord
280
     1
270
     1
271
     1
  0
XRECORD
  5
130892
102
{ACAD_REACTORS
330
130857
102
}
330
130857
100
AcDbXrecord
280
     1
102
MATERIAL
148
0.0
149
0.0
149
0.0
 93
        0
 94
      127
282
     0
 72
     0
 77
     0
171
     0
175
     0
179
     0
273
     0
  0
XRECORD
  5
130859
102
{ACAD_REACTORS
330
130857
102
}
330
130857
100
AcDbXrecord
280
     1
270
     1
271
     1
  0
XRECORD
  5
130858
102
{ACAD_REACTORS
330
130857
102
}
330
130857
100
AcDbXrecord
280
     1
270
     1
271
     1
  0
XRECORD
  5
13085C
102
{ACAD_REACTORS
330
130857
102
}
330
130857
100
AcDbXrecord
280
     1
270
     1
271
     1
  0
XRECORD
  5
13085B
102
{ACAD_REACTORS
330
130857
102
}
330
130857
100
AcDbXrecord
280
     1
270
     1
271
     1
  0
XRECORD
  5
13085D
102
{ACAD_REACTORS
330
130857
102
}
330
130857
100
AcDbXrecord
280
     1
270
     1
271
     1
  0
XRECORD
  5
13085A
102
{ACAD_REACTORS
330
130857
102
}
330
130857
100
AcDbXrecord
280
     1
270
     1
271
     1
  0
XRECORD
  5
130894
102
{ACAD_REACTORS
330
130867
102
}
330
130867
100
AcDbXrecord
280
     1
102
MATERIAL
148
0.0
149
0.0
149
0.0
 93
        0
 94
      127
282
     0
 72
     0
 77
     0
171
     0
175
     0
179
     0
273
     0
  0
XRECORD
  5
130869
102
{ACAD_REACTORS
330
130867
102
}
330
130867
100
AcDbXrecord
280
     1
270
     1
271
     1
  0
XRECORD
  5
130868
102
{ACAD_REACTORS
330
130867
102
}
330
130867
100
AcDbXrecord
280
     1
270
     1
271
     1
  0
XRECORD
  5
13086C
102
{ACAD_REACTORS
330
130867
102
}
330
130867
100
AcDbXrecord
280
     1
270
     1
271
     1
  0
XRECORD
  5
13086B
102
{ACAD_REACTORS
330
130867
102
}
330
130867
100
AcDbXrecord
280
     1
270
     1
271
     1
  0
XRECORD
  5
13086D
102
{ACAD_REACTORS
330
130867
102
}
330
130867
100
AcDbXrecord
280
     1
270
     1
271
     1
  0
XRECORD
  5
13086A
102
{ACAD_REACTORS
330
130867
102
}
330
130867
100
AcDbXrecord
280
     1
270
     1
271
     1
  0
CELLSTYLEMAP
  5
13088B
102
{ACAD_REACTORS
330
13088A
102
}
330
13088A
100
AcDbCellStyleMap
 90
        3
300
CELLSTYLE
  1
TABLEFORMAT_BEGIN
 90
        5
170
     1
 91
        0
 92
    32768
 62
   257
 93
        1
300
CONTENTFORMAT
  1
CONTENTFORMAT_BEGIN
 90
        0
 91
        0
 92
      512
 93
        0
300

 40
0.0
140
1.0
 94
        5
 62
     0
340
10
144
0.25
309
CONTENTFORMAT_END
171
     0
 94
        0
309
TABLEFORMAT_END
  1
CELLSTYLE_BEGIN
 90
        1
 91
        1
300
_TITLE
309
CELLSTYLE_END
300
CELLSTYLE
  1
TABLEFORMAT_BEGIN
 90
        5
170
     1
 91
        0
 92
        0
 62
   257
 93
        1
300
CONTENTFORMAT
  1
CONTENTFORMAT_BEGIN
 90
        0
 91
        0
 92
      512
 93
        0
300

 40
0.0
140
1.0
 94
        5
 62
     0
340
10
144
0.18
309
CONTENTFORMAT_END
171
     0
 94
        0
309
TABLEFORMAT_END
  1
CELLSTYLE_BEGIN
 90
        2
 91
        1
300
_HEADER
309
CELLSTYLE_END
300
CELLSTYLE
  1
TABLEFORMAT_BEGIN
 90
        5
170
     1
 91
        0
 92
        0
 62
   257
 93
        1
300
CONTENTFORMAT
  1
CONTENTFORMAT_BEGIN
 90
        0
 91
        0
 92
      512
 93
        0
300

 40
0.0
140
1.0
 94
        2
 62
     0
340
10
144
0.18
309
CONTENTFORMAT_END
171
     0
 94
        0
309
TABLEFORMAT_END
  1
CELLSTYLE_BEGIN
 90
        3
 91
        2
300
_DATA
309
CELLSTYLE_END
  0
XRECORD
  5
130895
102
{ACAD_REACTORS
330
13088A
102
}
330
13088A
100
AcDbXrecord
280
     1
102
ACAD_ROUNDTRIP_PRE2007_TABLESTYLE
 90
      512
 91
        0
  1

 92
      512
 93
        0
  2

 94
      512
 95
        0
  3

  0
ENDSEC
  0
EOF
