  0
SECTION
  2
HEADER
  9
$ACADVER
  1
AC1015
  9
$ACADMAINTVER
 70
    20
  9
$DWGCODEPAGE
  3
ANSI_932
  9
$INSBASE
 10
0.0
 20
0.0
 30
0.0
  9
$EXTMIN
 10
2241.974119881303
 20
-1717.221200193799
 30
-0.0000000000000153
  9
$EXTMAX
 10
2326.940291301548
 20
-1647.997091432622
 30
0.0
  9
$LIMMIN
 10
0.0
 20
0.0
  9
$LIMMAX
 10
420.0
 20
297.0
  9
$ORTHOMODE
 70
     0
  9
$REGENMODE
 70
     1
  9
$FILLMODE
 70
     1
  9
$QTEXTMODE
 70
     0
  9
$MIRRTEXT
 70
     1
  9
$LTSCALE
 40
5.0
  9
$ATTMODE
 70
     0
  9
$TEXTSIZE
 40
3.5
  9
$TRACEWID
 40
1.0
  9
$TEXTSTYLE
  7
STANDARD
  9
$CLAYER
  8
0
  9
$CELTYPE
  6
BYLAYER
  9
$CECOLOR
 62
   256
  9
$CELTSCALE
 40
1.0
  9
$DISPSILH
 70
     0
  9
$DIMSCALE
 40
1.0
  9
$DIMASZ
 40
2.5
  9
$DIMEXO
 40
1.5
  9
$DIMDLI
 40
0.38
  9
$DIMRND
 40
0.0
  9
$DIMDLE
 40
0.0
  9
$DIMEXE
 40
1.0
  9
$DIMTP
 40
0.0
  9
$DIMTM
 40
0.0
  9
$DIMTXT
 40
2.500000000000002
  9
$DIMCEN
 40
0.0
  9
$DIMTSZ
 40
0.0
  9
$DIMTOL
 70
     0
  9
$DIMLIM
 70
     0
  9
$DIMTIH
 70
     0
  9
$DIMTOH
 70
     0
  9
$DIMSE1
 70
     0
  9
$DIMSE2
 70
     0
  9
$DIMTAD
 70
     3
  9
$DIMZIN
 70
     8
  9
$DIMBLK
  1

  9
$DIMASO
 70
     1
  9
$DIMSHO
 70
     0
  9
$DIMPOST
  1

  9
$DIMAPOST
  1

  9
$DIMALT
 70
     0
  9
$DIMALTD
 70
     0
  9
$DIMALTF
 40
25.4
  9
$DIMLFAC
 40
1.0
  9
$DIMTOFL
 70
     1
  9
$DIMTVP
 40
0.0
  9
$DIMTIX
 70
     0
  9
$DIMSOXD
 70
     0
  9
$DIMSAH
 70
     1
  9
$DIMBLK1
  1
OPEN
  9
$DIMBLK2
  1
OPEN
  9
$DIMSTYLE
  2
STANDARD
  9
$DIMCLRD
 70
     8
  9
$DIMCLRE
 70
     8
  9
$DIMCLRT
 70
   256
  9
$DIMTFAC
 40
1.0
  9
$DIMGAP
 40
1.0
  9
$DIMJUST
 70
     0
  9
$DIMSD1
 70
     0
  9
$DIMSD2
 70
     0
  9
$DIMTOLJ
 70
     1
  9
$DIMTZIN
 70
     0
  9
$DIMALTZ
 70
     0
  9
$DIMALTTZ
 70
     0
  9
$DIMUPT
 70
     0
  9
$DIMDEC
 70
     2
  9
$DIMTDEC
 70
     2
  9
$DIMALTU
 70
     2
  9
$DIMALTTD
 70
     0
  9
$DIMTXSTY
  7
STANDARD
  9
$DIMAUNIT
 70
     0
  9
$DIMADEC
 70
     2
  9
$DIMALTRND
 40
0.0
  9
$DIMAZIN
 70
     2
  9
$DIMDSEP
 70
    46
  9
$DIMATFIT
 70
     1
  9
$DIMFRAC
 70
     0
  9
$DIMLDRBLK
  1
OPEN
  9
$DIMLUNIT
 70
     2
  9
$DIMLWD
 70
    -2
  9
$DIMLWE
 70
    -2
  9
$DIMTMOVE
 70
     0
  9
$LUNITS
 70
     2
  9
$LUPREC
 70
     2
  9
$SKETCHINC
 40
0.1
  9
$FILLETRAD
 40
0.0
  9
$AUNITS
 70
     0
  9
$AUPREC
 70
     1
  9
$MENU
  1
FM
  9
$ELEVATION
 40
0.0
  9
$PELEVATION
 40
0.0
  9
$THICKNESS
 40
0.0
  9
$LIMCHECK
 70
     0
  9
$CHAMFERA
 40
0.0
  9
$CHAMFERB
 40
0.0
  9
$CHAMFERC
 40
0.0
  9
$CHAMFERD
 40
0.0
  9
$SKPOLY
 70
     0
  9
$TDCREATE
 40
2448636.619629630
  9
$TDUCREATE
 40
2448636.244629629
  9
$TDUPDATE
 40
2457337.801582257
  9
$TDUUPDATE
 40
2457337.426582257
  9
$TDINDWG
 40
1.6007788542
  9
$TDUSRTIMER
 40
2456973.321848345
  9
$USRTIMER
 70
     1
  9
$ANGBASE
 50
0.0
  9
$ANGDIR
 70
     0
  9
$PDMODE
 70
     3
  9
$PDSIZE
 40
0.0
  9
$PLINEWID
 40
0.0
  9
$SPLFRAME
 70
     0
  9
$SPLINETYPE
 70
     6
  9
$SPLINESEGS
 70
     8
  9
$HANDSEED
  5
18CA1
  9
$SURFTAB1
 70
     6
  9
$SURFTAB2
 70
     6
  9
$SURFTYPE
 70
     6
  9
$SURFU
 70
     6
  9
$SURFV
 70
     6
  9
$UCSBASE
  2

  9
$UCSNAME
  2

  9
$UCSORG
 10
0.0
 20
0.0
 30
0.0
  9
$UCSXDIR
 10
1.0
 20
0.0
 30
0.0
  9
$UCSYDIR
 10
0.0
 20
1.0
 30
0.0
  9
$UCSORTHOREF
  2

  9
$UCSORTHOVIEW
 70
     0
  9
$UCSORGTOP
 10
0.0
 20
0.0
 30
0.0
  9
$UCSORGBOTTOM
 10
0.0
 20
0.0
 30
0.0
  9
$UCSORGLEFT
 10
0.0
 20
0.0
 30
0.0
  9
$UCSORGRIGHT
 10
0.0
 20
0.0
 30
0.0
  9
$UCSORGFRONT
 10
0.0
 20
0.0
 30
0.0
  9
$UCSORGBACK
 10
0.0
 20
0.0
 30
0.0
  9
$PUCSBASE
  2

  9
$PUCSNAME
  2

  9
$PUCSORG
 10
0.0
 20
0.0
 30
0.0
  9
$PUCSXDIR
 10
1.0
 20
0.0
 30
0.0
  9
$PUCSYDIR
 10
0.0
 20
1.0
 30
0.0
  9
$PUCSORTHOREF
  2

  9
$PUCSORTHOVIEW
 70
     0
  9
$PUCSORGTOP
 10
0.0
 20
0.0
 30
0.0
  9
$PUCSORGBOTTOM
 10
0.0
 20
0.0
 30
0.0
  9
$PUCSORGLEFT
 10
0.0
 20
0.0
 30
0.0
  9
$PUCSORGRIGHT
 10
0.0
 20
0.0
 30
0.0
  9
$PUCSORGFRONT
 10
0.0
 20
0.0
 30
0.0
  9
$PUCSORGBACK
 10
0.0
 20
0.0
 30
0.0
  9
$USERI1
 70
     0
  9
$USERI2
 70
     0
  9
$USERI3
 70
     0
  9
$USERI4
 70
     0
  9
$USERI5
 70
     0
  9
$USERR1
 40
0.0
  9
$USERR2
 40
0.0
  9
$USERR3
 40
0.0
  9
$USERR4
 40
0.0
  9
$USERR5
 40
0.0
  9
$WORLDVIEW
 70
     0
  9
$SHADEDGE
 70
     3
  9
$SHADEDIF
 70
    70
  9
$TILEMODE
 70
     1
  9
$MAXACTVP
 70
    16
  9
$PINSBASE
 10
0.0
 20
0.0
 30
0.0
  9
$PLIMCHECK
 70
     0
  9
$PEXTMIN
 10
1.000000000000000E+20
 20
1.000000000000000E+20
 30
1.000000000000000E+20
  9
$PEXTMAX
 10
-1.000000000000000E+20
 20
-1.000000000000000E+20
 30
-1.000000000000000E+20
  9
$PLIMMIN
 10
0.0
 20
0.0
  9
$PLIMMAX
 10
12.0
 20
9.0
  9
$UNITMODE
 70
     0
  9
$VISRETAIN
 70
     0
  9
$PLINEGEN
 70
     0
  9
$PSLTSCALE
 70
     0
  9
$TREEDEPTH
 70
  3020
  9
$CMLSTYLE
  2
STANDARD
  9
$CMLJUST
 70
     0
  9
$CMLSCALE
 40
1.0
  9
$PROXYGRAPHICS
 70
     1
  9
$MEASUREMENT
 70
     0
  9
$CELWEIGHT
370
    -1
  9
$ENDCAPS
280
     0
  9
$JOINSTYLE
280
     0
  9
$LWDISPLAY
290
     0
  9
$INSUNITS
 70
     0
  9
$HYPERLINKBASE
  1

  9
$STYLESHEET
  1
SPAX FORM.CTB
  9
$XEDIT
290
     1
  9
$CEPSNTYPE
380
     0
  9
$PSTYLEMODE
290
     1
  9
$FINGERPRINTGUID
  2
{BBAEEBA6-8B94-11D3-9160-00E0294F7E09}
  9
$VERSIONGUID
  2
{EF5376E9-3F11-4780-92AE-DD6F9F09606A}
  9
$EXTNAMES
290
     1
  9
$PSVPSCALE
 40
0.0
  9
$OLESTARTUP
290
     0
  0
ENDSEC
  0
SECTION
  2
CLASSES
  0
CLASS
  1
LWPOLYLINE
  2
AcDbPolyline
  3
ObjectDBX Classes
 90
    32768
280
     0
281
     1
  0
CLASS
  1
ACDBDICTIONARYWDFLT
  2
AcDbDictionaryWithDefault
  3
ObjectDBX Classes
 90
        0
280
     0
281
     0
  0
CLASS
  1
ACDBPLACEHOLDER
  2
AcDbPlaceHolder
  3
ObjectDBX Classes
 90
        0
280
     0
281
     0
  0
CLASS
  1
LAYOUT
  2
AcDbLayout
  3
ObjectDBX Classes
 90
        0
280
     0
281
     0
  0
CLASS
  1
DICTIONARYVAR
  2
AcDbDictionaryVar
  3
ObjectDBX Classes
 90
        0
280
     0
281
     0
  0
CLASS
  1
MATERIAL
  2
AcDbMaterial
  3
ObjectDBX Classes
 90
     1153
280
     0
281
     0
  0
CLASS
  1
VISUALSTYLE
  2
AcDbVisualStyle
  3
ObjectDBX Classes
 90
     4095
280
     0
281
     0
  0
CLASS
  1
TABLESTYLE
  2
AcDbTableStyle
  3
ObjectDBX Classes
 90
     4095
280
     0
281
     0
  0
CLASS
  1
SCALE
  2
AcDbScale
  3
ObjectDBX Classes
 90
     1153
280
     0
281
     0
  0
CLASS
  1
MLEADERSTYLE
  2
AcDbMLeaderStyle
  3
ACDB_MLEADERSTYLE_CLASS
 90
     4095
280
     0
281
     0
  0
CLASS
  1
CELLSTYLEMAP
  2
AcDbCellStyleMap
  3
ObjectDBX Classes
 90
     1152
280
     0
281
     0
  0
CLASS
  1
SORTENTSTABLE
  2
AcDbSortentsTable
  3
ObjectDBX Classes
 90
        0
280
     0
281
     0
  0
CLASS
  1
MULTILEADER
  2
AcDbMLeader
  3
ACDB_MLEADER_CLASS
 90
    33793
280
     0
281
     1
  0
CLASS
  1
RASTERVARIABLES
  2
AcDbRasterVariables
  3
ISM
 90
        0
280
     0
281
     0
  0
CLASS
  1
SUN
  2
AcDbSun
  3
SCENEOE
 90
    33921
280
     0
281
     0
  0
CLASS
  1
AEC_VARS_DWG_SETUP
  2
AecDbVarsDwgSetup
  3
AecBase60
 90
      129
280
     0
281
     0
  0
CLASS
  1
AEC_DISP_REP_2D_SECTION
  2
AecDbDispRep2dSection
  3
AecBase60
 90
      129
280
     0
281
     0
  0
CLASS
  1
AEC_DISP_PROPS_2D_SECTION
  2
AecDbDispProps2dSection
  3
AecBase60
 90
      129
280
     0
281
     0
  0
CLASS
  1
AEC_DISP_REP_CLIP_VOLUME_MODEL
  2
AecDbDispRepClipVolModel
  3
AecBase60
 90
      129
280
     0
281
     0
  0
CLASS
  1
AEC_DISP_PROPS_CLIP_VOLUME
  2
AecDbDispPropsClipVol
  3
AecBase60
 90
      129
280
     0
281
     0
  0
CLASS
  1
AEC_DISP_REP_CLIP_VOLUME_PLAN
  2
AecDbDispRepClipVolPlan
  3
AecBase60
 90
      129
280
     0
281
     0
  0
CLASS
  1
AEC_DISP_REP_CLIP_VOLUME_RESULT
  2
AecDbDispRepClipVolResult
  3
AecBase60
 90
      129
280
     0
281
     0
  0
CLASS
  1
AEC_DISP_REP_CLIP_VOLUME_RESULT_SUBDIV
  2
AecDbDispRepClipVolResSubDiv
  3
AecBase60
 90
      129
280
     0
281
     0
  0
CLASS
  1
AEC_DISP_PROPS_CLIP_VOLUME_RESULT
  2
AecDbDispPropsClipVolResSubDiv
  3
AecBase60
 90
      129
280
     0
281
     0
  0
CLASS
  1
AEC_DISP_REP_DISPLAYTHEME
  2
AecDbDispRepDisplayTheme
  3
AecBase60
 90
      129
280
     0
281
     0
  0
CLASS
  1
AEC_DISP_PROPS_DISPLAYTHEME
  2
AecDbDispPropsDisplayTheme
  3
AecBase60
 90
      129
280
     0
281
     0
  0
CLASS
  1
AEC_DISP_REP_ENT_REF
  2
AecDbDispRepEntRef
  3
AecBase60
 90
      129
280
     0
281
     0
  0
CLASS
  1
AEC_DISP_PROPS_ENT_REF
  2
AecDbDispPropsEntRef
  3
AecBase60
 90
      129
280
     0
281
     0
  0
CLASS
  1
AEC_DISP_REP_LAYOUT_CURVE
  2
AecDbDispRepLayoutCurve
  3
AecBase60
 90
      129
280
     0
281
     0
  0
CLASS
  1
AEC_DISP_PROPS_LAYOUT_CURVE
  2
AecDbDispPropsLayoutCurve
  3
AecBase60
 90
      129
280
     0
281
     0
  0
CLASS
  1
AEC_DISP_REP_LAYOUT_GRID2D
  2
AecDbDispRepLayoutGrid2d
  3
AecBase60
 90
      129
280
     0
281
     0
  0
CLASS
  1
AEC_DISP_PROPS_LAYOUT_GRID2D
  2
AecDbDispPropsLayoutGrid2d
  3
AecBase60
 90
      129
280
     0
281
     0
  0
CLASS
  1
AEC_DISP_REP_LAYOUT_GRID3D
  2
AecDbDispRepLayoutGrid3d
  3
AecBase60
 90
      129
280
     0
281
     0
  0
CLASS
  1
AEC_DISP_PROPS_LAYOUT_GRID3D
  2
AecDbDispPropsLayoutGrid3d
  3
AecBase60
 90
      129
280
     0
281
     0
  0
CLASS
  1
AEC_DISP_REP_MASKBLOCK_REF
  2
AecDbDispRepMaskBlockRef
  3
AecBase60
 90
      129
280
     0
281
     0
  0
CLASS
  1
AEC_DISP_PROPS_MASKBLOCK
  2
AecDbDispPropsMaskBlock
  3
AecBase60
 90
      129
280
     0
281
     0
  0
CLASS
  1
AEC_DISP_REP_MASKBLOCK_REF_RCP
  2
AecDbDispRepMaskBlockRefRcp
  3
AecArchBase60
 90
      129
280
     0
281
     0
  0
CLASS
  1
AEC_DISP_REP_MASS_ELEM_MODEL
  2
AecDbDispRepMassElemModel
  3
AecBase60
 90
      129
280
     0
281
     0
  0
CLASS
  1
AEC_DISP_PROPS_MASS_ELEM_MODEL
  2
AecDbDispPropsMassElem
  3
AecBase60
 90
      129
280
     0
281
     0
  0
CLASS
  1
AEC_DISP_REP_MASS_ELEM_SCHEM
  2
AecDbDispRepMassElemSchem
  3
AecBase60
 90
      129
280
     0
281
     0
  0
CLASS
  1
AEC_DISPREPAECDBDISPREPMASSELEMPLAN50
  2
AecDbDispRepMassElemPlan50
  3
AecArchDACHBase60
 90
      129
280
     0
281
     0
  0
CLASS
  1
AEC_DISPROPSMASSELEMPLANCOMMON
  2
AecDbDispPropsMassElemPlanCommon
  3
AecArchDACHBase60
 90
      129
280
     0
281
     0
  0
CLASS
  1
AEC_DISPREPAECDBDISPREPMASSELEMPLAN100
  2
AecDbDispRepMassElemPlan100
  3
AecArchDACHBase60
 90
      129
280
     0
281
     0
  0
CLASS
  1
AEC_DISP_REP_MASS_ELEM_RCP
  2
AecDbDispRepMassElemRcp
  3
AecArchBase60
 90
      129
280
     0
281
     0
  0
CLASS
  1
AEC_DISP_REP_MASS_GROUP_MODEL
  2
AecDbDispRepMassGroupModel
  3
AecBase60
 90
      129
280
     0
281
     0
  0
CLASS
  1
AEC_DISP_PROPS_MASS_GROUP
  2
AecDbDispPropsMassGroup
  3
AecBase60
 90
      129
280
     0
281
     0
  0
CLASS
  1
AEC_DISP_REP_MASS_GROUP_PLAN
  2
AecDbDispRepMassGroupPlan
  3
AecBase60
 90
      129
280
     0
281
     0
  0
CLASS
  1
AEC_DISPREPAECDBDISPREPMASSGROUPPLAN50
  2
AecDbDispRepMassGroupPlan50
  3
AecArchDACHBase60
 90
      129
280
     0
281
     0
  0
CLASS
  1
AEC_DISPROPSMASSGROUPPLANCOMMON
  2
AecDbDispPropsMassGroupPlanCommon
  3
AecArchDACHBase60
 90
      129
280
     0
281
     0
  0
CLASS
  1
AEC_DISPREPAECDBDISPREPMASSGROUPPLAN100
  2
AecDbDispRepMassGroupPlan100
  3
AecArchDACHBase60
 90
      129
280
     0
281
     0
  0
CLASS
  1
AEC_DISP_REP_MASS_GROUP_RCP
  2
AecDbDispRepMassGroupRcp
  3
AecArchBase60
 90
      129
280
     0
281
     0
  0
CLASS
  1
AEC_DISP_REP_MVBLOCK_REF
  2
AecDbDispRepMvBlockRef
  3
AecBase60
 90
      129
280
     0
281
     0
  0
CLASS
  1
AEC_DISP_REP_MVBLOCK_REF_MODEL
  2
AecDbDispRepMvBlockRefModel
  3
AecBase60
 90
      129
280
     0
281
     0
  0
CLASS
  1
AEC_AECDBDISPREPMVBLOCKREFPLAN100
  2
AecDbDispRepMvBlockRefPlan100
  3
AecBase60
 90
      129
280
     0
281
     0
  0
CLASS
  1
AEC_AECDBDISPREPMVBLOCKREFPLAN50
  2
AecDbDispRepMvBlockRefPlan50
  3
AecBase60
 90
      129
280
     0
281
     0
  0
CLASS
  1
AEC_DISP_REP_POLYGON_MODEL
  2
AecDbDispRepPolygonModel
  3
AecBase60
 90
      129
280
     0
281
     0
  0
CLASS
  1
AEC_DISP_PROPS_POLYGON_MODEL
  2
AecDbDispPropsPolygonModel
  3
AecBase60
 90
      129
280
     0
281
     0
  0
CLASS
  1
AEC_DISP_REP_POLYGON_TRUECOLOUR
  2
AecDbDispRepPolygonTrueColour
  3
AecBase60
 90
      129
280
     0
281
     0
  0
CLASS
  1
AEC_DISP_PROPS_POLYGON_TRUECOLOUR
  2
AecDbDispPropsPolygonTrueColour
  3
AecBase60
 90
      129
280
     0
281
     0
  0
CLASS
  1
AEC_DISP_REP_SLICE
  2
AecDbDispRepSlice
  3
AecBase60
 90
      129
280
     0
281
     0
  0
CLASS
  1
AEC_DISP_PROPS_SLICE
  2
AecDbDispPropsSlice
  3
AecBase60
 90
      129
280
     0
281
     0
  0
CLASS
  1
AEC_DISP_REP_ANCHOR
  2
AecDbDispRepAnchor
  3
AecBase60
 90
      129
280
     0
281
     0
  0
CLASS
  1
AEC_DISP_REP_ANCHOR_ENT_TO_NODE
  2
AecDbDispRepAnchorEntToNode
  3
AecBase60
 90
      129
280
     0
281
     0
  0
CLASS
  1
AEC_DISP_PROPS_ENT
  2
AecDbDispPropsEnt
  3
AecBase60
 90
      129
280
     0
281
     0
  0
CLASS
  1
AEC_DISP_REP_MATERIAL
  2
AecDbDispRepMaterial
  3
AecBase60
 90
      129
280
     0
281
     0
  0
CLASS
  1
AEC_DISP_PROPS_MATERIAL
  2
AecDbDispPropsMaterial
  3
AecBase60
 90
      129
280
     0
281
     0
  0
CLASS
  1
AEC_DISP_REP_EDITINPLACEPROFILE
  2
AecDbDispRepEditInPlaceProfile
  3
AecBase60
 90
      129
280
     0
281
     0
  0
CLASS
  1
AEC_DISP_PROPS_EDITINPLACEPROFILE_MODEL
  2
AecDbDispPropsEditInPlaceProfile
  3
AecBase60
 90
      129
280
     0
281
     0
  0
ENDSEC
  0
SECTION
  2
TABLES
  0
TABLE
  2
VPORT
  5
8
102
{ACAD_XDICTIONARY
360
13CBF
102
}
330
0
100
AcDbSymbolTable
 70
     1
  0
VPORT
  5
10F01
330
8
100
AcDbSymbolTableRecord
100
AcDbViewportTableRecord
  2
*Active
 70
     0
 10
0.0
 20
0.0
 11
1.0
 21
1.0
 12
2284.457205591425
 22
-1682.60914581321
 13
0.0
 23
0.0
 14
1.0
 24
1.0
 15
20.0
 25
20.0
 16
0.0
 26
0.0
 36
1.0
 17
0.0
 27
0.0
 37
0.0
 40
84.11263017410494
 41
1.020066889632107
 42
50.0
 43
0.0
 44
0.0
 50
0.0
 51
0.0
 71
    16
 72
   100
 73
     1
 74
     0
 75
     0
 76
     0
 77
     0
 78
     0
281
     0
 65
     1
110
0.0
120
0.0
130
0.0
111
1.0
121
0.0
131
0.0
112
0.0
122
1.0
132
0.0
 79
     0
146
0.0
  0
ENDTAB
  0
TABLE
  2
LTYPE
  5
5
330
0
100
AcDbSymbolTable
 70
     1
  0
LTYPE
  5
12
330
5
100
AcDbSymbolTableRecord
100
AcDbLinetypeTableRecord
  2
BYBLOCK
 70
     0
  3

 72
    65
 73
     0
 40
0.0
  0
LTYPE
  5
13
330
5
100
AcDbSymbolTableRecord
100
AcDbLinetypeTableRecord
  2
BYLAYER
 70
     0
  3

 72
    65
 73
     0
 40
0.0
  0
LTYPE
  5
14
330
5
100
AcDbSymbolTableRecord
100
AcDbLinetypeTableRecord
  2
CONTINUOUS
 70
     0
  3
Solid line
 72
    65
 73
     0
 40
0.0
  0
ENDTAB
  0
TABLE
  2
LAYER
  5
2
102
{ACAD_XDICTIONARY
360
1843
102
}
330
0
100
AcDbSymbolTable
 70
     4
  0
LAYER
  5
F
102
{ACAD_XDICTIONARY
360
18CA
102
}
330
2
100
AcDbSymbolTableRecord
100
AcDbLayerTableRecord
  2
0
 70
     0
 62
     7
  6
CONTINUOUS
370
    -3
390
616
  0
LAYER
  5
36
330
2
100
AcDbSymbolTableRecord
100
AcDbLayerTableRecord
  2
DEFPOINTS
 70
     0
 62
     7
  6
CONTINUOUS
290
     0
370
    -3
390
616
  0
LAYER
  5
2F4
102
{ACAD_XDICTIONARY
360
18D8
102
}
330
2
100
AcDbSymbolTableRecord
100
AcDbLayerTableRecord
  2
文字
 70
     0
 62
     7
  6
CONTINUOUS
370
    -3
390
616
  0
LAYER
  5
305
102
{ACAD_XDICTIONARY
360
18DC
102
}
330
2
100
AcDbSymbolTableRecord
100
AcDbLayerTableRecord
  2
姿図
 70
     0
 62
     8
  6
CONTINUOUS
370
    -3
390
616
  0
ENDTAB
  0
TABLE
  2
STYLE
  5
3
330
0
100
AcDbSymbolTable
 70
     1
  0
STYLE
  5
10
330
3
100
AcDbSymbolTableRecord
100
AcDbTextStyleTableRecord
  2
STANDARD
 70
     0
 40
0.0
 41
1.0
 50
0.0
 71
     0
 42
3.5
  3
MONOTXT
  4
BIGFONT
  0
ENDTAB
  0
TABLE
  2
VIEW
  5
6
330
0
100
AcDbSymbolTable
 70
     0
  0
ENDTAB
  0
TABLE
  2
UCS
  5
7
330
0
100
AcDbSymbolTable
 70
     0
  0
ENDTAB
  0
TABLE
  2
APPID
  5
9
330
0
100
AcDbSymbolTable
 70
    13
  0
APPID
  5
11
330
9
100
AcDbSymbolTableRecord
100
AcDbRegAppTableRecord
  2
ACAD
 70
     0
  0
APPID
  5
18C4
330
9
100
AcDbSymbolTableRecord
100
AcDbRegAppTableRecord
  2
ACAD_MLEADERVER
 70
     0
  0
APPID
  5
18C8
330
9
100
AcDbSymbolTableRecord
100
AcDbRegAppTableRecord
  2
ACAD_DSTYLE_DIMJAG
 70
     0
  0
APPID
  5
18C9
330
9
100
AcDbSymbolTableRecord
100
AcDbRegAppTableRecord
  2
ACAD_DSTYLE_DIMTALN
 70
     0
  0
APPID
  5
1903
330
9
100
AcDbSymbolTableRecord
100
AcDbRegAppTableRecord
  2
ACAD_EXEMPT_FROM_CAD_STANDARDS
 70
     0
  0
APPID
  5
19B4
330
9
100
AcDbSymbolTableRecord
100
AcDbRegAppTableRecord
  2
ACAD_PSEXT
 70
     0
  0
APPID
  5
19DA
330
9
100
AcDbSymbolTableRecord
100
AcDbRegAppTableRecord
  2
ACAD_DSTYLE_DIMBREAK
 70
     0
  0
APPID
  5
1D8C
330
9
100
AcDbSymbolTableRecord
100
AcDbRegAppTableRecord
  2
AcAecLayerStandard
 70
     0
  0
APPID
  5
119A4
330
9
100
AcDbSymbolTableRecord
100
AcDbRegAppTableRecord
  2
ACAD_SPLINE_DATA
 70
     0
  0
APPID
  5
119A5
330
9
100
AcDbSymbolTableRecord
100
AcDbRegAppTableRecord
  2
ACAD_SPLINE_DATA2
 70
     0
  0
APPID
  5
119E8
330
9
100
AcDbSymbolTableRecord
100
AcDbRegAppTableRecord
  2
AECBASE
 70
     0
  0
APPID
  5
119E9
330
9
100
AcDbSymbolTableRecord
100
AcDbRegAppTableRecord
  2
AEC_2DSECTION_XDATA
 70
     0
  0
APPID
  5
119EA
330
9
100
AcDbSymbolTableRecord
100
AcDbRegAppTableRecord
  2
AEC_MASSGROUP_XDADA
 70
     0
  0
ENDTAB
  0
TABLE
  2
DIMSTYLE
  5
A
330
0
100
AcDbSymbolTable
 70
     1
100
AcDbDimStyleTable
 71
     1
340
1CC
  0
DIMSTYLE
105
1CC
330
A
100
AcDbSymbolTableRecord
100
AcDbDimStyleTableRecord
  2
STANDARD
 70
     0
 41
2.5
 42
1.5
 44
1.0
 73
     0
 74
     0
 77
     3
 78
     8
 79
     2
140
2.500000000000002
141
0.0
147
1.0
171
     0
172
     1
173
     1
176
     8
177
     8
178
   256
179
     2
271
     2
272
     2
274
     0
289
     1
340
10
341
608
343
608
344
608
1001
ACAD_DSTYLE_DIMJAG
1070
   388
1040
1.5
1001
ACAD_DSTYLE_DIMTALN
1070
   392
1070
     0
  0
ENDTAB
  0
TABLE
  2
BLOCK_RECORD
  5
1
330
0
100
AcDbSymbolTable
 70
     1
  0
BLOCK_RECORD
  5
18
102
{ACAD_XDICTIONARY
360
B046
102
}
330
1
100
AcDbSymbolTableRecord
100
AcDbBlockTableRecord
  2
*MODEL_SPACE
340
619
  0
BLOCK_RECORD
  5
15
330
1
100
AcDbSymbolTableRecord
100
AcDbBlockTableRecord
  2
*PAPER_SPACE
340
61A
  0
BLOCK_RECORD
  5
608
330
1
100
AcDbSymbolTableRecord
100
AcDbBlockTableRecord
  2
_OPEN
340
0
  0
ENDTAB
  0
ENDSEC
  0
SECTION
  2
BLOCKS
  0
BLOCK
  5
39
330
18
100
AcDbEntity
  8
0
100
AcDbBlockBegin
  2
*MODEL_SPACE
 70
     0
 10
0.0
 20
0.0
 30
0.0
  3
*MODEL_SPACE
  1

  0
ENDBLK
  5
3A
330
18
100
AcDbEntity
  8
0
100
AcDbBlockEnd
  0
BLOCK
  5
37
330
15
100
AcDbEntity
 67
     1
  8
0
100
AcDbBlockBegin
  2
*PAPER_SPACE
 70
     0
 10
0.0
 20
0.0
 30
0.0
  3
*PAPER_SPACE
  1

  0
ENDBLK
  5
38
330
15
100
AcDbEntity
 67
     1
  8
0
100
AcDbBlockEnd
  0
BLOCK
  5
609
330
608
100
AcDbEntity
  8
0
100
AcDbBlockBegin
  2
_OPEN
 70
     0
 10
0.0
 20
0.0
 30
0.0
  3
_OPEN
  1

  0
LINE
  5
60A
330
608
100
AcDbEntity
  8
0
  6
ByBlock
 62
     0
100
AcDbLine
 10
-1.0
 20
0.1666666666666666
 30
0.0
 11
0.0
 21
0.0
 31
0.0
  0
LINE
  5
60B
330
608
100
AcDbEntity
  8
0
  6
ByBlock
 62
     0
100
AcDbLine
 10
0.0
 20
0.0
 30
0.0
 11
-1.0
 21
-0.1666666666666666
 31
0.0
  0
LINE
  5
60C
330
608
100
AcDbEntity
  8
0
  6
ByBlock
 62
     0
100
AcDbLine
 10
0.0
 20
0.0
 30
0.0
 11
-1.0
 21
0.0
 31
0.0
  0
ENDBLK
  5
60D
330
608
100
AcDbEntity
  8
0
100
AcDbBlockEnd
  0
ENDSEC
  0
SECTION
  2
ENTITIES
  0
LINE
  5
18131
330
18
100
AcDbEntity
  8
姿図
370
     0
100
AcDbLine
 10
2266.426192269319
 20
-1677.83116885338
 30
0.0
 11
2267.545159283208
 21
-1677.592665574157
 31
0.0
  0
LINE
  5
18132
330
18
100
AcDbEntity
  8
姿図
370
     0
100
AcDbLine
 10
2267.545159283208
 20
-1664.918667172125
 30
0.0
 11
2268.837759109596
 21
-1668.390126511658
 31
0.0
  0
POLYLINE
  5
18133
330
18
100
AcDbEntity
  8
姿図
370
     0
100
AcDb2dPolyline
 66
     1
 10
0.0
 20
0.0
 30
0.0
  0
VERTEX
  5
18134
330
18133
100
AcDbEntity
  8
姿図
100
AcDbVertex
100
AcDb2dVertex
 10
2266.426192269319
 20
-1664.960461326206
 30
0.0
  0
VERTEX
  5
18135
330
18133
100
AcDbEntity
  8
姿図
100
AcDbVertex
100
AcDb2dVertex
 10
2267.545159283208
 20
-1664.918667172125
 30
0.0
  0
VERTEX
  5
18136
330
18133
100
AcDbEntity
  8
姿図
100
AcDbVertex
100
AcDb2dVertex
 10
2267.545159283208
 20
-1677.592665574157
 30
0.0
  0
VERTEX
  5
18137
330
18133
100
AcDbEntity
  8
姿図
100
AcDbVertex
100
AcDb2dVertex
 10
2267.809468491867
 20
-1678.915248151695
 30
0.0
  0
SEQEND
  5
18138
330
18133
100
AcDbEntity
  8
姿図
  0
LINE
  5
18139
330
18
100
AcDbEntity
  8
姿図
370
     0
100
AcDbLine
 10
2268.882373096143
 20
-1676.666623907491
 30
0.0
 11
2268.69774861222
 21
-1678.352608197624
 31
0.0
  0
SPLINE
  5
1813A
330
18
100
AcDbEntity
  8
姿図
370
     0
100
AcDbSpline
210
0.0
220
0.0
230
1.0
 70
     8
 71
     3
 72
    14
 73
    10
 74
     0
 42
0.0000000001
 43
0.0000000001
 40
0.0
 40
0.0
 40
0.0
 40
0.0
 40
1.0
 40
1.0
 40
1.0
 40
2.0
 40
2.0
 40
2.0
 40
3.0
 40
3.0
 40
3.0
 40
3.0
 10
2270.400454422097
 20
-1663.239019740824
 30
0.0
 10
2270.400454422097
 20
-1663.239019740824
 30
0.0
 10
2272.361044696931
 20
-1668.034671995382
 30
0.0
 10
2272.361044696931
 20
-1668.034671995382
 30
0.0
 10
2272.361044696931
 20
-1668.034671995382
 30
0.0
 10
2270.965966846143
 20
-1669.900973137091
 30
0.0
 10
2271.043522903438
 20
-1677.413992643331
 30
0.0
 10
2271.043522903438
 20
-1677.413992643331
 30
0.0
 10
2270.400454422097
 20
-1676.189328273054
 30
0.0
 10
2270.400454422097
 20
-1676.189328273054
 30
0.0
  0
SPLINE
  5
1813B
330
18
100
AcDbEntity
  8
姿図
370
     0
100
AcDbSpline
210
0.0
220
0.0
230
1.0
 70
     8
 71
     3
 72
    14
 73
    10
 74
     0
 42
0.0000000001
 43
0.0000000001
 40
0.0
 40
0.0
 40
0.0
 40
0.0
 40
1.0
 40
1.0
 40
1.0
 40
2.0
 40
2.0
 40
2.0
 40
3.0
 40
3.0
 40
3.0
 40
3.0
 10
2274.027450949876
 20
-1662.312978074157
 30
0.0
 10
2274.027450949876
 20
-1662.312978074157
 30
0.0
 10
2275.104823244726
 20
-1666.357403780802
 30
0.0
 10
2275.104823244726
 20
-1666.357403780802
 30
0.0
 10
2275.104823244726
 20
-1666.357403780802
 30
0.0
 10
2274.207112679476
 20
-1667.843906622335
 30
0.0
 10
2274.284282818364
 20
-1676.614775220425
 30
0.0
 10
2274.284282818364
 20
-1676.614775220425
 30
0.0
 10
2273.988865880431
 20
-1675.335019813515
 30
0.0
 10
2273.988865880431
 20
-1675.335019813515
 30
0.0
  0
LINE
  5
1813C
330
18
100
AcDbEntity
  8
姿図
370
     0
100
AcDbLine
 10
2272.676973519319
 20
-1675.602022280111
 30
0.0
 11
2272.65170327797
 21
-1676.968882922716
 31
0.0
  0
LINE
  5
1813D
330
18
100
AcDbEntity
  8
姿図
370
     0
100
AcDbLine
 10
2276.496895394319
 20
-1674.927916353478
 30
0.0
 11
2276.46470846526
 21
-1676.256119856923
 31
0.0
  0
SPLINE
  5
1813E
330
18
100
AcDbEntity
  8
姿図
100
AcDbSpline
210
0.0
220
0.0
230
1.0
 70
     8
 71
     3
 72
     8
 73
     4
 74
     0
 42
0.0000000001
 43
0.0000000001
 40
0.1395966365003677
 40
0.1395966365003677
 40
0.1395966365003677
 40
0.1395966365003677
 40
1.0
 40
1.0
 40
1.0
 40
1.0
 10
2277.731617616542
 20
-1661.798478763464
 30
0.0
 10
2277.832675294576
 20
-1662.500275116962
 30
0.0
 10
2278.178605152454
 20
-1665.097362850075
 30
0.0
 10
2278.178605152454
 20
-1665.097362850075
 30
0.0
  0
SPLINE
  5
1813F
330
18
100
AcDbEntity
  8
姿図
100
AcDbSpline
210
0.0
220
0.0
230
1.0
 70
     8
 71
     3
 72
     8
 73
     4
 74
     0
 42
0.0000000001
 43
0.0000000001
 40
1.0
 40
1.0
 40
1.0
 40
1.0
 40
2.0
 40
2.0
 40
2.0
 40
2.0
 10
2278.178605152454
 20
-1665.097362850075
 30
0.0
 10
2278.178605152454
 20
-1665.097362850075
 30
0.0
 10
2277.860033550787
 20
-1666.32582529638
 30
0.0
 10
2277.937203689677
 20
-1674.737370435269
 30
0.0
  0
SPLINE
  5
18140
330
18
100
AcDbEntity
  8
姿図
100
AcDbSpline
210
0.0
220
0.0
230
1.0
 70
    24
 71
     3
 72
     8
 73
     4
 74
     0
 42
0.0000000001
 43
0.0000000001
 40
2.0
 40
2.0
 40
2.0
 40
2.0
 40
3.0
 40
3.0
 40
3.0
 40
3.0
 10
2277.937203689677
 20
-1674.737370435269
 30
0.0
 10
2277.937203689677
 20
-1674.737370435269
 30
0.0
 10
2278.039708805998
 20
-1676.061642333269
 30
0.0
 10
2278.039708805998
 20
-1676.061642333269
 30
0.0
  0
SPLINE
  5
18141
330
18
100
AcDbEntity
  8
姿図
100
AcDbSpline
210
0.0
220
0.0
230
1.0
 70
    24
 71
     3
 72
     8
 73
     4
 74
     0
 42
0.0000000001
 43
0.0000000001
 40
3.0
 40
3.0
 40
3.0
 40
3.0
 40
4.0
 40
4.0
 40
4.0
 40
4.0
 10
2278.039708805998
 20
-1676.061642333269
 30
0.0
 10
2278.039708805998
 20
-1676.061642333269
 30
0.0
 10
2277.731617616542
 20
-1674.775052334797
 30
0.0
 10
2277.731617616542
 20
-1674.775052334797
 30
0.0
  0
LINE
  5
18142
330
18
100
AcDbEntity
  8
姿図
370
     0
100
AcDbLine
 10
2280.239647130431
 20
-1674.548143276408
 30
0.0
 11
2280.226383512809
 21
-1675.868395283359
 31
0.0
  0
POLYLINE
  5
18143
330
18
100
AcDbEntity
  8
姿図
370
     0
100
AcDb2dPolyline
 66
     1
 10
0.0
 20
0.0
 30
0.0
  0
VERTEX
  5
18144
330
18143
100
AcDbEntity
  8
姿図
100
AcDbVertex
100
AcDb2dVertex
 10
2284.13673914432
 20
-1674.393982234084
 30
0.0
  0
VERTEX
  5
18145
330
18143
100
AcDbEntity
  8
姿図
100
AcDbVertex
100
AcDb2dVertex
 10
2284.0223437393
 20
-1675.718148090771
 30
0.0
  0
VERTEX
  5
18146
330
18143
100
AcDbEntity
  8
姿図
100
AcDbVertex
100
AcDb2dVertex
 10
2283.958887184757
 20
-1664.100794112877
 30
0.0
  0
VERTEX
  5
18147
330
18143
100
AcDbEntity
  8
姿図
100
AcDbVertex
100
AcDb2dVertex
 10
2284.13673914432
 20
-1661.274302173507
 30
0.0
  0
SEQEND
  5
18148
330
18143
100
AcDbEntity
  8
姿図
  0
SPLINE
  5
18149
330
18
100
AcDbEntity
  8
姿図
370
     0
100
AcDbSpline
210
0.0
220
0.0
230
1.0
 70
     8
 71
     3
 72
     8
 73
     4
 74
     0
 42
0.0000000001
 43
0.0000000001
 40
0.0952971271431601
 40
0.0952971271431601
 40
0.0952971271431601
 40
0.0952971271431601
 40
1.0
 40
1.0
 40
1.0
 40
1.0
 10
2272.65170327797
 20
-1676.968882922716
 30
0.0
 10
2273.215412698851
 20
-1676.831388532772
 30
0.0
 10
2273.799931283003
 20
-1676.705306149285
 30
0.0
 10
2274.28425434115
 20
-1676.61465185624
 30
0.0
  0
SPLINE
  5
1814A
330
18
100
AcDbEntity
  8
姿図
370
     0
100
AcDbSpline
210
0.0
220
0.0
230
1.0
 70
     8
 71
     3
 72
     8
 73
     4
 74
     0
 42
0.0000000001
 43
0.0000000001
 40
0.0921360382645009
 40
0.0921360382645009
 40
0.0921360382645009
 40
0.0921360382645009
 40
1.0
 40
1.0
 40
1.0
 40
1.0
 10
2276.46470846526
 20
-1676.256119856923
 30
0.0
 10
2277.012178719186
 20
-1676.179818392699
 30
0.0
 10
2277.576360900248
 20
-1676.110565285897
 30
0.0
 10
2278.039708805898
 20
-1676.061642331984
 30
0.0
  0
SPLINE
  5
1814B
330
18
100
AcDbEntity
  8
姿図
370
     0
100
AcDbSpline
210
0.0
220
0.0
230
1.0
 70
     8
 71
     3
 72
     8
 73
     4
 74
     0
 42
0.0000000001
 43
0.0000000001
 40
0.0
 40
0.0
 40
0.0
 40
0.0
 40
1.0
 40
1.0
 40
1.0
 40
1.0
 10
2280.226383512809
 20
-1675.868395283359
 30
0.0
 10
2280.662274219189
 20
-1675.837044914436
 30
0.0
 10
2281.294104731343
 20
-1675.800871411831
 30
0.0
 10
2281.794956574067
 20
-1675.779425343486
 30
0.0
  0
SPLINE
  5
1814C
330
18
100
AcDbEntity
  8
姿図
370
     0
100
AcDbSpline
210
0.0
220
0.0
230
1.0
 70
     8
 71
     3
 72
     8
 73
     4
 74
     0
 42
0.0000000001
 43
0.0000000001
 40
0.1913702083017348
 40
0.1913702083017348
 40
0.1913702083017348
 40
0.1913702083017348
 40
0.9869526861764152
 40
0.9869526861764152
 40
0.9869526861764152
 40
0.9869526861764152
 10
2284.0223437393
 20
-1675.718148090771
 30
0.0
 10
2284.26511777441
 20
-1675.715672485255
 30
0.0
 10
2284.509036613121
 20
-1675.71410613634
 30
0.0
 10
2284.754100255432
 20
-1675.714056234484
 30
0.0
  0
SPLINE
  5
1814D
330
18
100
AcDbEntity
  8
姿図
370
     0
100
AcDbSpline
210
0.0
220
0.0
230
1.0
 70
     8
 71
     3
 72
    11
 73
     7
 74
     0
 42
0.0000000001
 43
0.0000000001
 40
0.8128370868680237
 40
0.8128370868680237
 40
0.8128370868680237
 40
0.8128370868680237
 40
1.0
 40
1.0
 40
1.0
 40
1.467488304598379
 40
1.467488304598379
 40
1.467488304598379
 40
1.467488304598379
 10
2266.799249584463
 20
-1680.563462182785
 30
0.0
 10
2266.798535482023
 20
-1680.545867209147
 30
0.0
 10
2266.798176454433
 20
-1680.52826433002
 30
0.0
 10
2266.798176454433
 20
-1680.510661450894
 30
0.0
 10
2266.798176454433
 20
-1679.94866287304
 30
0.0
 10
2267.160382381561
 20
-1679.409063352158
 30
0.0
 10
2267.809468491869
 20
-1678.915248151696
 30
0.0
  0
SPLINE
  5
1814E
330
18
100
AcDbEntity
  8
姿図
370
     0
100
AcDbSpline
210
0.0
220
0.0
230
1.0
 70
     8
 71
     3
 72
     8
 73
     4
 74
     0
 42
0.0000000001
 43
0.0000000001
 40
1.64983146790278
 40
1.64983146790278
 40
1.64983146790278
 40
1.64983146790278
 40
2.0
 40
2.0
 40
2.0
 40
2.0
 10
2268.69774861222
 20
-1678.352608197624
 30
0.0
 10
2269.344222364253
 20
-1678.008317908332
 30
0.0
 10
2270.135834448556
 20
-1677.692774978677
 30
0.0
 10
2271.041286483598
 20
-1677.414698196715
 30
0.0
  0
SPLINE
  5
1814F
330
18
100
AcDbEntity
  8
姿図
370
     0
100
AcDbSpline
210
0.0
220
0.0
230
1.0
 70
     8
 71
     3
 72
    14
 73
    10
 74
     0
 42
0.0000000001
 43
0.0000000001
 40
0.0
 40
0.0
 40
0.0
 40
0.0
 40
1.0
 40
1.0
 40
1.0
 40
2.0
 40
2.0
 40
2.0
 40
3.0
 40
3.0
 40
3.0
 40
3.0
 10
2281.590124560988
 20
-1661.412257859314
 30
0.0
 10
2281.590124560988
 20
-1661.412257859314
 30
0.0
 10
2281.845770323689
 20
-1664.276261874842
 30
0.0
 10
2281.845770323689
 20
-1664.276261874842
 30
0.0
 10
2281.845770323689
 20
-1664.276261874842
 30
0.0
 10
2281.692616151699
 20
-1671.855548061136
 30
0.0
 10
2281.800385865166
 20
-1675.77918031389
 30
0.0
 10
2281.800385865166
 20
-1675.77918031389
 30
0.0
 10
2281.590124560988
 20
-1674.468294390793
 30
0.0
 10
2281.590124560988
 20
-1674.468294390793
 30
0.0
  0
LINE
  5
18150
330
18
100
AcDbEntity
  8
姿図
370
     0
100
AcDbLine
 10
2261.355872987635
 20
-1688.875181036397
 30
0.0
 11
2261.272584875686
 21
-1689.766691518884
 31
0.0
  0
SPLINE
  5
18151
330
18
100
AcDbEntity
  8
姿図
370
     0
100
AcDbSpline
210
0.0
220
0.0
230
1.0
 70
     8
 71
     3
 72
     8
 73
     4
 74
     0
 42
0.0000000001
 43
0.0000000001
 40
0.0
 40
0.0
 40
0.0
 40
0.0
 40
0.9999361422886211
 40
0.9999361422886211
 40
0.9999361422886211
 40
0.9999361422886211
 10
2261.355872987635
 20
-1688.875181036397
 30
0.0
 10
2261.89783802413
 20
-1685.478706046836
 30
0.0
 10
2272.166821285056
 20
-1682.775467978328
 30
0.0
 10
2284.754100255432
 20
-1682.78235606162
 30
0.0
  0
SPLINE
  5
18152
330
18
100
AcDbEntity
  8
姿図
370
     0
100
AcDbSpline
210
0.0
220
0.0
230
1.0
 70
     8
 71
     3
 72
     8
 73
     4
 74
     0
 42
0.0000000001
 43
0.0000000001
 40
1.050081280015561
 40
1.050081280015561
 40
1.050081280015561
 40
1.050081280015561
 40
1.993139136659904
 40
1.993139136659904
 40
1.993139136659904
 40
1.993139136659904
 10
2264.66121734451
 20
-1659.752809066613
 30
0.0
 10
2265.507040950055
 20
-1656.58355567514
 30
0.0
 10
2274.160710763764
 20
-1654.087236527974
 30
0.0
 10
2284.754100255432
 20
-1654.051342127852
 30
0.0
  0
LINE
  5
18153
330
18
100
AcDbEntity
  8
姿図
370
     0
100
AcDbLine
 10
2263.955124987568
 20
-1686.219557253225
 30
0.0
 11
2263.998745979367
 21
-1683.54259595203
 31
0.0
  0
LINE
  5
18154
330
18
100
AcDbEntity
  8
姿図
370
     0
100
AcDbLine
 10
2264.153818198634
 20
-1680.845831052505
 30
0.0
 11
2264.710720143876
 21
-1657.694934819337
 31
0.0
  0
SPLINE
  5
18155
330
18
100
AcDbEntity
  8
姿図
370
     0
100
AcDbSpline
210
0.0
220
0.0
230
1.0
 70
     8
 71
     3
 72
     8
 73
     4
 74
     0
 42
0.0000000001
 43
0.0000000001
 40
0.06908512365314
 40
0.06908512365314
 40
0.06908512365314
 40
0.06908512365314
 40
0.9044161898372975
 40
0.9044161898372975
 40
0.9044161898372975
 40
0.9044161898372975
 10
2267.809468491869
 20
-1678.915248151696
 30
0.0
 10
2268.142995213868
 20
-1677.882112988064
 30
0.0
 10
2268.501617694585
 20
-1676.881298607971
 30
0.0
 10
2268.883578879584
 20
-1675.917021942056
 30
0.0
  0
SPLINE
  5
18156
330
18
100
AcDbEntity
  8
姿図
370
     0
100
AcDbSpline
210
0.0
220
0.0
230
1.0
 70
     8
 71
     3
 72
     8
 73
     4
 74
     0
 42
0.0000000001
 43
0.0000000001
 40
0.0
 40
0.0
 40
0.0
 40
0.0
 40
0.8262017448356877
 40
0.8262017448356877
 40
0.8262017448356877
 40
0.8262017448356877
 10
2272.361044696931
 20
-1668.034671995382
 30
0.0
 10
2272.36031968737
 20
-1668.034011156928
 30
0.0
 10
2272.517787761917
 20
-1667.920507292029
 30
0.0
 10
2272.676973519319
 20
-1667.809401139294
 30
0.0
  0
SPLINE
  5
18157
330
18
100
AcDbEntity
  8
姿図
370
     0
100
AcDbSpline
210
0.0
220
0.0
230
1.0
 70
     8
 71
     3
 72
     8
 73
     4
 74
     0
 42
0.0000000001
 43
0.0000000001
 40
0.0
 40
0.0
 40
0.0
 40
0.0
 40
1.0
 40
1.0
 40
1.0
 40
1.0
 10
2275.107838495322
 20
-1666.355874525005
 30
0.0
 10
2275.516593473747
 20
-1666.145560675069
 30
0.0
 10
2276.034477452697
 20
-1665.906212666171
 30
0.0
 10
2276.496895394319
 20
-1665.715385711384
 30
0.0
  0
SPLINE
  5
18158
330
18
100
AcDbEntity
  8
姿図
370
     0
100
AcDbSpline
210
0.0
220
0.0
230
1.0
 70
     8
 71
     3
 72
     8
 73
     4
 74
     0
 42
0.0000000001
 43
0.0000000001
 40
0.0
 40
0.0
 40
0.0
 40
0.0
 40
1.0
 40
1.0
 40
1.0
 40
1.0
 10
2278.178605152454
 20
-1665.097362850075
 30
0.0
 10
2278.833100770839
 20
-1664.885517001023
 30
0.0
 10
2279.583700949876
 20
-1664.687165628411
 30
0.0
 10
2280.239647130431
 20
-1664.529208000373
 30
0.0
  0
SPLINE
  5
18159
330
18
100
AcDbEntity
  8
姿図
370
     0
100
AcDbSpline
210
0.0
220
0.0
230
1.0
 70
     8
 71
     3
 72
     8
 73
     4
 74
     0
 42
0.0000000001
 43
0.0000000001
 40
0.0
 40
0.0
 40
0.0
 40
0.0
 40
1.0
 40
1.0
 40
1.0
 40
1.0
 10
2281.843971442022
 20
-1664.276500209714
 30
0.0
 10
2282.509534418841
 20
-1664.185559725632
 30
0.0
 10
2283.269780865239
 20
-1664.121653204366
 30
0.0
 10
2283.958887207708
 20
-1664.100793748131
 30
0.0
  0
SPLINE
  5
1815A
330
18
100
AcDbEntity
  8
姿図
370
     0
100
AcDbSpline
210
0.0
220
0.0
230
1.0
 70
     8
 71
     3
 72
     8
 73
     4
 74
     0
 42
0.0000000001
 43
0.0000000001
 40
1.001339354111167
 40
1.001339354111167
 40
1.001339354111167
 40
1.001339354111167
 40
1.980352087394504
 40
1.980352087394504
 40
1.980352087394504
 40
1.980352087394504
 10
2284.754100255432
 20
-1693.326899585182
 30
0.0
 10
2275.942346468275
 20
-1693.316313060686
 30
0.0
 10
2268.614033917526
 20
-1691.594565371707
 30
0.0
 10
2267.064136540528
 20
-1689.323652891706
 30
0.0
  0
SPLINE
  5
1815B
330
18
100
AcDbEntity
  8
姿図
370
     0
100
AcDbSpline
210
0.0
220
0.0
230
1.0
 70
     8
 71
     3
 72
    11
 73
     7
 74
     0
 42
0.0000000001
 43
0.0000000001
 40
1.999919288514646
 40
1.999919288514646
 40
1.999919288514646
 40
1.999919288514646
 40
2.0
 40
2.0
 40
2.0
 40
2.960072190072716
 40
2.960072190072716
 40
2.960072190072716
 40
2.960072190072716
 10
2284.754100255432
 20
-1694.281915019451
 30
0.0
 10
2284.75329641212
 20
-1694.281914657298
 30
0.0
 10
2284.752492556505
 20
-1694.281914281582
 30
0.0
 10
2284.751688688592
 20
-1694.2819138923
 30
0.0
 10
2275.191325942353
 20
-1694.276125696655
 30
0.0
 10
2267.369219593416
 20
-1692.355365779435
 30
0.0
 10
2266.76142242053
 20
-1689.928127840554
 30
0.0
  0
ELLIPSE
  5
1815C
330
18
100
AcDbEntity
  8
姿図
370
     0
100
AcDbEllipse
 10
2284.756210376416
 20
-1690.228070033793
 30
0.0
 11
18.03038092719184
 21
-0.0084404839409722
 31
0.0
210
0.0
220
0.0
230
1.0
 40
0.2579372360116237
 41
1.571034105246708
 42
4.712392696008521
  0
ELLIPSE
  5
1815D
330
18
100
AcDbEntity
  8
姿図
370
     0
100
AcDbEllipse
 10
2284.770679777457
 20
-1690.038762036831
 30
0.0
 11
23.51790127224393
 21
-0.01085205078125
 31
0.0
210
0.0
220
0.0
230
1.0
 40
0.2715305715501497
 41
1.571626595898409
 42
4.711809300268823
  0
SPLINE
  5
1815E
330
18
100
AcDbEntity
  8
姿図
370
     0
100
AcDbSpline
210
0.0
220
0.0
230
1.0
 70
     8
 71
     3
 72
    11
 73
     7
 74
     0
 42
0.0000000001
 43
0.0000000001
 40
0.9413684295130511
 40
0.9413684295130511
 40
0.9413684295130511
 40
0.9413684295130511
 40
1.0
 40
1.0
 40
1.0
 40
1.99748518372597
 40
1.99748518372597
 40
1.99748518372597
 40
1.99748518372597
 10
2263.996059382802
 20
-1683.70746875164
 30
0.0
 10
2263.995575381192
 20
-1683.690110942307
 30
0.0
 10
2263.995332894319
 20
-1683.672736066611
 30
0.0
 10
2263.995332894319
 20
-1683.655344610616
 30
0.0
 10
2263.995332894319
 20
-1680.257572763367
 30
0.0
 10
2273.281215217474
 20
-1677.500454812834
 30
0.0
 10
2284.754100255432
 20
-1677.486609011182
 30
0.0
  0
SPLINE
  5
1815F
330
18
100
AcDbEntity
  8
姿図
370
     0
100
AcDbSpline
210
0.0
220
0.0
230
1.0
 70
     8
 71
     3
 72
     8
 73
     4
 74
     0
 42
0.0000000001
 43
0.0000000001
 40
0.023234783008269
 40
0.023234783008269
 40
0.023234783008269
 40
0.023234783008269
 40
1.0
 40
1.0
 40
1.0
 40
1.0
 10
2265.388012744579
 20
-1652.822859653655
 30
0.0
 10
2268.568647089762
 20
-1649.96692376226
 30
0.0
 10
2276.018011277885
 20
-1648.075087449157
 30
0.0
 10
2284.754100255432
 20
-1648.075087449157
 30
0.0
  0
SPLINE
  5
18160
330
18
100
AcDbEntity
  8
姿図
370
     0
100
AcDbSpline
210
0.0
220
0.0
230
1.0
 70
     8
 71
     3
 72
     8
 73
     4
 74
     0
 42
0.0000000001
 43
0.0000000001
 40
1.024420279742161
 40
1.024420279742161
 40
1.024420279742161
 40
1.024420279742161
 40
1.991421078540978
 40
1.991421078540978
 40
1.991421078540978
 40
1.991421078540978
 10
2264.667510476964
 20
-1659.323269820381
 30
0.0
 10
2265.094655853665
 20
-1656.037359094954
 30
0.0
 10
2273.899026120807
 20
-1653.407846684404
 30
0.0
 10
2284.754100255432
 20
-1653.361854675429
 30
0.0
  0
SPLINE
  5
18161
330
18
100
AcDbEntity
  8
姿図
370
     0
100
AcDbSpline
210
0.0
220
0.0
230
1.0
 70
     8
 71
     3
 72
    11
 73
     7
 74
     0
 42
0.0000000001
 43
0.0000000001
 40
0.1500654705373645
 40
0.1500654705373645
 40
0.1500654705373645
 40
0.1500654705373645
 40
1.0
 40
1.0
 40
1.0
 40
1.968484711393507
 40
1.968484711393507
 40
1.968484711393507
 40
1.968484711393507
 10
2264.653791499513
 20
-1682.11134627876
 30
0.0
 10
2264.323882036624
 20
-1681.663059302857
 30
0.0
 10
2264.149673172098
 20
-1681.196655061266
 30
0.0
 10
2264.149673172098
 20
-1680.718056199157
 30
0.0
 10
2264.149673172098
 20
-1679.678729500343
 30
0.0
 10
2264.970764503589
 20
-1678.697082771097
 30
0.0
 10
2266.426192269319
 20
-1677.83116885338
 30
0.0
  0
SPLINE
  5
18162
330
18
100
AcDbEntity
  8
姿図
370
     0
100
AcDbSpline
210
0.0
220
0.0
230
1.0
 70
     8
 71
     3
 72
     8
 73
     4
 74
     0
 42
0.0000000001
 43
0.0000000001
 40
0.0
 40
0.0
 40
0.0
 40
0.0
 40
1.0
 40
1.0
 40
1.0
 40
1.0
 10
2268.879348295875
 20
-1676.694246277084
 30
0.0
 10
2269.310426210292
 20
-1676.531576164435
 30
0.0
 10
2269.89643695248
 20
-1676.336239250373
 30
0.0
 10
2270.400454422097
 20
-1676.189328273054
 30
0.0
  0
SPLINE
  5
18163
330
18
100
AcDbEntity
  8
姿図
370
     0
100
AcDbSpline
210
0.0
220
0.0
230
1.0
 70
     8
 71
     3
 72
     8
 73
     4
 74
     0
 42
0.0000000001
 43
0.0000000001
 40
0.1256269971317055
 40
0.1256269971317055
 40
0.1256269971317055
 40
0.1256269971317055
 40
1.0
 40
1.0
 40
1.0
 40
1.0
 10
2272.676973519319
 20
-1675.602022280111
 30
0.0
 10
2273.125819597119
 20
-1675.502393984266
 30
0.0
 10
2273.58085005059
 20
-1675.409187661945
 30
0.0
 10
2273.988865880431
 20
-1675.335019813515
 30
0.0
  0
SPLINE
  5
18164
330
18
100
AcDbEntity
  8
姿図
370
     0
100
AcDbSpline
210
0.0
220
0.0
230
1.0
 70
     8
 71
     3
 72
     8
 73
     4
 74
     0
 42
0.0000000001
 43
0.0000000001
 40
0.1300766342727084
 40
0.1300766342727084
 40
0.1300766342727084
 40
0.1300766342727084
 40
1.0
 40
1.0
 40
1.0
 40
1.0
 10
2276.496895394319
 20
-1674.927916353478
 30
0.0
 10
2276.926010731713
 20
-1674.869619935518
 30
0.0
 10
2277.355048454086
 20
-1674.816746651086
 30
0.0
 10
2277.731617616542
 20
-1674.775052334797
 30
0.0
  0
SPLINE
  5
18165
330
18
100
AcDbEntity
  8
姿図
370
     0
100
AcDbSpline
210
0.0
220
0.0
230
1.0
 70
     8
 71
     3
 72
     8
 73
     4
 74
     0
 42
0.0000000001
 43
0.0000000001
 40
0.086507651974596
 40
0.086507651974596
 40
0.086507651974596
 40
0.086507651974596
 40
0.9398231555770834
 40
0.9398231555770834
 40
0.9398231555770834
 40
0.9398231555770834
 10
2280.239647130431
 20
-1674.548143276408
 30
0.0
 10
2280.684262195082
 20
-1674.5171370412
 30
0.0
 10
2281.134546205396
 20
-1674.490520745996
 30
0.0
 10
2281.590124560988
 20
-1674.468294390793
 30
0.0
  0
SPLINE
  5
18166
330
18
100
AcDbEntity
  8
姿図
370
     0
100
AcDbSpline
210
0.0
220
0.0
230
1.0
 70
     8
 71
     3
 72
     8
 73
     4
 74
     0
 42
0.0000000001
 43
0.0000000001
 40
0.0927979036329164
 40
0.0927979036329164
 40
0.0927979036329164
 40
0.0927979036329164
 40
0.8378652734041763
 40
0.8378652734041763
 40
0.8378652734041763
 40
0.8378652734041763
 10
2284.13673914432
 20
-1674.393982234084
 30
0.0
 10
2284.341742642884
 20
-1674.391612802789
 30
0.0
 10
2284.547446560084
 20
-1674.390519978172
 30
0.0
 10
2284.754100255432
 20
-1674.3902050412
 30
0.0
  0
SPLINE
  5
18167
330
18
100
AcDbEntity
  8
姿図
370
     0
100
AcDbSpline
210
0.0
220
0.0
230
1.0
 70
     8
 71
     3
 72
     8
 73
     4
 74
     0
 42
0.0000000001
 43
0.0000000001
 40
0.1273380181918934
 40
0.1273380181918934
 40
0.1273380181918934
 40
0.1273380181918934
 40
0.9525592642749691
 40
0.9525592642749691
 40
0.9525592642749691
 40
0.9525592642749691
 10
2266.426192269319
 20
-1664.960461326206
 30
0.0
 10
2267.121055055208
 20
-1664.527432471028
 30
0.0
 10
2267.946169489986
 20
-1664.121725272653
 30
0.0
 10
2268.883578879562
 20
-1663.750115842059
 30
0.0
  0
SPLINE
  5
18168
330
18
100
AcDbEntity
  8
姿図
370
     0
100
AcDbSpline
210
0.0
220
0.0
230
1.0
 70
     8
 71
     3
 72
     8
 73
     4
 74
     0
 42
0.0000000001
 43
0.0000000001
 40
0.0613346493417392
 40
0.0613346493417392
 40
0.0613346493417392
 40
0.0613346493417392
 40
0.9379371547558214
 40
0.9379371547558214
 40
0.9379371547558214
 40
0.9379371547558214
 10
2270.400454422104
 20
-1663.208166479163
 30
0.0
 10
2271.113242093483
 20
-1662.979089748074
 30
0.0
 10
2271.873841617757
 20
-1662.767239668958
 30
0.0
 10
2272.676973519321
 20
-1662.573834582341
 30
0.0
  0
SPLINE
  5
18169
330
18
100
AcDbEntity
  8
姿図
370
     0
100
AcDbSpline
210
0.0
220
0.0
230
1.0
 70
     8
 71
     3
 72
     8
 73
     4
 74
     0
 42
0.0000000001
 43
0.0000000001
 40
0.0701839916056713
 40
0.0701839916056713
 40
0.0701839916056713
 40
0.0701839916056713
 40
0.9484569542415018
 40
0.9484569542415018
 40
0.9484569542415018
 40
0.9484569542415018
 10
2273.988865880431
 20
-1662.282374718898
 30
0.0
 10
2274.791388665526
 20
-1662.118415915761
 30
0.0
 10
2275.62889611539
 20
-1661.972259515196
 30
0.0
 10
2276.496895394319
 20
-1661.845539275638
 30
0.0
  0
SPLINE
  5
1816A
330
18
100
AcDbEntity
  8
姿図
370
     0
100
AcDbSpline
210
0.0
220
0.0
230
1.0
 70
     8
 71
     3
 72
     8
 73
     4
 74
     0
 42
0.0000000001
 43
0.0000000001
 40
0.0533208789827838
 40
0.0533208789827838
 40
0.0533208789827838
 40
0.0533208789827838
 40
0.9019584081011851
 40
0.9019584081011851
 40
0.9019584081011851
 40
0.9019584081011851
 10
2277.731617616542
 20
-1661.681034267891
 30
0.0
 10
2278.545494764883
 20
-1661.582321038948
 30
0.0
 10
2279.382610022718
 20
-1661.50019978696
 30
0.0
 10
2280.239647130431
 20
-1661.436144405092
 30
0.0
  0
SPLINE
  5
1816B
330
18
100
AcDbEntity
  8
姿図
370
     0
100
AcDbSpline
210
0.0
220
0.0
230
1.0
 70
     8
 71
     3
 72
     8
 73
     4
 74
     0
 42
0.0000000001
 43
0.0000000001
 40
0.0793032319515214
 40
0.0793032319515214
 40
0.0793032319515214
 40
0.0793032319515214
 40
0.9482371356259127
 40
0.9482371356259127
 40
0.9482371356259127
 40
0.9482371356259127
 10
2281.590124560988
 20
-1661.351825817157
 30
0.0
 10
2282.423952084068
 20
-1661.308805895395
 30
0.0
 10
2283.273878407356
 20
-1661.282700981967
 30
0.0
 10
2284.13673914432
 20
-1661.274302173507
 30
0.0
  0
LINE
  5
1816C
330
18
100
AcDbEntity
  8
姿図
370
     0
100
AcDbLine
 10
2266.426192269319
 20
-1664.960461326206
 30
0.0
 11
2266.426192269319
 21
-1677.83116885338
 31
0.0
  0
LINE
  5
1816D
330
18
100
AcDbEntity
  8
姿図
370
     0
100
AcDbLine
 10
2284.13673914432
 20
-1661.274302173507
 30
0.0
 11
2284.13673914432
 21
-1674.393982234084
 31
0.0
  0
LINE
  5
1816E
330
18
100
AcDbEntity
  8
姿図
370
     0
100
AcDbLine
 10
2281.590124560988
 20
-1661.351825817157
 30
0.0
 11
2281.590124560988
 21
-1674.468294390793
 31
0.0
  0
LINE
  5
1816F
330
18
100
AcDbEntity
  8
姿図
370
     0
100
AcDbLine
 10
2280.239647130431
 20
-1661.436144405092
 30
0.0
 11
2280.239647130431
 21
-1674.548143276408
 31
0.0
  0
LINE
  5
18170
330
18
100
AcDbEntity
  8
姿図
370
     0
100
AcDbLine
 10
2277.731617616542
 20
-1661.681034267891
 30
0.0
 11
2277.731617616542
 21
-1674.775052334797
 31
0.0
  0
LINE
  5
18171
330
18
100
AcDbEntity
  8
姿図
370
     0
100
AcDbLine
 10
2276.496895394319
 20
-1661.845539275637
 30
0.0
 11
2276.496895394319
 21
-1674.927916353478
 31
0.0
  0
LINE
  5
18172
330
18
100
AcDbEntity
  8
姿図
370
     0
100
AcDbLine
 10
2273.988865880431
 20
-1662.282374718897
 30
0.0
 11
2273.988865880431
 21
-1675.335019813515
 31
0.0
  0
LINE
  5
18173
330
18
100
AcDbEntity
  8
姿図
370
     0
100
AcDbLine
 10
2272.676973519319
 20
-1662.573834582331
 30
0.0
 11
2272.676973519319
 21
-1675.602022280111
 31
0.0
  0
LINE
  5
18174
330
18
100
AcDbEntity
  8
姿図
370
     0
100
AcDbLine
 10
2270.400454422097
 20
-1663.208166479142
 30
0.0
 11
2270.400454422097
 21
-1676.189328273054
 31
0.0
  0
LINE
  5
18175
330
18
100
AcDbEntity
  8
姿図
370
     0
100
AcDbLine
 10
2268.883578879562
 20
-1663.750115842059
 30
0.0
 11
2268.883578879562
 21
-1676.692683778609
 31
0.0
  0
LINE
  5
18176
330
18
100
AcDbEntity
  8
姿図
370
     0
100
AcDbLine
 10
2303.082008241541
 20
-1677.83116885338
 30
0.0
 11
2301.963041227653
 21
-1677.592665574157
 31
0.0
  0
LINE
  5
18177
330
18
100
AcDbEntity
  8
姿図
370
     0
100
AcDbLine
 10
2301.950594277761
 20
-1664.918667172125
 30
0.0
 11
2300.670441401264
 21
-1668.390126511658
 31
0.0
  0
POLYLINE
  5
18178
330
18
100
AcDbEntity
  8
姿図
370
     0
100
AcDb2dPolyline
 66
     1
 10
0.0
 20
0.0
 30
0.0
  0
VERTEX
  5
18179
330
18178
100
AcDbEntity
  8
姿図
100
AcDbVertex
100
AcDb2dVertex
 10
2303.082008241541
 20
-1664.960461326206
 30
0.0
  0
VERTEX
  5
1817A
330
18178
100
AcDbEntity
  8
姿図
100
AcDbVertex
100
AcDb2dVertex
 10
2301.950594277761
 20
-1664.918667172125
 30
0.0
  0
VERTEX
  5
1817B
330
18178
100
AcDbEntity
  8
姿図
100
AcDbVertex
100
AcDb2dVertex
 10
2301.963041227653
 20
-1677.592665574157
 30
0.0
  0
VERTEX
  5
1817C
330
18178
100
AcDbEntity
  8
姿図
100
AcDbVertex
100
AcDb2dVertex
 10
2301.698732018995
 20
-1678.915248151695
 30
0.0
  0
SEQEND
  5
1817D
330
18178
100
AcDbEntity
  8
姿図
  0
LINE
  5
1817E
330
18
100
AcDbEntity
  8
姿図
370
     0
100
AcDbLine
 10
2300.625827414719
 20
-1676.666623907491
 30
0.0
 11
2300.810451898642
 21
-1678.352608197624
 31
0.0
  0
SPLINE
  5
1817F
330
18
100
AcDbEntity
  8
姿図
370
     0
100
AcDbSpline
210
0.0
220
0.0
230
1.0
 70
     8
 71
     3
 72
    14
 73
    10
 74
     0
 42
0.0000000001
 43
0.0000000001
 40
0.0
 40
0.0
 40
0.0
 40
0.0
 40
1.0
 40
1.0
 40
1.0
 40
2.0
 40
2.0
 40
2.0
 40
3.0
 40
3.0
 40
3.0
 40
3.0
 10
2299.107746088765
 20
-1663.239019740824
 30
0.0
 10
2299.107746088765
 20
-1663.239019740824
 30
0.0
 10
2297.147155813934
 20
-1668.034671995382
 30
0.0
 10
2297.147155813934
 20
-1668.034671995382
 30
0.0
 10
2297.147155813934
 20
-1668.034671995382
 30
0.0
 10
2298.542233664721
 20
-1669.900973137091
 30
0.0
 10
2298.464677607424
 20
-1677.413992643331
 30
0.0
 10
2298.464677607424
 20
-1677.413992643331
 30
0.0
 10
2299.107746088765
 20
-1676.189328273054
 30
0.0
 10
2299.107746088765
 20
-1676.189328273054
 30
0.0
  0
SPLINE
  5
18180
330
18
100
AcDbEntity
  8
姿図
370
     0
100
AcDbSpline
210
0.0
220
0.0
230
1.0
 70
     8
 71
     3
 72
    14
 73
    10
 74
     0
 42
0.0000000001
 43
0.0000000001
 40
0.0
 40
0.0
 40
0.0
 40
0.0
 40
1.0
 40
1.0
 40
1.0
 40
2.0
 40
2.0
 40
2.0
 40
3.0
 40
3.0
 40
3.0
 40
3.0
 10
2295.480749560988
 20
-1662.312978074157
 30
0.0
 10
2295.480749560988
 20
-1662.312978074157
 30
0.0
 10
2294.403377266135
 20
-1666.357403780802
 30
0.0
 10
2294.403377266135
 20
-1666.357403780802
 30
0.0
 10
2294.403377266135
 20
-1666.357403780802
 30
0.0
 10
2295.301087831385
 20
-1667.843906622335
 30
0.0
 10
2295.223917692498
 20
-1676.614775220425
 30
0.0
 10
2295.223917692498
 20
-1676.614775220425
 30
0.0
 10
2295.51933463043
 20
-1675.335019813515
 30
0.0
 10
2295.51933463043
 20
-1675.335019813515
 30
0.0
  0
LINE
  5
18181
330
18
100
AcDbEntity
  8
姿図
370
     0
100
AcDbLine
 10
2296.831226991542
 20
-1675.602022280111
 30
0.0
 11
2296.856497232891
 21
-1676.968882922716
 31
0.0
  0
LINE
  5
18182
330
18
100
AcDbEntity
  8
姿図
370
     0
100
AcDbLine
 10
2293.011305116543
 20
-1674.927916353478
 30
0.0
 11
2293.043492045601
 21
-1676.256119856923
 31
0.0
  0
SPLINE
  5
18183
330
18
100
AcDbEntity
  8
姿図
100
AcDbSpline
210
0.0
220
0.0
230
1.0
 70
     8
 71
     3
 72
     8
 73
     4
 74
     0
 42
0.0000000001
 43
0.0000000001
 40
0.1395966365003677
 40
0.1395966365003677
 40
0.1395966365003677
 40
0.1395966365003677
 40
1.0
 40
1.0
 40
1.0
 40
1.0
 10
2291.776582894319
 20
-1661.798478763464
 30
0.0
 10
2291.675525216286
 20
-1662.500275116962
 30
0.0
 10
2291.329595358408
 20
-1665.097362850075
 30
0.0
 10
2291.329595358408
 20
-1665.097362850075
 30
0.0
  0
SPLINE
  5
18184
330
18
100
AcDbEntity
  8
姿図
100
AcDbSpline
210
0.0
220
0.0
230
1.0
 70
     8
 71
     3
 72
     8
 73
     4
 74
     0
 42
0.0000000001
 43
0.0000000001
 40
1.0
 40
1.0
 40
1.0
 40
1.0
 40
2.0
 40
2.0
 40
2.0
 40
2.0
 10
2291.329595358408
 20
-1665.097362850075
 30
0.0
 10
2291.329595358408
 20
-1665.097362850075
 30
0.0
 10
2291.648166960075
 20
-1666.32582529638
 30
0.0
 10
2291.570996821185
 20
-1674.737370435269
 30
0.0
  0
SPLINE
  5
18185
330
18
100
AcDbEntity
  8
姿図
100
AcDbSpline
210
0.0
220
0.0
230
1.0
 70
    24
 71
     3
 72
     8
 73
     4
 74
     0
 42
0.0000000001
 43
0.0000000001
 40
2.0
 40
2.0
 40
2.0
 40
2.0
 40
3.0
 40
3.0
 40
3.0
 40
3.0
 10
2291.570996821185
 20
-1674.737370435269
 30
0.0
 10
2291.570996821185
 20
-1674.737370435269
 30
0.0
 10
2291.468491704863
 20
-1676.061642333269
 30
0.0
 10
2291.468491704863
 20
-1676.061642333269
 30
0.0
  0
SPLINE
  5
18186
330
18
100
AcDbEntity
  8
姿図
100
AcDbSpline
210
0.0
220
0.0
230
1.0
 70
    24
 71
     3
 72
     8
 73
     4
 74
     0
 42
0.0000000001
 43
0.0000000001
 40
3.0
 40
3.0
 40
3.0
 40
3.0
 40
4.0
 40
4.0
 40
4.0
 40
4.0
 10
2291.468491704863
 20
-1676.061642333269
 30
0.0
 10
2291.468491704863
 20
-1676.061642333269
 30
0.0
 10
2291.776582894319
 20
-1674.775052334797
 30
0.0
 10
2291.776582894319
 20
-1674.775052334797
 30
0.0
  0
LINE
  5
18187
330
18
100
AcDbEntity
  8
姿図
370
     0
100
AcDbLine
 10
2289.268553380431
 20
-1674.548143276408
 30
0.0
 11
2289.281816998053
 21
-1675.868395283359
 31
0.0
  0
POLYLINE
  5
18188
330
18
100
AcDbEntity
  8
姿図
370
     0
100
AcDb2dPolyline
 66
     1
 10
0.0
 20
0.0
 30
0.0
  0
VERTEX
  5
18189
330
18188
100
AcDbEntity
  8
姿図
100
AcDbVertex
100
AcDb2dVertex
 10
2285.371461366542
 20
-1674.393982234084
 30
0.0
  0
VERTEX
  5
1818A
330
18188
100
AcDbEntity
  8
姿図
100
AcDbVertex
100
AcDb2dVertex
 10
2285.485856771562
 20
-1675.718148090771
 30
0.0
  0
VERTEX
  5
1818B
330
18188
100
AcDbEntity
  8
姿図
100
AcDbVertex
100
AcDb2dVertex
 10
2285.549313326104
 20
-1664.100794112877
 30
0.0
  0
VERTEX
  5
1818C
330
18188
100
AcDbEntity
  8
姿図
100
AcDbVertex
100
AcDb2dVertex
 10
2285.371461366542
 20
-1661.274302173507
 30
0.0
  0
SEQEND
  5
1818D
330
18188
100
AcDbEntity
  8
姿図
  0
SPLINE
  5
1818E
330
18
100
AcDbEntity
  8
姿図
370
     0
100
AcDbSpline
210
0.0
220
0.0
230
1.0
 70
     8
 71
     3
 72
     8
 73
     4
 74
     0
 42
0.0000000001
 43
0.0000000001
 40
0.0952971271431601
 40
0.0952971271431601
 40
0.0952971271431601
 40
0.0952971271431601
 40
1.0
 40
1.0
 40
1.0
 40
1.0
 10
2296.856497232891
 20
-1676.968882922716
 30
0.0
 10
2296.29278781201
 20
-1676.831388532772
 30
0.0
 10
2295.708269227857
 20
-1676.705306149285
 30
0.0
 10
2295.223946169712
 20
-1676.61465185624
 30
0.0
  0
SPLINE
  5
1818F
330
18
100
AcDbEntity
  8
姿図
370
     0
100
AcDbSpline
210
0.0
220
0.0
230
1.0
 70
     8
 71
     3
 72
     8
 73
     4
 74
     0
 42
0.0000000001
 43
0.0000000001
 40
0.0921360382645009
 40
0.0921360382645009
 40
0.0921360382645009
 40
0.0921360382645009
 40
1.0
 40
1.0
 40
1.0
 40
1.0
 10
2293.043492045601
 20
-1676.256119856923
 30
0.0
 10
2292.496021791676
 20
-1676.179818392699
 30
0.0
 10
2291.931839610614
 20
-1676.110565285897
 30
0.0
 10
2291.468491704964
 20
-1676.061642331984
 30
0.0
  0
SPLINE
  5
18190
330
18
100
AcDbEntity
  8
姿図
370
     0
100
AcDbSpline
210
0.0
220
0.0
230
1.0
 70
     8
 71
     3
 72
     8
 73
     4
 74
     0
 42
0.0000000001
 43
0.0000000001
 40
0.0
 40
0.0
 40
0.0
 40
0.0
 40
1.0
 40
1.0
 40
1.0
 40
1.0
 10
2289.281816998053
 20
-1675.868395283359
 30
0.0
 10
2288.845926291671
 20
-1675.837044914436
 30
0.0
 10
2288.21409577952
 20
-1675.800871411831
 30
0.0
 10
2287.713243936794
 20
-1675.779425343486
 30
0.0
  0
SPLINE
  5
18191
330
18
100
AcDbEntity
  8
姿図
370
     0
100
AcDbSpline
210
0.0
220
0.0
230
1.0
 70
     8
 71
     3
 72
     8
 73
     4
 74
     0
 42
0.0000000001
 43
0.0000000001
 40
0.1913702083017348
 40
0.1913702083017348
 40
0.1913702083017348
 40
0.1913702083017348
 40
0.9869526861764152
 40
0.9869526861764152
 40
0.9869526861764152
 40
0.9869526861764152
 10
2285.485856771562
 20
-1675.718148090771
 30
0.0
 10
2285.243082736451
 20
-1675.715672485255
 30
0.0
 10
2284.999163897742
 20
-1675.71410613634
 30
0.0
 10
2284.754100255432
 20
-1675.714056234484
 30
0.0
  0
SPLINE
  5
18192
330
18
100
AcDbEntity
  8
姿図
370
     0
100
AcDbSpline
210
0.0
220
0.0
230
1.0
 70
     8
 71
     3
 72
    11
 73
     7
 74
     0
 42
0.0000000001
 43
0.0000000001
 40
0.8128370868680237
 40
0.8128370868680237
 40
0.8128370868680237
 40
0.8128370868680237
 40
1.0
 40
1.0
 40
1.0
 40
1.467488304598379
 40
1.467488304598379
 40
1.467488304598379
 40
1.467488304598379
 10
2302.708950926397
 20
-1680.563462182785
 30
0.0
 10
2302.709665028837
 20
-1680.545867209147
 30
0.0
 10
2302.710024056429
 20
-1680.52826433002
 30
0.0
 10
2302.710024056429
 20
-1680.510661450894
 30
0.0
 10
2302.710024056429
 20
-1679.94866287304
 30
0.0
 10
2302.347818129301
 20
-1679.409063352158
 30
0.0
 10
2301.698732018995
 20
-1678.915248151696
 30
0.0
  0
SPLINE
  5
18193
330
18
100
AcDbEntity
  8
姿図
370
     0
100
AcDbSpline
210
0.0
220
0.0
230
1.0
 70
     8
 71
     3
 72
     8
 73
     4
 74
     0
 42
0.0000000001
 43
0.0000000001
 40
1.64983146790278
 40
1.64983146790278
 40
1.64983146790278
 40
1.64983146790278
 40
2.0
 40
2.0
 40
2.0
 40
2.0
 10
2300.810451898642
 20
-1678.352608197624
 30
0.0
 10
2300.163978146609
 20
-1678.008317908332
 30
0.0
 10
2299.372366062303
 20
-1677.692774978677
 30
0.0
 10
2298.466914027263
 20
-1677.414698196715
 30
0.0
  0
SPLINE
  5
18194
330
18
100
AcDbEntity
  8
姿図
370
     0
100
AcDbSpline
210
0.0
220
0.0
230
1.0
 70
     8
 71
     3
 72
    14
 73
    10
 74
     0
 42
0.0000000001
 43
0.0000000001
 40
0.0
 40
0.0
 40
0.0
 40
0.0
 40
1.0
 40
1.0
 40
1.0
 40
2.0
 40
2.0
 40
2.0
 40
3.0
 40
3.0
 40
3.0
 40
3.0
 10
2287.918075949876
 20
-1661.412257859314
 30
0.0
 10
2287.918075949876
 20
-1661.412257859314
 30
0.0
 10
2287.662430187173
 20
-1664.276261874842
 30
0.0
 10
2287.662430187173
 20
-1664.276261874842
 30
0.0
 10
2287.662430187173
 20
-1664.276261874842
 30
0.0
 10
2287.815584359163
 20
-1671.855548061136
 30
0.0
 10
2287.707814645695
 20
-1675.77918031389
 30
0.0
 10
2287.707814645695
 20
-1675.77918031389
 30
0.0
 10
2287.918075949876
 20
-1674.468294390793
 30
0.0
 10
2287.918075949876
 20
-1674.468294390793
 30
0.0
  0
LINE
  5
18195
330
18
100
AcDbEntity
  8
姿図
370
     0
100
AcDbLine
 10
2308.152327523226
 20
-1688.875181036397
 30
0.0
 11
2308.235615635174
 21
-1689.766691518884
 31
0.0
  0
SPLINE
  5
18196
330
18
100
AcDbEntity
  8
姿図
370
     0
100
AcDbSpline
210
0.0
220
0.0
230
1.0
 70
     8
 71
     3
 72
     8
 73
     4
 74
     0
 42
0.0000000001
 43
0.0000000001
 40
0.0
 40
0.0
 40
0.0
 40
0.0
 40
0.9999361422886211
 40
0.9999361422886211
 40
0.9999361422886211
 40
0.9999361422886211
 10
2308.152327523226
 20
-1688.875181036397
 30
0.0
 10
2307.61036248673
 20
-1685.478706046836
 30
0.0
 10
2297.341379225803
 20
-1682.775467978328
 30
0.0
 10
2284.754100255432
 20
-1682.78235606162
 30
0.0
  0
SPLINE
  5
18197
330
18
100
AcDbEntity
  8
姿図
370
     0
100
AcDbSpline
210
0.0
220
0.0
230
1.0
 70
     8
 71
     3
 72
     8
 73
     4
 74
     0
 42
0.0000000001
 43
0.0000000001
 40
1.050081280015561
 40
1.050081280015561
 40
1.050081280015561
 40
1.050081280015561
 40
1.993139136659904
 40
1.993139136659904
 40
1.993139136659904
 40
1.993139136659904
 10
2304.84698316635
 20
-1659.752809066613
 30
0.0
 10
2304.001159560807
 20
-1656.58355567514
 30
0.0
 10
2295.347489747099
 20
-1654.087236527974
 30
0.0
 10
2284.754100255432
 20
-1654.051342127852
 30
0.0
  0
LINE
  5
18198
330
18
100
AcDbEntity
  8
姿図
370
     0
100
AcDbLine
 10
2305.553075523294
 20
-1686.219557253225
 30
0.0
 11
2305.509454531495
 21
-1683.54259595203
 31
0.0
  0
LINE
  5
18199
330
18
100
AcDbEntity
  8
姿図
370
     0
100
AcDbLine
 10
2305.354382312229
 20
-1680.845831052505
 30
0.0
 11
2304.797480366986
 21
-1657.694934819337
 31
0.0
  0
SPLINE
  5
1819A
330
18
100
AcDbEntity
  8
姿図
370
     0
100
AcDbSpline
210
0.0
220
0.0
230
1.0
 70
     8
 71
     3
 72
     8
 73
     4
 74
     0
 42
0.0000000001
 43
0.0000000001
 40
0.06908512365314
 40
0.06908512365314
 40
0.06908512365314
 40
0.06908512365314
 40
0.9044161898372975
 40
0.9044161898372975
 40
0.9044161898372975
 40
0.9044161898372975
 10
2301.698732018995
 20
-1678.915248151696
 30
0.0
 10
2301.365205296994
 20
-1677.882112988064
 30
0.0
 10
2301.006582816277
 20
-1676.881298607971
 30
0.0
 10
2300.624621631278
 20
-1675.917021942056
 30
0.0
  0
SPLINE
  5
1819B
330
18
100
AcDbEntity
  8
姿図
370
     0
100
AcDbSpline
210
0.0
220
0.0
230
1.0
 70
     8
 71
     3
 72
     8
 73
     4
 74
     0
 42
0.0000000001
 43
0.0000000001
 40
0.0
 40
0.0
 40
0.0
 40
0.0
 40
0.8262017448356877
 40
0.8262017448356877
 40
0.8262017448356877
 40
0.8262017448356877
 10
2297.147155813934
 20
-1668.034671995382
 30
0.0
 10
2297.147880823492
 20
-1668.034011156928
 30
0.0
 10
2296.990412748945
 20
-1667.920507292029
 30
0.0
 10
2296.831226991542
 20
-1667.809401139294
 30
0.0
  0
SPLINE
  5
1819C
330
18
100
AcDbEntity
  8
姿図
370
     0
100
AcDbSpline
210
0.0
220
0.0
230
1.0
 70
     8
 71
     3
 72
     8
 73
     4
 74
     0
 42
0.0000000001
 43
0.0000000001
 40
0.0
 40
0.0
 40
0.0
 40
0.0
 40
1.0
 40
1.0
 40
1.0
 40
1.0
 10
2294.400362015542
 20
-1666.355874525005
 30
0.0
 10
2293.991607037115
 20
-1666.145560675069
 30
0.0
 10
2293.473723058165
 20
-1665.906212666171
 30
0.0
 10
2293.011305116543
 20
-1665.715385711384
 30
0.0
  0
SPLINE
  5
1819D
330
18
100
AcDbEntity
  8
姿図
370
     0
100
AcDbSpline
210
0.0
220
0.0
230
1.0
 70
     8
 71
     3
 72
     8
 73
     4
 74
     0
 42
0.0000000001
 43
0.0000000001
 40
0.0
 40
0.0
 40
0.0
 40
0.0
 40
1.0
 40
1.0
 40
1.0
 40
1.0
 10
2291.329595358408
 20
-1665.097362850075
 30
0.0
 10
2290.675099740023
 20
-1664.885517001023
 30
0.0
 10
2289.924499560986
 20
-1664.687165628411
 30
0.0
 10
2289.268553380431
 20
-1664.529208000373
 30
0.0
  0
SPLINE
  5
1819E
330
18
100
AcDbEntity
  8
姿図
370
     0
100
AcDbSpline
210
0.0
220
0.0
230
1.0
 70
     8
 71
     3
 72
     8
 73
     4
 74
     0
 42
0.0000000001
 43
0.0000000001
 40
0.0
 40
0.0
 40
0.0
 40
0.0
 40
1.0
 40
1.0
 40
1.0
 40
1.0
 10
2287.66422906884
 20
-1664.276500209714
 30
0.0
 10
2286.998666092021
 20
-1664.185559725632
 30
0.0
 10
2286.238419645622
 20
-1664.121653204366
 30
0.0
 10
2285.549313303152
 20
-1664.100793748131
 30
0.0
  0
SPLINE
  5
1819F
330
18
100
AcDbEntity
  8
姿図
370
     0
100
AcDbSpline
210
0.0
220
0.0
230
1.0
 70
     8
 71
     3
 72
     8
 73
     4
 74
     0
 42
0.0000000001
 43
0.0000000001
 40
1.001339354111167
 40
1.001339354111167
 40
1.001339354111167
 40
1.001339354111167
 40
1.980352087394504
 40
1.980352087394504
 40
1.980352087394504
 40
1.980352087394504
 10
2284.754100255432
 20
-1693.326899585182
 30
0.0
 10
2293.565854042586
 20
-1693.316313060686
 30
0.0
 10
2300.894166593338
 20
-1691.594565371707
 30
0.0
 10
2302.444063970332
 20
-1689.323652891706
 30
0.0
  0
SPLINE
  5
181A0
330
18
100
AcDbEntity
  8
姿図
370
     0
100
AcDbSpline
210
0.0
220
0.0
230
1.0
 70
     8
 71
     3
 72
    11
 73
     7
 74
     0
 42
0.0000000001
 43
0.0000000001
 40
1.999919288514646
 40
1.999919288514646
 40
1.999919288514646
 40
1.999919288514646
 40
2.0
 40
2.0
 40
2.0
 40
2.960072190072716
 40
2.960072190072716
 40
2.960072190072716
 40
2.960072190072716
 10
2284.754100255432
 20
-1694.281915019451
 30
0.0
 10
2284.754904098742
 20
-1694.281914657298
 30
0.0
 10
2284.755707954357
 20
-1694.281914281582
 30
0.0
 10
2284.75651182227
 20
-1694.2819138923
 30
0.0
 10
2294.316874568507
 20
-1694.276125696655
 30
0.0
 10
2302.138980917447
 20
-1692.355365779435
 30
0.0
 10
2302.746778090332
 20
-1689.928127840554
 30
0.0
  0
ELLIPSE
  5
181A1
330
18
100
AcDbEntity
  8
姿図
370
     0
100
AcDbEllipse
 10
2284.751990134446
 20
-1690.228070033793
 30
0.0
 11
-18.03038092719184
 21
-0.0084404839409722
 31
0.0
210
0.0
220
0.0
230
-1.0
 40
0.2579372360116237
 41
1.571034105246708
 42
4.712392696008521
  0
ELLIPSE
  5
181A2
330
18
100
AcDbEntity
  8
姿図
370
     0
100
AcDbEllipse
 10
2284.737520733404
 20
-1690.038762036831
 30
0.0
 11
-23.51790127224393
 21
-0.01085205078125
 31
0.0
210
0.0
220
0.0
230
-1.0
 40
0.2715305715501497
 41
1.571626595898409
 42
4.711809300268823
  0
SPLINE
  5
181A3
330
18
100
AcDbEntity
  8
姿図
370
     0
100
AcDbSpline
210
0.0
220
0.0
230
1.0
 70
     8
 71
     3
 72
    11
 73
     7
 74
     0
 42
0.0000000001
 43
0.0000000001
 40
0.9413684295130511
 40
0.9413684295130511
 40
0.9413684295130511
 40
0.9413684295130511
 40
1.0
 40
1.0
 40
1.0
 40
1.99748518372597
 40
1.99748518372597
 40
1.99748518372597
 40
1.99748518372597
 10
2305.51214112806
 20
-1683.70746875164
 30
0.0
 10
2305.512625129672
 20
-1683.690110942307
 30
0.0
 10
2305.512867616542
 20
-1683.672736066611
 30
0.0
 10
2305.512867616542
 20
-1683.655344610616
 30
0.0
 10
2305.512867616542
 20
-1680.257572763367
 30
0.0
 10
2296.226985293388
 20
-1677.500454812834
 30
0.0
 10
2284.754100255432
 20
-1677.486609011182
 30
0.0
  0
SPLINE
  5
181A4
330
18
100
AcDbEntity
  8
姿図
370
     0
100
AcDbSpline
210
0.0
220
0.0
230
1.0
 70
     8
 71
     3
 72
     8
 73
     4
 74
     0
 42
0.0000000001
 43
0.0000000001
 40
0.023234783008269
 40
0.023234783008269
 40
0.023234783008269
 40
0.023234783008269
 40
1.0
 40
1.0
 40
1.0
 40
1.0
 10
2304.120187766283
 20
-1652.822859653655
 30
0.0
 10
2300.9395534211
 20
-1649.96692376226
 30
0.0
 10
2293.490189232976
 20
-1648.075087449157
 30
0.0
 10
2284.754100255432
 20
-1648.075087449157
 30
0.0
  0
SPLINE
  5
181A5
330
18
100
AcDbEntity
  8
姿図
370
     0
100
AcDbSpline
210
0.0
220
0.0
230
1.0
 70
     8
 71
     3
 72
     8
 73
     4
 74
     0
 42
0.0000000001
 43
0.0000000001
 40
1.024420279742161
 40
1.024420279742161
 40
1.024420279742161
 40
1.024420279742161
 40
1.991421078540978
 40
1.991421078540978
 40
1.991421078540978
 40
1.991421078540978
 10
2304.8406900339
 20
-1659.323269820381
 30
0.0
 10
2304.413544657196
 20
-1656.037359094954
 30
0.0
 10
2295.609174390055
 20
-1653.407846684404
 30
0.0
 10
2284.754100255432
 20
-1653.361854675429
 30
0.0
  0
SPLINE
  5
181A6
330
18
100
AcDbEntity
  8
姿図
370
     0
100
AcDbSpline
210
0.0
220
0.0
230
1.0
 70
     8
 71
     3
 72
    11
 73
     7
 74
     0
 42
0.0000000001
 43
0.0000000001
 40
0.1500654705373645
 40
0.1500654705373645
 40
0.1500654705373645
 40
0.1500654705373645
 40
1.0
 40
1.0
 40
1.0
 40
1.968484711393507
 40
1.968484711393507
 40
1.968484711393507
 40
1.968484711393507
 10
2304.85440901135
 20
-1682.11134627876
 30
0.0
 10
2305.184318474239
 20
-1681.663059302857
 30
0.0
 10
2305.358527338766
 20
-1681.196655061266
 30
0.0
 10
2305.358527338766
 20
-1680.718056199157
 30
0.0
 10
2305.358527338766
 20
-1679.678729500343
 30
0.0
 10
2304.537436007273
 20
-1678.697082771097
 30
0.0
 10
2303.082008241541
 20
-1677.83116885338
 30
0.0
  0
SPLINE
  5
181A7
330
18
100
AcDbEntity
  8
姿図
370
     0
100
AcDbSpline
210
0.0
220
0.0
230
1.0
 70
     8
 71
     3
 72
     8
 73
     4
 74
     0
 42
0.0000000001
 43
0.0000000001
 40
0.0
 40
0.0
 40
0.0
 40
0.0
 40
1.0
 40
1.0
 40
1.0
 40
1.0
 10
2300.628852214984
 20
-1676.694246277084
 30
0.0
 10
2300.19777430057
 20
-1676.531576164435
 30
0.0
 10
2299.611763558381
 20
-1676.336239250373
 30
0.0
 10
2299.107746088765
 20
-1676.189328273054
 30
0.0
  0
SPLINE
  5
181A8
330
18
100
AcDbEntity
  8
姿図
370
     0
100
AcDbSpline
210
0.0
220
0.0
230
1.0
 70
     8
 71
     3
 72
     8
 73
     4
 74
     0
 42
0.0000000001
 43
0.0000000001
 40
0.1256269971317055
 40
0.1256269971317055
 40
0.1256269971317055
 40
0.1256269971317055
 40
1.0
 40
1.0
 40
1.0
 40
1.0
 10
2296.831226991542
 20
-1675.602022280111
 30
0.0
 10
2296.382380913743
 20
-1675.502393984266
 30
0.0
 10
2295.927350460273
 20
-1675.409187661945
 30
0.0
 10
2295.51933463043
 20
-1675.335019813515
 30
0.0
  0
SPLINE
  5
181A9
330
18
100
AcDbEntity
  8
姿図
370
     0
100
AcDbSpline
210
0.0
220
0.0
230
1.0
 70
     8
 71
     3
 72
     8
 73
     4
 74
     0
 42
0.0000000001
 43
0.0000000001
 40
0.1300766342727084
 40
0.1300766342727084
 40
0.1300766342727084
 40
0.1300766342727084
 40
1.0
 40
1.0
 40
1.0
 40
1.0
 10
2293.011305116543
 20
-1674.927916353478
 30
0.0
 10
2292.58218977915
 20
-1674.869619935518
 30
0.0
 10
2292.153152056777
 20
-1674.816746651086
 30
0.0
 10
2291.776582894319
 20
-1674.775052334797
 30
0.0
  0
SPLINE
  5
181AA
330
18
100
AcDbEntity
  8
姿図
370
     0
100
AcDbSpline
210
0.0
220
0.0
230
1.0
 70
     8
 71
     3
 72
     8
 73
     4
 74
     0
 42
0.0000000001
 43
0.0000000001
 40
0.086507651974596
 40
0.086507651974596
 40
0.086507651974596
 40
0.086507651974596
 40
0.9398231555770834
 40
0.9398231555770834
 40
0.9398231555770834
 40
0.9398231555770834
 10
2289.268553380431
 20
-1674.548143276408
 30
0.0
 10
2288.82393831578
 20
-1674.5171370412
 30
0.0
 10
2288.373654305466
 20
-1674.490520745996
 30
0.0
 10
2287.918075949876
 20
-1674.468294390793
 30
0.0
  0
SPLINE
  5
181AB
330
18
100
AcDbEntity
  8
姿図
370
     0
100
AcDbSpline
210
0.0
220
0.0
230
1.0
 70
     8
 71
     3
 72
     8
 73
     4
 74
     0
 42
0.0000000001
 43
0.0000000001
 40
0.0927979036329164
 40
0.0927979036329164
 40
0.0927979036329164
 40
0.0927979036329164
 40
0.8378652734041763
 40
0.8378652734041763
 40
0.8378652734041763
 40
0.8378652734041763
 10
2285.371461366544
 20
-1674.393982234084
 30
0.0
 10
2285.166457867978
 20
-1674.391612802789
 30
0.0
 10
2284.960753950778
 20
-1674.390519978172
 30
0.0
 10
2284.754100255432
 20
-1674.3902050412
 30
0.0
  0
SPLINE
  5
181AC
330
18
100
AcDbEntity
  8
姿図
370
     0
100
AcDbSpline
210
0.0
220
0.0
230
1.0
 70
     8
 71
     3
 72
     8
 73
     4
 74
     0
 42
0.0000000001
 43
0.0000000001
 40
0.1273380181918934
 40
0.1273380181918934
 40
0.1273380181918934
 40
0.1273380181918934
 40
0.9525592642749691
 40
0.9525592642749691
 40
0.9525592642749691
 40
0.9525592642749691
 10
2303.082008241541
 20
-1664.960461326206
 30
0.0
 10
2302.387145455654
 20
-1664.527432471028
 30
0.0
 10
2301.562031020876
 20
-1664.121725272653
 30
0.0
 10
2300.6246216313
 20
-1663.750115842059
 30
0.0
  0
SPLINE
  5
181AD
330
18
100
AcDbEntity
  8
姿図
370
     0
100
AcDbSpline
210
0.0
220
0.0
230
1.0
 70
     8
 71
     3
 72
     8
 73
     4
 74
     0
 42
0.0000000001
 43
0.0000000001
 40
0.0613346493417392
 40
0.0613346493417392
 40
0.0613346493417392
 40
0.0613346493417392
 40
0.9379371547558214
 40
0.9379371547558214
 40
0.9379371547558214
 40
0.9379371547558214
 10
2299.107746088758
 20
-1663.208166479163
 30
0.0
 10
2298.394958417379
 20
-1662.979089748074
 30
0.0
 10
2297.634358893105
 20
-1662.767239668958
 30
0.0
 10
2296.831226991539
 20
-1662.573834582341
 30
0.0
  0
SPLINE
  5
181AE
330
18
100
AcDbEntity
  8
姿図
370
     0
100
AcDbSpline
210
0.0
220
0.0
230
1.0
 70
     8
 71
     3
 72
     8
 73
     4
 74
     0
 42
0.0000000001
 43
0.0000000001
 40
0.0701839916056713
 40
0.0701839916056713
 40
0.0701839916056713
 40
0.0701839916056713
 40
0.9484569542415018
 40
0.9484569542415018
 40
0.9484569542415018
 40
0.9484569542415018
 10
2295.51933463043
 20
-1662.282374718898
 30
0.0
 10
2294.716811845337
 20
-1662.118415915761
 30
0.0
 10
2293.879304395472
 20
-1661.972259515196
 30
0.0
 10
2293.011305116543
 20
-1661.845539275638
 30
0.0
  0
SPLINE
  5
181AF
330
18
100
AcDbEntity
  8
姿図
370
     0
100
AcDbSpline
210
0.0
220
0.0
230
1.0
 70
     8
 71
     3
 72
     8
 73
     4
 74
     0
 42
0.0000000001
 43
0.0000000001
 40
0.0533208789827838
 40
0.0533208789827838
 40
0.0533208789827838
 40
0.0533208789827838
 40
0.9019584081011851
 40
0.9019584081011851
 40
0.9019584081011851
 40
0.9019584081011851
 10
2291.776582894319
 20
-1661.681034267891
 30
0.0
 10
2290.962705745977
 20
-1661.582321038948
 30
0.0
 10
2290.125590488144
 20
-1661.50019978696
 30
0.0
 10
2289.268553380431
 20
-1661.436144405092
 30
0.0
  0
SPLINE
  5
181B0
330
18
100
AcDbEntity
  8
姿図
370
     0
100
AcDbSpline
210
0.0
220
0.0
230
1.0
 70
     8
 71
     3
 72
     8
 73
     4
 74
     0
 42
0.0000000001
 43
0.0000000001
 40
0.0793032319515214
 40
0.0793032319515214
 40
0.0793032319515214
 40
0.0793032319515214
 40
0.9482371356259127
 40
0.9482371356259127
 40
0.9482371356259127
 40
0.9482371356259127
 10
2287.918075949876
 20
-1661.351825817157
 30
0.0
 10
2287.084248426794
 20
-1661.308805895395
 30
0.0
 10
2286.234322103506
 20
-1661.282700981967
 30
0.0
 10
2285.371461366542
 20
-1661.274302173507
 30
0.0
  0
LINE
  5
181B1
330
18
100
AcDbEntity
  8
姿図
370
     0
100
AcDbLine
 10
2303.082008241541
 20
-1664.960461326206
 30
0.0
 11
2303.082008241541
 21
-1677.83116885338
 31
0.0
  0
LINE
  5
181B2
330
18
100
AcDbEntity
  8
姿図
370
     0
100
AcDbLine
 10
2285.371461366542
 20
-1661.274302173507
 30
0.0
 11
2285.371461366542
 21
-1674.393982234084
 31
0.0
  0
LINE
  5
181B3
330
18
100
AcDbEntity
  8
姿図
370
     0
100
AcDbLine
 10
2287.918075949876
 20
-1661.351825817157
 30
0.0
 11
2287.918075949876
 21
-1674.468294390793
 31
0.0
  0
LINE
  5
181B4
330
18
100
AcDbEntity
  8
姿図
370
     0
100
AcDbLine
 10
2289.268553380431
 20
-1661.436144405092
 30
0.0
 11
2289.268553380431
 21
-1674.548143276408
 31
0.0
  0
LINE
  5
181B5
330
18
100
AcDbEntity
  8
姿図
370
     0
100
AcDbLine
 10
2291.776582894319
 20
-1661.681034267891
 30
0.0
 11
2291.776582894319
 21
-1674.775052334797
 31
0.0
  0
LINE
  5
181B6
330
18
100
AcDbEntity
  8
姿図
370
     0
100
AcDbLine
 10
2293.011305116543
 20
-1661.845539275637
 30
0.0
 11
2293.011305116543
 21
-1674.927916353478
 31
0.0
  0
LINE
  5
181B7
330
18
100
AcDbEntity
  8
姿図
370
     0
100
AcDbLine
 10
2295.51933463043
 20
-1662.282374718897
 30
0.0
 11
2295.51933463043
 21
-1675.335019813515
 31
0.0
  0
LINE
  5
181B8
330
18
100
AcDbEntity
  8
姿図
370
     0
100
AcDbLine
 10
2296.831226991542
 20
-1662.573834582331
 30
0.0
 11
2296.831226991542
 21
-1675.602022280111
 31
0.0
  0
LINE
  5
181B9
330
18
100
AcDbEntity
  8
姿図
370
     0
100
AcDbLine
 10
2299.107746088765
 20
-1663.208166479142
 30
0.0
 11
2299.107746088765
 21
-1676.189328273054
 31
0.0
  0
LINE
  5
181BA
330
18
100
AcDbEntity
  8
姿図
370
     0
100
AcDbLine
 10
2300.6246216313
 20
-1663.750115842059
 30
0.0
 11
2300.6246216313
 21
-1676.692683778609
 31
0.0
  0
ELLIPSE
  5
181BB
330
18
100
AcDbEntity
  8
姿図
370
     0
100
AcDbEllipse
 10
2284.780095217866
 20
-1690.221801946008
 30
0.0
 11
19.08072985001266
 21
0.0090555828698857
 31
0.0
210
0.0
220
0.0
230
-0.9999999999999998
 40
0.2815178545097996
 41
-1.570534989937893
 42
1.570802202802991
  0
ELLIPSE
  5
181BC
330
18
100
AcDbEntity
  8
姿図
370
     0
100
AcDbEllipse
 10
2284.75653744517
 20
-1690.22180772975
 30
0.0
 11
-19.08072985001267
 21
0.0090555828712991
 31
0.0
210
0.0
220
0.0
230
0.9999999999999996
 40
0.2815178545097996
 41
-1.570534989937893
 42
1.570802202802991
  0
SPLINE
  5
181BD
330
18
100
AcDbEntity
  8
姿図
370
     0
100
AcDbSpline
210
0.0
220
0.0
230
1.0
 70
     8
 71
     3
 72
     8
 73
     4
 74
     0
 42
0.0000000001
 43
0.0000000001
 40
1.166821647757899
 40
1.166821647757899
 40
1.166821647757899
 40
1.166821647757899
 40
1.744866559373208
 40
1.744866559373208
 40
1.744866559373208
 40
1.744866559373208
 10
2264.710591551262
 20
-1657.69410764886
 30
0.0
 10
2264.782563594048
 20
-1657.183867217994
 30
0.0
 10
2264.980962636393
 20
-1656.684618070463
 30
0.0
 10
2265.292987695461
 20
-1656.202431222219
 30
0.0
  0
LINE
  5
181BE
330
18
100
AcDbEntity
  8
姿図
370
     0
100
AcDbLine
 10
2265.292987695451
 20
-1656.202431222235
 30
0.0
 11
2265.388012744579
 21
-1652.822859653655
 31
0.0
  0
SPLINE
  5
181BF
330
18
100
AcDbEntity
  8
姿図
370
     0
100
AcDbSpline
210
0.0
220
0.0
230
1.0
 70
     8
 71
     3
 72
     8
 73
     4
 74
     0
 42
0.0000000001
 43
0.0000000001
 40
1.166821647757899
 40
1.166821647757899
 40
1.166821647757899
 40
1.166821647757899
 40
1.744866559373208
 40
1.744866559373208
 40
1.744866559373208
 40
1.744866559373208
 10
2304.797608959599
 20
-1657.69410764886
 30
0.0
 10
2304.725636916813
 20
-1657.183867217994
 30
0.0
 10
2304.527237874467
 20
-1656.684618070463
 30
0.0
 10
2304.2152128154
 20
-1656.202431222219
 30
0.0
  0
LINE
  5
181C0
330
18
100
AcDbEntity
  8
姿図
370
     0
100
AcDbLine
 10
2304.21521281541
 20
-1656.202431222235
 30
0.0
 11
2304.120187766283
 21
-1652.822859653655
 31
0.0
  0
SPLINE
  5
181DC
330
18
100
AcDbEntity
  8
姿図
100
AcDbSpline
210
0.0
220
0.0
230
1.0
 70
     8
 71
     3
 72
     8
 73
     4
 74
     0
 42
0.0000000001
 43
0.0000000001
 40
0.5192946764927047
 40
0.5192946764927047
 40
0.5192946764927047
 40
0.5192946764927047
 40
1.0
 40
1.0
 40
1.0
 40
1.0
 10
2250.392770081894
 20
-1688.17102669612
 30
0.0
 10
2250.421607703674
 20
-1688.234822287224
 30
0.0
 10
2250.475013576402
 20
-1688.31662639223
 30
0.0
 10
2250.573761858058
 20
-1688.395113134936
 30
0.0
  0
SPLINE
  5
181DD
330
18
100
AcDbEntity
  8
姿図
100
AcDbSpline
210
0.0
220
0.0
230
1.0
 70
    24
 71
     3
 72
     8
 73
     4
 74
     0
 42
0.0000000001
 43
0.0000000001
 40
1.0
 40
1.0
 40
1.0
 40
1.0
 40
2.0
 40
2.0
 40
2.0
 40
2.0
 10
2250.573761858058
 20
-1688.395113134936
 30
0.0
 10
2250.573761858058
 20
-1688.395113134936
 30
0.0
 10
2251.344836528669
 20
-1689.082262672011
 30
0.0
 10
2251.344836528669
 20
-1689.082262672011
 30
0.0
  0
SPLINE
  5
181DE
330
18
100
AcDbEntity
  8
姿図
100
AcDbSpline
210
0.0
220
0.0
230
1.0
 70
     8
 71
     3
 72
     8
 73
     4
 74
     0
 42
0.0000000001
 43
0.0000000001
 40
2.0
 40
2.0
 40
2.0
 40
2.0
 40
3.0
 40
3.0
 40
3.0
 40
3.0
 10
2251.344836528669
 20
-1689.082262672011
 30
0.0
 10
2251.344836528669
 20
-1689.082262672011
 30
0.0
 10
2251.461538688925
 20
-1689.069930764475
 30
0.0
 10
2251.377925838328
 20
-1688.706325850121
 30
0.0
  0
SPLINE
  5
181DF
330
18
100
AcDbEntity
  8
姿図
370
     0
100
AcDbSpline
210
0.0
220
0.0
230
1.0
 70
     8
 71
     3
 72
    14
 73
    10
 74
     0
 42
0.0000000001
 43
0.0000000001
 40
0.0
 40
0.0
 40
0.0
 40
0.0
 40
1.0
 40
1.0
 40
1.0
 40
2.0
 40
2.0
 40
2.0
 40
3.0
 40
3.0
 40
3.0
 40
3.0
 10
2249.928969666524
 20
-1687.894518254119
 30
0.0
 10
2249.928969666524
 20
-1687.894518254119
 30
0.0
 10
2250.050725399249
 20
-1688.682624788369
 30
0.0
 10
2250.291574387265
 20
-1688.893763617346
 30
0.0
 10
2250.291574387265
 20
-1688.893763617346
 30
0.0
 10
2251.624251706106
 20
-1689.945749761944
 30
0.0
 10
2251.624251706106
 20
-1689.945749761944
 30
0.0
 10
2251.624251706106
 20
-1689.945749761944
 30
0.0
 10
2251.999022001951
 20
-1690.142158359853
 30
0.0
 10
2251.851566472359
 20
-1689.185713075043
 30
0.0
  0
SPLINE
  5
181E0
330
18
100
AcDbEntity
  8
姿図
370
     0
100
AcDbSpline
210
0.0
220
0.0
230
1.0
 70
     8
 71
     3
 72
    11
 73
     7
 74
     0
 42
0.0000000001
 43
0.0000000001
 40
0.03541891214335
 40
0.03541891214335
 40
0.03541891214335
 40
0.03541891214335
 40
1.0
 40
1.0
 40
1.0
 40
1.99263132897008
 40
1.99263132897008
 40
1.99263132897008
 40
1.99263132897008
 10
2251.851566472359
 20
-1689.185713075043
 30
0.0
 10
2250.767716605039
 20
-1684.745264989425
 30
0.0
 10
2251.322725004822
 20
-1678.533397549065
 30
0.0
 10
2253.705327454231
 20
-1672.199069786005
 30
0.0
 10
2256.382699103179
 20
-1665.075880611038
 30
0.0
 10
2260.694664829573
 20
-1659.592991594665
 30
0.0
 10
2264.896687525463
 20
-1657.332994898634
 30
0.0
  0
SPLINE
  5
181E1
330
18
100
AcDbEntity
  8
姿図
370
     0
100
AcDbSpline
210
0.0
220
0.0
230
1.0
 70
     8
 71
     3
 72
    11
 73
     7
 74
     0
 42
0.0000000001
 43
0.0000000001
 40
0.0289387478528501
 40
0.0289387478528501
 40
0.0289387478528501
 40
0.0289387478528501
 40
1.0
 40
1.0
 40
1.0
 40
1.986316442698136
 40
1.986316442698136
 40
1.986316442698136
 40
1.986316442698136
 10
2251.38003654115
 20
-1688.715619034438
 30
0.0
 10
2250.374251806783
 20
-1684.293321168536
 30
0.0
 10
2250.951575946341
 20
-1678.190632174449
 30
0.0
 10
2253.290717188567
 20
-1671.971788425981
 30
0.0
 10
2256.06098928211
 20
-1664.604888101414
 30
0.0
 10
2260.577886004095
 20
-1658.991703252134
 30
0.0
 10
2264.913991028652
 20
-1656.884551608353
 30
0.0
  0
SPLINE
  5
181E2
330
18
100
AcDbEntity
  8
姿図
370
     0
100
AcDbSpline
210
0.0
220
0.0
230
1.0
 70
     8
 71
     3
 72
    11
 73
     7
 74
     0
 42
0.0000000001
 43
0.0000000001
 40
0.014445577542336
 40
0.014445577542336
 40
0.014445577542336
 40
0.014445577542336
 40
1.0
 40
1.0
 40
1.0
 40
1.968225917887298
 40
1.968225917887298
 40
1.968225917887298
 40
1.968225917887298
 10
2250.392770081894
 20
-1688.17102669612
 30
0.0
 10
2249.531169264348
 20
-1683.523660237206
 30
0.0
 10
2250.20661788481
 20
-1677.439159774473
 30
0.0
 10
2252.590573718303
 20
-1671.290000588191
 30
0.0
 10
2255.529631896779
 20
-1663.705372163428
 30
0.0
 10
2260.31776332334
 20
-1657.94594750828
 30
0.0
 10
2264.989651745739
 20
-1655.691716696817
 30
0.0
  0
SPLINE
  5
181E3
330
18
100
AcDbEntity
  8
姿図
370
     0
100
AcDbSpline
210
0.0
220
0.0
230
1.0
 70
     8
 71
     3
 72
    11
 73
     7
 74
     0
 42
0.0000000001
 43
0.0000000001
 40
0.0697732564073768
 40
0.0697732564073768
 40
0.0697732564073768
 40
0.0697732564073768
 40
1.0
 40
1.0
 40
1.0
 40
1.972990325457915
 40
1.972990325457915
 40
1.972990325457915
 40
1.972990325457915
 10
2249.928969666562
 20
-1687.894518254333
 30
0.0
 10
2249.07330591558
 20
-1683.249692088053
 30
0.0
 10
2249.750289334864
 20
-1677.174973097675
 30
0.0
 10
2252.130635794197
 20
-1671.034619015176
 30
0.0
 10
2255.144525851438
 20
-1663.257142200228
 30
0.0
 10
2260.102989610098
 20
-1657.398594234157
 30
0.0
 10
2264.88575394921
 20
-1655.271375197125
 30
0.0
  0
SPLINE
  5
181E4
330
18
100
AcDbEntity
  8
姿図
100
AcDbSpline
210
0.0
220
0.0
230
1.0
 70
     8
 71
     3
 72
     8
 73
     4
 74
     0
 42
0.0000000001
 43
0.0000000001
 40
0.5192946764927047
 40
0.5192946764927047
 40
0.5192946764927047
 40
0.5192946764927047
 40
1.0
 40
1.0
 40
1.0
 40
1.0
 10
2318.551487463564
 20
-1688.344927869987
 30
0.0
 10
2318.522164326155
 20
-1688.408501759964
 30
0.0
 10
2318.468136361603
 20
-1688.489896341382
 30
0.0
 10
2318.368792596116
 20
-1688.567627983388
 30
0.0
  0
SPLINE
  5
181E5
330
18
100
AcDbEntity
  8
姿図
100
AcDbSpline
210
0.0
220
0.0
230
1.0
 70
    24
 71
     3
 72
     8
 73
     4
 74
     0
 42
0.0000000001
 43
0.0000000001
 40
1.0
 40
1.0
 40
1.0
 40
1.0
 40
2.0
 40
2.0
 40
2.0
 40
2.0
 10
2318.368792596116
 20
-1688.567627983388
 30
0.0
 10
2318.368792596116
 20
-1688.567627983388
 30
0.0
 10
2317.592501762825
 20
-1689.248879167686
 30
0.0
 10
2317.592501762825
 20
-1689.248879167686
 30
0.0
  0
SPLINE
  5
181E6
330
18
100
AcDbEntity
  8
姿図
100
AcDbSpline
210
0.0
220
0.0
230
1.0
 70
     8
 71
     3
 72
     8
 73
     4
 74
     0
 42
0.0000000001
 43
0.0000000001
 40
2.0
 40
2.0
 40
2.0
 40
2.0
 40
3.0
 40
3.0
 40
3.0
 40
3.0
 10
2317.592501762825
 20
-1689.248879167686
 30
0.0
 10
2317.592501762825
 20
-1689.248879167686
 30
0.0
 10
2317.4758970078
 20
-1689.235657925027
 30
0.0
 10
2317.562279416052
 20
-1688.87270101013
 30
0.0
  0
SPLINE
  5
181E7
330
18
100
AcDbEntity
  8
姿図
370
     0
100
AcDbSpline
210
0.0
220
0.0
230
1.0
 70
     8
 71
     3
 72
    14
 73
    10
 74
     0
 42
0.0000000001
 43
0.0000000001
 40
0.0
 40
0.0
 40
0.0
 40
0.0
 40
1.0
 40
1.0
 40
1.0
 40
2.0
 40
2.0
 40
2.0
 40
3.0
 40
3.0
 40
3.0
 40
3.0
 10
2319.017382397413
 20
-1688.071963303773
 30
0.0
 10
2319.017382397413
 20
-1688.071963303773
 30
0.0
 10
2318.889621974358
 20
-1688.859118715418
 30
0.0
 10
2318.647170342246
 20
-1689.068415266311
 30
0.0
 10
2318.647170342246
 20
-1689.068415266311
 30
0.0
 10
2317.306511803602
 20
-1690.110211007972
 30
0.0
 10
2317.306511803602
 20
-1690.110211007972
 30
0.0
 10
2317.306511803602
 20
-1690.110211007972
 30
0.0
 10
2316.930255053203
 20
-1690.303756790047
 30
0.0
 10
2317.084997877771
 20
-1689.348463445422
 30
0.0
  0
SPLINE
  5
181E8
330
18
100
AcDbEntity
  8
姿図
370
     0
100
AcDbSpline
210
0.0
220
0.0
230
1.0
 70
     8
 71
     3
 72
     8
 73
     4
 74
     0
 42
0.0000000001
 43
0.0000000001
 40
0.03541891214335
 40
0.03541891214335
 40
0.03541891214335
 40
0.03541891214335
 40
1.0
 40
1.0
 40
1.0
 40
1.0
 10
2317.084997877771
 20
-1689.348463445422
 30
0.0
 10
2318.20266855862
 20
-1684.916407265145
 30
0.0
 10
2317.695033234652
 20
-1678.700489167365
 30
0.0
 10
2315.360790562962
 20
-1672.348181414157
 30
0.0
  0
SPLINE
  5
181E9
330
18
100
AcDbEntity
  8
姿図
370
     0
100
AcDbSpline
210
0.0
220
0.0
230
1.0
 70
     8
 71
     3
 72
     8
 73
     4
 74
     0
 42
0.0000000001
 43
0.0000000001
 40
1.0
 40
1.0
 40
1.0
 40
1.0
 40
1.951982169575595
 40
1.951982169575595
 40
1.951982169575595
 40
1.951982169575595
 10
2315.360790562962
 20
-1672.348181414157
 30
0.0
 10
2312.845215049325
 20
-1665.497316448908
 30
0.0
 10
2308.814722393664
 20
-1660.143653158579
 30
0.0
 10
2304.797497934453
 20
-1657.694902373169
 30
0.0
  0
SPLINE
  5
181EA
330
18
100
AcDbEntity
  8
姿図
370
     0
100
AcDbSpline
210
0.0
220
0.0
230
1.0
 70
     8
 71
     3
 72
    11
 73
     7
 74
     0
 42
0.0000000001
 43
0.0000000001
 40
0.0289387478528501
 40
0.0289387478528501
 40
0.0289387478528501
 40
0.0289387478528501
 40
1.0
 40
1.0
 40
1.0
 40
1.955444405740101
 40
1.955444405740101
 40
1.955444405740101
 40
1.955444405740101
 10
2317.560097926818
 20
-1688.881977833178
 30
0.0
 10
2318.599567372843
 20
-1684.467476205879
 30
0.0
 10
2318.068784622085
 20
-1678.360563254791
 30
0.0
 10
2315.777121487778
 20
-1672.124067492121
 30
0.0
 10
2313.148042408943
 20
-1664.967502545477
 30
0.0
 10
2308.867469205392
 20
-1659.444044524982
 30
0.0
 10
2304.675243333481
 20
-1657.159873889477
 30
0.0
  0
SPLINE
  5
181EB
330
18
100
AcDbEntity
  8
姿図
370
     0
100
AcDbSpline
210
0.0
220
0.0
230
1.0
 70
     8
 71
     3
 72
    11
 73
     7
 74
     0
 42
0.0000000001
 43
0.0000000001
 40
0.014445577542336
 40
0.014445577542336
 40
0.014445577542336
 40
0.014445577542336
 40
1.0
 40
1.0
 40
1.0
 40
1.968225917887298
 40
1.968225917887298
 40
1.968225917887298
 40
1.968225917887298
 10
2318.551487463564
 20
-1688.344927869988
 30
0.0
 10
2319.448493021311
 20
-1683.70426498613
 30
0.0
 10
2318.819449978624
 20
-1677.614791973599
 30
0.0
 10
2316.482442306413
 20
-1671.447637098431
 30
0.0
 10
2313.601291899627
 20
-1663.840822807832
 30
0.0
 10
2308.857207310429
 20
-1658.045062605165
 30
0.0
 10
2304.202640064362
 20
-1655.755280577426
 30
0.0
  0
SPLINE
  5
181EC
330
18
100
AcDbEntity
  8
姿図
370
     0
100
AcDbSpline
210
0.0
220
0.0
230
1.0
 70
     8
 71
     3
 72
    11
 73
     7
 74
     0
 42
0.0000000001
 43
0.0000000001
 40
0.0697732564073768
 40
0.0697732564073768
 40
0.0697732564073768
 40
0.0697732564073768
 40
1.0
 40
1.0
 40
1.0
 40
1.972990325457884
 40
1.972990325457884
 40
1.972990325457884
 40
1.972990325457884
 10
2319.017382397373
 20
-1688.071963303988
 30
0.0
 10
2319.908431694852
 20
-1683.433795376975
 30
0.0
 10
2319.277779327673
 20
-1677.354091851816
 30
0.0
 10
2316.944313797924
 20
-1671.195769341068
 30
0.0
 10
2313.989803890788
 20
-1663.395541774335
 30
0.0
 10
2309.076147598329
 20
-1657.499362591486
 30
0.0
 10
2304.309739367508
 20
-1655.335743370789
 30
0.0
  0
TEXT
  5
18C42
330
18
100
AcDbEntity
  8
文字
100
AcDbText
 10
2242.043856640188
 20
-1717.146434554232
 30
0.0
 40
5.999999999999997
  1
SX-B0355D/CE/W4/NC
 41
0.8
100
AcDbText
  0
ENDSEC
  0
SECTION
  2
OBJECTS
  0
DICTIONARY
  5
C
330
0
100
AcDbDictionary
281
     1
  3
ACAD_COLOR
350
13CA0
  3
ACAD_DETAILVIEWSTYLE
350
12B25
  3
ACAD_GROUP
350
D
  3
ACAD_IMAGE_VARS
350
10F03
  3
ACAD_LAYOUT
350
617
  3
ACAD_MATERIAL
350
13C76
  3
ACAD_MLEADERSTYLE
350
13CA3
  3
ACAD_MLINESTYLE
350
E
  3
ACAD_PLOTSETTINGS
350
618
  3
ACAD_PLOTSTYLENAME
350
615
  3
ACAD_SCALELIST
350
18A0
  3
ACAD_SECTIONVIEWSTYLE
350
12B26
  3
ACAD_TABLESTYLE
350
13CA1
  3
ACAD_VISUALSTYLE
350
13C8F
  3
AcadDim
350
1C73
  3
ACDB_RECOMPOSE_DATA
350
13CBD
  3
AcDbVariableDictionary
350
6DE
  3
AEC_DISP_REPS
350
119ED
  3
AEC_DISPLAY_PROPS_DEFAULTS
350
119EF
  3
AEC_VARS
350
119EB
  3
APPDATA
350
10F02
  3
DWGPROPS
350
18C9B
  0
DICTIONARY
  5
13CBF
330
8
100
AcDbDictionary
280
     1
281
     1
  0
DICTIONARY
  5
1843
330
2
100
AcDbDictionary
280
     1
281
     1
  3
ACAD_LAYERSTATES
360
1844
  0
DICTIONARY
  5
18CA
330
F
100
AcDbDictionary
280
     1
281
     1
  3
ADSK_XREC_LAYER_RECONCILED
360
18CB
  0
DICTIONARY
  5
18D8
330
2F4
100
AcDbDictionary
280
     1
281
     1
  3
ADSK_XREC_LAYER_RECONCILED
360
18D9
  0
DICTIONARY
  5
18DC
330
305
100
AcDbDictionary
280
     1
281
     1
  3
ADSK_XREC_LAYER_RECONCILED
360
18DD
  0
DICTIONARY
  5
B046
330
18
100
AcDbDictionary
280
     1
281
     1
  3
ACAD_SORTENTS
360
B047
  0
DICTIONARY
  5
13CA0
102
{ACAD_REACTORS
330
C
102
}
330
C
100
AcDbDictionary
281
     1
  0
DICTIONARY
  5
12B25
102
{ACAD_REACTORS
330
C
102
}
330
C
100
AcDbDictionary
281
     1
  0
DICTIONARY
  5
D
102
{ACAD_REACTORS
330
C
102
}
330
C
100
AcDbDictionary
281
     1
  0
RASTERVARIABLES
  5
10F03
102
{ACAD_REACTORS
330
C
102
}
330
C
100
AcDbRasterVariables
 90
        0
 70
     1
 71
     1
 72
     0
  0
DICTIONARY
  5
617
102
{ACAD_REACTORS
330
C
102
}
330
C
100
AcDbDictionary
281
     1
  3
Model
350
619
  3
ﾚｲｱｳﾄ1
350
61A
  0
DICTIONARY
  5
13C76
102
{ACAD_REACTORS
330
C
102
}
330
C
100
AcDbDictionary
281
     1
  3
ByBlock
350
13C7F
  3
ByLayer
350
13C77
  3
Global
350
13C87
  0
DICTIONARY
  5
13CA3
102
{ACAD_REACTORS
330
C
102
}
330
C
100
AcDbDictionary
281
     1
  3
Standard
350
13CA4
  0
DICTIONARY
  5
E
102
{ACAD_REACTORS
330
C
102
}
330
C
100
AcDbDictionary
281
     1
  3
STANDARD
350
1B
  0
DICTIONARY
  5
618
102
{ACAD_REACTORS
330
C
102
}
330
C
100
AcDbDictionary
281
     1
  0
ACDBDICTIONARYWDFLT
  5
615
102
{ACAD_REACTORS
330
C
102
}
330
C
100
AcDbDictionary
281
     1
  3
Normal
350
616
100
AcDbDictionaryWithDefault
340
616
  0
DICTIONARY
  5
18A0
102
{ACAD_REACTORS
330
C
102
}
330
C
100
AcDbDictionary
281
     1
  3
A0
350
18A1
  3
A1
350
18A2
  3
A2
350
18A3
  3
A3
350
18A4
  3
A4
350
18A5
  3
A5
350
18A6
  3
A6
350
18A7
  3
A7
350
18A8
  3
A8
350
18A9
  3
A9
350
18AA
  3
B0
350
18AB
  3
B1
350
18AC
  3
B2
350
18AD
  3
B3
350
18AE
  3
B4
350
18AF
  3
B5
350
18B0
  3
B6
350
18B1
  3
B7
350
18B2
  3
B8
350
18B3
  3
B9
350
18B4
  3
C0
350
18B5
  3
C1
350
18B6
  3
C2
350
18B7
  3
C3
350
18B8
  3
C4
350
18B9
  3
C5
350
18BA
  3
C6
350
18BB
  3
C7
350
18BC
  3
C8
350
18BD
  3
C9
350
18BE
  3
D0
350
18BF
  3
D1
350
18C0
  3
D2
350
18C1
  0
DICTIONARY
  5
12B26
102
{ACAD_REACTORS
330
C
102
}
330
C
100
AcDbDictionary
281
     1
  0
DICTIONARY
  5
13CA1
102
{ACAD_REACTORS
330
C
102
}
330
C
100
AcDbDictionary
281
     1
  3
Standard
350
13CA2
  0
DICTIONARY
  5
13C8F
102
{ACAD_REACTORS
330
C
102
}
330
C
100
AcDbDictionary
281
     1
  3
2dWireframe
350
13C95
  3
3D Hidden
350
13C97
  3
3dWireframe
350
13C96
  3
Basic
350
13C94
  3
Brighten
350
13C9B
  3
ColorChange
350
13C9F
  3
Conceptual
350
13C98
  3
Dim
350
13C9A
  3
Facepattern
350
13C9E
  3
Flat
350
13C90
  3
FlatWithEdges
350
13C91
  3
Gouraud
350
13C92
  3
GouraudWithEdges
350
13C93
  3
Linepattern
350
13C9D
  3
Realistic
350
13C99
  3
Thicken
350
13C9C
  0
XRECORD
  5
1C73
102
{ACAD_REACTORS
330
C
102
}
330
C
100
AcDbXrecord
280
     1
 90
   990106
  3
OPEN
 60
     0
 61
     0
 62
     4
 63
     4
 64
     1
 65
     0
 66
     0
 67
     3
 68
     1
 69
     0
 70
     0
 71
     0
 72
     0
 40
0.0
170
     0
  0
XRECORD
  5
13CBD
102
{ACAD_REACTORS
330
C
102
}
330
C
100
AcDbXrecord
280
     1
 90
        1
330
13CA2
  0
DICTIONARY
  5
6DE
102
{ACAD_REACTORS
330
C
102
}
330
C
100
AcDbDictionary
281
     1
  3
CANNOSCALE
350
13C74
  3
CMLEADERSTYLE
350
13CCA
  3
CTABLESTYLE
350
13CC9
  3
DIMASSOC
350
6DF
  3
INDEXCTL
350
18FC
  3
PROJECTNAME
350
6E0
  3
SORTENTS
350
18FB
  0
DICTIONARY
  5
119ED
102
{ACAD_REACTORS
330
C
102
}
330
C
100
AcDbDictionary
281
     1
  3
AecDbDispRep2dSection
350
119EE
  3
AecDbDispRepAnchor
350
11A28
  3
AecDbDispRepAnchorEntToNode
350
11A29
  3
AecDbDispRepClipVolModel
350
119F5
  3
AecDbDispRepClipVolPlan
350
119F7
  3
AecDbDispRepClipVolResSubDiv
350
119FA
  3
AecDbDispRepClipVolResult
350
119F9
  3
AecDbDispRepDisplayTheme
350
119FC
  3
AecDbDispRepEditInPlaceProfile
350
11A2D
  3
AecDbDispRepEntRef
350
119FE
  3
AecDbDispRepLayoutCurve
350
11A00
  3
AecDbDispRepLayoutGrid2d
350
11A02
  3
AecDbDispRepLayoutGrid3d
350
11A04
  3
AecDbDispRepMaskBlockRef
350
11A06
  3
AecDbDispRepMaskBlockRefRcp
350
11A08
  3
AecDbDispRepMassElemModel
350
11A0A
  3
AecDbDispRepMassElemPlan100
350
11A10
  3
AecDbDispRepMassElemPlan50
350
11A0E
  3
AecDbDispRepMassElemRcp
350
11A12
  3
AecDbDispRepMassElemSchem
350
11A0C
  3
AecDbDispRepMassGroupModel
350
11A14
  3
AecDbDispRepMassGroupPlan
350
11A16
  3
AecDbDispRepMassGroupPlan100
350
11A1A
  3
AecDbDispRepMassGroupPlan50
350
11A18
  3
AecDbDispRepMassGroupRcp
350
11A1C
  3
AecDbDispRepMaterial
350
11A2B
  3
AecDbDispRepMvBlockRef
350
11A1E
  3
AecDbDispRepMvBlockRefModel
350
11A1F
  3
AecDbDispRepMvBlockRefPlan100
350
11A20
  3
AecDbDispRepMvBlockRefPlan50
350
11A21
  3
AecDbDispRepPolygonModel
350
11A22
  3
AecDbDispRepPolygonTrueColour
350
11A24
  3
AecDbDispRepSlice
350
11A26
  0
DICTIONARY
  5
119EF
102
{ACAD_REACTORS
330
C
102
}
330
C
100
AcDbDictionary
281
     1
  3
*A1
350
119F0
  3
*A10
350
119FB
  3
*A11
350
119FD
  3
*A12
350
11A11
  3
*A13
350
119FF
  3
*A14
350
11A03
  3
*A15
350
11A17
  3
*A16
350
11A05
  3
*A17
350
11A09
  3
*A18
350
11A0B
  3
*A19
350
11A0D
  3
*A2
350
11A23
  3
*A20
350
11A0F
  3
*A21
350
11A13
  3
*A22
350
11A2A
  3
*A23
350
11A15
  3
*A24
350
11A19
  3
*A25
350
119F6
  3
*A26
350
11A1B
  3
*A27
350
11A1D
  3
*A3
350
11A25
  3
*A4
350
11A01
  3
*A5
350
11A27
  3
*A6
350
11A2C
  3
*A7
350
11A07
  3
*A8
350
11A2E
  3
*A9
350
119F8
  0
DICTIONARY
  5
119EB
102
{ACAD_REACTORS
330
C
102
}
330
C
100
AcDbDictionary
281
     1
  3
AEC_VARS_DWG_SETUP
350
119EC
  0
DICTIONARY
  5
10F02
102
{ACAD_REACTORS
330
C
102
}
330
C
100
AcDbDictionary
281
     1
  0
XRECORD
  5
18C9B
102
{ACAD_REACTORS
330
C
102
}
330
C
100
AcDbXrecord
280
     1
  1
DWGPROPS COOKIE
  2

  3

  4

  6

  7

  8
SPAX
  9

300
=
301
=
302
=
303
=
304
=
305
=
306
=
307
=
308
=
309
=
 40
1.600778854166666
 41
2448636.61962963
 42
2457337.801582257
  1

 90
        0
  0
DICTIONARY
  5
1844
102
{ACAD_REACTORS
330
1843
102
}
330
1843
100
AcDbDictionary
281
     1
  0
XRECORD
  5
18CB
102
{ACAD_REACTORS
330
18CA
102
}
330
18CA
100
AcDbXrecord
280
     1
290
     1
  0
XRECORD
  5
18D9
102
{ACAD_REACTORS
330
18D8
102
}
330
18D8
100
AcDbXrecord
280
     1
290
     1
  0
XRECORD
  5
18DD
102
{ACAD_REACTORS
330
18DC
102
}
330
18DC
100
AcDbXrecord
280
     1
290
     1
  0
SORTENTSTABLE
  5
B047
102
{ACAD_REACTORS
330
B046
102
}
330
B046
100
AcDbSortentsTable
330
18
  0
LAYOUT
  5
619
102
{ACAD_XDICTIONARY
360
18C9C
102
}
102
{ACAD_REACTORS
330
617
102
}
330
617
100
AcDbPlotSettings
  1

  2
JUST PDF 3
  4
A4
  6

 40
3.174999952316283
 41
3.174999952316283
 42
3.175003051757812
 43
3.17498779296875
 44
209.8886566162109
 45
297.0530090332031
 46
14.27171755861491
 47
9.855173074624815
 48
2240.819893505832
 49
-2139.263074473102
140
2590.810330495646
141
-1597.277724195765
142
1.0
143
2.0
 70
  3748
 72
     1
 73
     0
 74
     4
  7
spax form.ctb
 75
     0
147
0.0563157878202551
148
-2240.819893505832
149
2139.263074473102
100
AcDbLayout
  1
Model
 70
     1
 71
     0
 10
0.0
 20
0.0
 11
12.0
 21
9.0
 12
0.0
 22
0.0
 32
0.0
 14
1453.12113121391
 24
-938.7328049501995
 34
0.0
 15
4499.514778922373
 25
1398.647829635673
 35
0.0
146
0.0
 13
0.0
 23
0.0
 33
0.0
 16
1.0
 26
0.0
 36
0.0
 17
0.0
 27
1.0
 37
0.0
 76
     0
330
18
331
10F01
1001
ACAD_PSEXT
1000
JUST PDF 3
1000
JUST PDF 3
1000
JUST PDF 3 Port:
1000

1070
     0
  0
LAYOUT
  5
61A
102
{ACAD_XDICTIONARY
360
18C9E
102
}
102
{ACAD_REACTORS
330
617
102
}
330
617
100
AcDbPlotSettings
  1

  2
Canon LASER SHOT LBP-750
  4

  6

 40
0.0
 41
0.0
 42
0.0
 43
0.0
 44
0.0
 45
0.0
 46
0.0
 47
0.0
 48
0.0
 49
0.0
140
0.0
141
0.0
142
1.0
143
1.0
 70
   688
 72
     0
 73
     0
 74
     5
  7
monochrome.ctb
 75
    16
147
1.0
148
0.0
149
0.0
100
AcDbLayout
  1
ﾚｲｱｳﾄ1
 70
     0
 71
     1
 10
0.0
 20
0.0
 11
12.0
 21
9.0
 12
0.0
 22
0.0
 32
0.0
 14
1.000000000000000E+20
 24
1.000000000000000E+20
 34
1.000000000000000E+20
 15
-1.000000000000000E+20
 25
-1.000000000000000E+20
 35
-1.000000000000000E+20
146
0.0
 13
0.0
 23
0.0
 33
0.0
 16
1.0
 26
0.0
 36
0.0
 17
0.0
 27
1.0
 37
0.0
 76
     0
330
15
  0
MATERIAL
  5
13C7F
102
{ACAD_XDICTIONARY
360
13C80
102
}
102
{ACAD_REACTORS
330
13C76
102
}
330
13C76
100
AcDbMaterial
  1
ByBlock
 72
     0
 43
0.0208333333333333
 43
0.0
 43
0.0
 43
0.0
 43
0.0
 43
0.0208333333333333
 43
0.0
 43
0.0
 43
0.0
 43
0.0
 43
1.0
 43
0.0
 43
0.0
 43
0.0
 43
0.0
 43
1.0
 77
     0
 47
0.0208333333333333
 47
0.0
 47
0.0
 47
0.0
 47
0.0
 47
0.0208333333333333
 47
0.0
 47
0.0
 47
0.0
 47
0.0
 47
1.0
 47
0.0
 47
0.0
 47
0.0
 47
0.0
 47
1.0
171
     0
 49
0.0208333333333333
 49
0.0
 49
0.0
 49
0.0
 49
0.0
 49
0.0208333333333333
 49
0.0
 49
0.0
 49
0.0
 49
0.0
 49
1.0
 49
0.0
 49
0.0
 49
0.0
 49
0.0
 49
1.0
175
     0
142
0.0208333333333333
142
0.0
142
0.0
142
0.0
142
0.0
142
0.0208333333333333
142
0.0
142
0.0
142
0.0
142
0.0
142
1.0
142
0.0
142
0.0
142
0.0
142
0.0
142
1.0
179
     0
144
0.0208333333333333
144
0.0
144
0.0
144
0.0
144
0.0
144
0.0208333333333333
144
0.0
144
0.0
144
0.0
144
0.0
144
1.0
144
0.0
144
0.0
144
0.0
144
0.0
144
1.0
147
0.0208333333333333
147
0.0
147
0.0
147
0.0
147
0.0
147
0.0208333333333333
147
0.0
147
0.0
147
0.0
147
0.0
147
1.0
147
0.0
147
0.0
147
0.0
147
0.0
147
1.0
  0
MATERIAL
  5
13C77
102
{ACAD_XDICTIONARY
360
13C78
102
}
102
{ACAD_REACTORS
330
13C76
102
}
330
13C76
100
AcDbMaterial
  1
ByLayer
 72
     0
 43
0.0208333333333333
 43
0.0
 43
0.0
 43
0.0
 43
0.0
 43
0.0208333333333333
 43
0.0
 43
0.0
 43
0.0
 43
0.0
 43
1.0
 43
0.0
 43
0.0
 43
0.0
 43
0.0
 43
1.0
 77
     0
 47
0.0208333333333333
 47
0.0
 47
0.0
 47
0.0
 47
0.0
 47
0.0208333333333333
 47
0.0
 47
0.0
 47
0.0
 47
0.0
 47
1.0
 47
0.0
 47
0.0
 47
0.0
 47
0.0
 47
1.0
171
     0
 49
0.0208333333333333
 49
0.0
 49
0.0
 49
0.0
 49
0.0
 49
0.0208333333333333
 49
0.0
 49
0.0
 49
0.0
 49
0.0
 49
1.0
 49
0.0
 49
0.0
 49
0.0
 49
0.0
 49
1.0
175
     0
142
0.0208333333333333
142
0.0
142
0.0
142
0.0
142
0.0
142
0.0208333333333333
142
0.0
142
0.0
142
0.0
142
0.0
142
1.0
142
0.0
142
0.0
142
0.0
142
0.0
142
1.0
179
     0
144
0.0208333333333333
144
0.0
144
0.0
144
0.0
144
0.0
144
0.0208333333333333
144
0.0
144
0.0
144
0.0
144
0.0
144
1.0
144
0.0
144
0.0
144
0.0
144
0.0
144
1.0
147
0.0208333333333333
147
0.0
147
0.0
147
0.0
147
0.0
147
0.0208333333333333
147
0.0
147
0.0
147
0.0
147
0.0
147
1.0
147
0.0
147
0.0
147
0.0
147
0.0
147
1.0
  0
MATERIAL
  5
13C87
102
{ACAD_XDICTIONARY
360
13C88
102
}
102
{ACAD_REACTORS
330
13C76
102
}
330
13C76
100
AcDbMaterial
  1
Global
 72
     0
 43
0.0208333333333333
 43
0.0
 43
0.0
 43
0.0
 43
0.0
 43
0.0208333333333333
 43
0.0
 43
0.0
 43
0.0
 43
0.0
 43
1.0
 43
0.0
 43
0.0
 43
0.0
 43
0.0
 43
1.0
 77
     0
 47
0.0208333333333333
 47
0.0
 47
0.0
 47
0.0
 47
0.0
 47
0.0208333333333333
 47
0.0
 47
0.0
 47
0.0
 47
0.0
 47
1.0
 47
0.0
 47
0.0
 47
0.0
 47
0.0
 47
1.0
171
     0
 49
0.0208333333333333
 49
0.0
 49
0.0
 49
0.0
 49
0.0
 49
0.0208333333333333
 49
0.0
 49
0.0
 49
0.0
 49
0.0
 49
1.0
 49
0.0
 49
0.0
 49
0.0
 49
0.0
 49
1.0
175
     0
142
0.0208333333333333
142
0.0
142
0.0
142
0.0
142
0.0
142
0.0208333333333333
142
0.0
142
0.0
142
0.0
142
0.0
142
1.0
142
0.0
142
0.0
142
0.0
142
0.0
142
1.0
179
     0
144
0.0208333333333333
144
0.0
144
0.0
144
0.0
144
0.0
144
0.0208333333333333
144
0.0
144
0.0
144
0.0
144
0.0
144
1.0
144
0.0
144
0.0
144
0.0
144
0.0
144
1.0
147
0.0208333333333333
147
0.0
147
0.0
147
0.0
147
0.0
147
0.0208333333333333
147
0.0
147
0.0
147
0.0
147
0.0
147
1.0
147
0.0
147
0.0
147
0.0
147
0.0
147
1.0
  0
MLEADERSTYLE
  5
13CA4
102
{ACAD_REACTORS
330
13CA3
102
}
330
13CA3
100
AcDbMLeaderStyle
170
     2
171
     1
172
     0
 90
        2
 40
0.0
 41
0.0
173
     1
 91
-1056964608
340
12
 92
       -2
290
     1
 42
0.09
291
     1
 43
0.36
  3
Standard
 44
0.18
300

342
10
174
     1
178
     6
175
     1
176
     0
 93
-1056964608
 45
0.18
292
     0
297
     0
 46
0.18
 94
-1056964608
 47
1.0
 49
1.0
140
1.0
293
     1
141
0.0
294
     1
177
     0
142
1.0
295
     0
296
     0
143
0.125
1001
ACAD_MLEADERVER
1070
     2
  0
MLINESTYLE
  5
1B
102
{ACAD_REACTORS
330
E
102
}
330
E
100
AcDbMlineStyle
  2
STANDARD
 70
     0
  3

 62
     0
 51
90.0
 52
90.0
 71
     2
 49
0.5
 62
   256
  6
BYLAYER
 49
-0.5
 62
   256
  6
BYLAYER
  0
ACDBPLACEHOLDER
  5
616
102
{ACAD_REACTORS
330
615
102
}
330
615
  0
SCALE
  5
18A1
102
{ACAD_REACTORS
330
18A0
102
}
330
18A0
100
AcDbScale
 70
     0
300
1:1
140
1.0
141
1.0
290
     1
1001
ACAD
1000
AcRTDxfName
1000
SCALE
1000
AcRTDxfName
1000
SCALE
1000
AcRTDxfName
1000
SCALE
1000
AcRTDxfName
1000
SCALE
  0
SCALE
  5
18A2
102
{ACAD_REACTORS
330
18A0
102
}
330
18A0
100
AcDbScale
 70
     0
300
1:2
140
1.0
141
2.0
290
     0
1001
ACAD
1000
AcRTDxfName
1000
SCALE
1000
AcRTDxfName
1000
SCALE
1000
AcRTDxfName
1000
SCALE
1000
AcRTDxfName
1000
SCALE
  0
SCALE
  5
18A3
102
{ACAD_REACTORS
330
18A0
102
}
330
18A0
100
AcDbScale
 70
     0
300
1:4
140
1.0
141
4.0
290
     0
1001
ACAD
1000
AcRTDxfName
1000
SCALE
1000
AcRTDxfName
1000
SCALE
1000
AcRTDxfName
1000
SCALE
1000
AcRTDxfName
1000
SCALE
  0
SCALE
  5
18A4
102
{ACAD_REACTORS
330
18A0
102
}
330
18A0
100
AcDbScale
 70
     0
300
1:5
140
1.0
141
5.0
290
     0
1001
ACAD
1000
AcRTDxfName
1000
SCALE
1000
AcRTDxfName
1000
SCALE
1000
AcRTDxfName
1000
SCALE
1000
AcRTDxfName
1000
SCALE
  0
SCALE
  5
18A5
102
{ACAD_REACTORS
330
18A0
102
}
330
18A0
100
AcDbScale
 70
     0
300
1:8
140
1.0
141
8.0
290
     0
1001
ACAD
1000
AcRTDxfName
1000
SCALE
1000
AcRTDxfName
1000
SCALE
1000
AcRTDxfName
1000
SCALE
1000
AcRTDxfName
1000
SCALE
  0
SCALE
  5
18A6
102
{ACAD_REACTORS
330
18A0
102
}
330
18A0
100
AcDbScale
 70
     0
300
1:10
140
1.0
141
10.0
290
     0
1001
ACAD
1000
AcRTDxfName
1000
SCALE
1000
AcRTDxfName
1000
SCALE
1000
AcRTDxfName
1000
SCALE
1000
AcRTDxfName
1000
SCALE
  0
SCALE
  5
18A7
102
{ACAD_REACTORS
330
18A0
102
}
330
18A0
100
AcDbScale
 70
     0
300
1:16
140
1.0
141
16.0
290
     0
1001
ACAD
1000
AcRTDxfName
1000
SCALE
1000
AcRTDxfName
1000
SCALE
1000
AcRTDxfName
1000
SCALE
1000
AcRTDxfName
1000
SCALE
  0
SCALE
  5
18A8
102
{ACAD_REACTORS
330
18A0
102
}
330
18A0
100
AcDbScale
 70
     0
300
1:20
140
1.0
141
20.0
290
     0
1001
ACAD
1000
AcRTDxfName
1000
SCALE
1000
AcRTDxfName
1000
SCALE
1000
AcRTDxfName
1000
SCALE
1000
AcRTDxfName
1000
SCALE
  0
SCALE
  5
18A9
102
{ACAD_REACTORS
330
18A0
102
}
330
18A0
100
AcDbScale
 70
     0
300
1:30
140
1.0
141
30.0
290
     0
1001
ACAD
1000
AcRTDxfName
1000
SCALE
1000
AcRTDxfName
1000
SCALE
1000
AcRTDxfName
1000
SCALE
1000
AcRTDxfName
1000
SCALE
  0
SCALE
  5
18AA
102
{ACAD_REACTORS
330
18A0
102
}
330
18A0
100
AcDbScale
 70
     0
300
1:40
140
1.0
141
40.0
290
     0
1001
ACAD
1000
AcRTDxfName
1000
SCALE
1000
AcRTDxfName
1000
SCALE
1000
AcRTDxfName
1000
SCALE
1000
AcRTDxfName
1000
SCALE
  0
SCALE
  5
18AB
102
{ACAD_REACTORS
330
18A0
102
}
330
18A0
100
AcDbScale
 70
     0
300
1:50
140
1.0
141
50.0
290
     0
1001
ACAD
1000
AcRTDxfName
1000
SCALE
1000
AcRTDxfName
1000
SCALE
1000
AcRTDxfName
1000
SCALE
1000
AcRTDxfName
1000
SCALE
  0
SCALE
  5
18AC
102
{ACAD_REACTORS
330
18A0
102
}
330
18A0
100
AcDbScale
 70
     0
300
1:100
140
1.0
141
100.0
290
     0
1001
ACAD
1000
AcRTDxfName
1000
SCALE
1000
AcRTDxfName
1000
SCALE
1000
AcRTDxfName
1000
SCALE
1000
AcRTDxfName
1000
SCALE
  0
SCALE
  5
18AD
102
{ACAD_REACTORS
330
18A0
102
}
330
18A0
100
AcDbScale
 70
     0
300
2:1
140
2.0
141
1.0
290
     0
1001
ACAD
1000
AcRTDxfName
1000
SCALE
1000
AcRTDxfName
1000
SCALE
1000
AcRTDxfName
1000
SCALE
1000
AcRTDxfName
1000
SCALE
  0
SCALE
  5
18AE
102
{ACAD_REACTORS
330
18A0
102
}
330
18A0
100
AcDbScale
 70
     0
300
4:1
140
4.0
141
1.0
290
     0
1001
ACAD
1000
AcRTDxfName
1000
SCALE
1000
AcRTDxfName
1000
SCALE
1000
AcRTDxfName
1000
SCALE
1000
AcRTDxfName
1000
SCALE
  0
SCALE
  5
18AF
102
{ACAD_REACTORS
330
18A0
102
}
330
18A0
100
AcDbScale
 70
     0
300
8:1
140
8.0
141
1.0
290
     0
1001
ACAD
1000
AcRTDxfName
1000
SCALE
1000
AcRTDxfName
1000
SCALE
1000
AcRTDxfName
1000
SCALE
1000
AcRTDxfName
1000
SCALE
  0
SCALE
  5
18B0
102
{ACAD_REACTORS
330
18A0
102
}
330
18A0
100
AcDbScale
 70
     0
300
10:1
140
10.0
141
1.0
290
     0
1001
ACAD
1000
AcRTDxfName
1000
SCALE
1000
AcRTDxfName
1000
SCALE
1000
AcRTDxfName
1000
SCALE
1000
AcRTDxfName
1000
SCALE
  0
SCALE
  5
18B1
102
{ACAD_REACTORS
330
18A0
102
}
330
18A0
100
AcDbScale
 70
     0
300
100:1
140
100.0
141
1.0
290
     0
1001
ACAD
1000
AcRTDxfName
1000
SCALE
1000
AcRTDxfName
1000
SCALE
1000
AcRTDxfName
1000
SCALE
1000
AcRTDxfName
1000
SCALE
  0
SCALE
  5
18B2
102
{ACAD_REACTORS
330
18A0
102
}
330
18A0
100
AcDbScale
 70
     0
300
1/128" = 1'-0"
140
0.0078125
141
12.0
290
     0
1001
ACAD
1000
AcRTDxfName
1000
SCALE
1000
AcRTDxfName
1000
SCALE
1000
AcRTDxfName
1000
SCALE
1000
AcRTDxfName
1000
SCALE
  0
SCALE
  5
18B3
102
{ACAD_REACTORS
330
18A0
102
}
330
18A0
100
AcDbScale
 70
     0
300
1/64" = 1'-0"
140
0.015625
141
12.0
290
     0
1001
ACAD
1000
AcRTDxfName
1000
SCALE
1000
AcRTDxfName
1000
SCALE
1000
AcRTDxfName
1000
SCALE
1000
AcRTDxfName
1000
SCALE
  0
SCALE
  5
18B4
102
{ACAD_REACTORS
330
18A0
102
}
330
18A0
100
AcDbScale
 70
     0
300
1/32" = 1'-0"
140
0.03125
141
12.0
290
     0
1001
ACAD
1000
AcRTDxfName
1000
SCALE
1000
AcRTDxfName
1000
SCALE
1000
AcRTDxfName
1000
SCALE
1000
AcRTDxfName
1000
SCALE
  0
SCALE
  5
18B5
102
{ACAD_REACTORS
330
18A0
102
}
330
18A0
100
AcDbScale
 70
     0
300
1/16" = 1'-0"
140
0.0625
141
12.0
290
     0
1001
ACAD
1000
AcRTDxfName
1000
SCALE
1000
AcRTDxfName
1000
SCALE
1000
AcRTDxfName
1000
SCALE
1000
AcRTDxfName
1000
SCALE
  0
SCALE
  5
18B6
102
{ACAD_REACTORS
330
18A0
102
}
330
18A0
100
AcDbScale
 70
     0
300
3/32" = 1'-0"
140
0.09375
141
12.0
290
     0
1001
ACAD
1000
AcRTDxfName
1000
SCALE
1000
AcRTDxfName
1000
SCALE
1000
AcRTDxfName
1000
SCALE
1000
AcRTDxfName
1000
SCALE
  0
SCALE
  5
18B7
102
{ACAD_REACTORS
330
18A0
102
}
330
18A0
100
AcDbScale
 70
     0
300
1/8" = 1'-0"
140
0.125
141
12.0
290
     0
1001
ACAD
1000
AcRTDxfName
1000
SCALE
1000
AcRTDxfName
1000
SCALE
1000
AcRTDxfName
1000
SCALE
1000
AcRTDxfName
1000
SCALE
  0
SCALE
  5
18B8
102
{ACAD_REACTORS
330
18A0
102
}
330
18A0
100
AcDbScale
 70
     0
300
3/16" = 1'-0"
140
0.1875
141
12.0
290
     0
1001
ACAD
1000
AcRTDxfName
1000
SCALE
1000
AcRTDxfName
1000
SCALE
1000
AcRTDxfName
1000
SCALE
1000
AcRTDxfName
1000
SCALE
  0
SCALE
  5
18B9
102
{ACAD_REACTORS
330
18A0
102
}
330
18A0
100
AcDbScale
 70
     0
300
1/4" = 1'-0"
140
0.25
141
12.0
290
     0
1001
ACAD
1000
AcRTDxfName
1000
SCALE
1000
AcRTDxfName
1000
SCALE
1000
AcRTDxfName
1000
SCALE
1000
AcRTDxfName
1000
SCALE
  0
SCALE
  5
18BA
102
{ACAD_REACTORS
330
18A0
102
}
330
18A0
100
AcDbScale
 70
     0
300
3/8" = 1'-0"
140
0.375
141
12.0
290
     0
1001
ACAD
1000
AcRTDxfName
1000
SCALE
1000
AcRTDxfName
1000
SCALE
1000
AcRTDxfName
1000
SCALE
1000
AcRTDxfName
1000
SCALE
  0
SCALE
  5
18BB
102
{ACAD_REACTORS
330
18A0
102
}
330
18A0
100
AcDbScale
 70
     0
300
1/2" = 1'-0"
140
0.5
141
12.0
290
     0
1001
ACAD
1000
AcRTDxfName
1000
SCALE
1000
AcRTDxfName
1000
SCALE
1000
AcRTDxfName
1000
SCALE
1000
AcRTDxfName
1000
SCALE
  0
SCALE
  5
18BC
102
{ACAD_REACTORS
330
18A0
102
}
330
18A0
100
AcDbScale
 70
     0
300
3/4" = 1'-0"
140
0.75
141
12.0
290
     0
1001
ACAD
1000
AcRTDxfName
1000
SCALE
1000
AcRTDxfName
1000
SCALE
1000
AcRTDxfName
1000
SCALE
1000
AcRTDxfName
1000
SCALE
  0
SCALE
  5
18BD
102
{ACAD_REACTORS
330
18A0
102
}
330
18A0
100
AcDbScale
 70
     0
300
1" = 1'-0"
140
1.0
141
12.0
290
     0
1001
ACAD
1000
AcRTDxfName
1000
SCALE
1000
AcRTDxfName
1000
SCALE
1000
AcRTDxfName
1000
SCALE
1000
AcRTDxfName
1000
SCALE
  0
SCALE
  5
18BE
102
{ACAD_REACTORS
330
18A0
102
}
330
18A0
100
AcDbScale
 70
     0
300
1-1/2" = 1'-0"
140
1.5
141
12.0
290
     0
1001
ACAD
1000
AcRTDxfName
1000
SCALE
1000
AcRTDxfName
1000
SCALE
1000
AcRTDxfName
1000
SCALE
1000
AcRTDxfName
1000
SCALE
  0
SCALE
  5
18BF
102
{ACAD_REACTORS
330
18A0
102
}
330
18A0
100
AcDbScale
 70
     0
300
3" = 1'-0"
140
3.0
141
12.0
290
     0
1001
ACAD
1000
AcRTDxfName
1000
SCALE
1000
AcRTDxfName
1000
SCALE
1000
AcRTDxfName
1000
SCALE
1000
AcRTDxfName
1000
SCALE
  0
SCALE
  5
18C0
102
{ACAD_REACTORS
330
18A0
102
}
330
18A0
100
AcDbScale
 70
     0
300
6" = 1'-0"
140
6.0
141
12.0
290
     0
1001
ACAD
1000
AcRTDxfName
1000
SCALE
1000
AcRTDxfName
1000
SCALE
1000
AcRTDxfName
1000
SCALE
1000
AcRTDxfName
1000
SCALE
  0
SCALE
  5
18C1
102
{ACAD_REACTORS
330
18A0
102
}
330
18A0
100
AcDbScale
 70
     0
300
1'-0" = 1'-0"
140
12.0
141
12.0
290
     0
1001
ACAD
1000
AcRTDxfName
1000
SCALE
1000
AcRTDxfName
1000
SCALE
1000
AcRTDxfName
1000
SCALE
1000
AcRTDxfName
1000
SCALE
  0
TABLESTYLE
  5
13CA2
102
{ACAD_XDICTIONARY
360
13CBB
102
}
102
{ACAD_REACTORS
330
13CA1
102
}
330
13CA1
100
AcDbTableStyle
  3
Standard
 70
     0
 71
     0
 40
0.06
 41
0.06
280
     0
281
     0
  7
STANDARD
140
0.18
170
     2
 62
     0
 63
     7
283
     0
274
    -2
284
     1
 64
     0
275
    -2
285
     1
 65
     0
276
    -2
286
     1
 66
     0
277
    -2
287
     1
 67
     0
278
    -2
288
     1
 68
     0
279
    -2
289
     1
 69
     0
  7
STANDARD
140
0.25
170
     5
 62
     0
 63
     7
283
     0
274
    -2
284
     1
 64
     0
275
    -2
285
     1
 65
     0
276
    -2
286
     1
 66
     0
277
    -2
287
     1
 67
     0
278
    -2
288
     1
 68
     0
279
    -2
289
     1
 69
     0
  7
STANDARD
140
0.18
170
     5
 62
     0
 63
     7
283
     0
274
    -2
284
     1
 64
     0
275
    -2
285
     1
 65
     0
276
    -2
286
     1
 66
     0
277
    -2
287
     1
 67
     0
278
    -2
288
     1
 68
     0
279
    -2
289
     1
 69
     0
  0
VISUALSTYLE
  5
13C95
102
{ACAD_REACTORS
330
13C8F
102
}
330
13C8F
100
AcDbVisualStyle
  2
2dWireframe
 70
     4
 71
     0
 72
     2
 73
     0
 90
        0
 40
-0.6
 41
-30.0
 62
     5
 63
     7
 74
     1
 91
        4
 64
     7
 65
   257
 75
     1
175
     1
 42
1.0
 92
        0
 66
   257
 43
1.0
 76
     1
 77
     6
 78
     2
 67
     7
 79
     5
170
     0
171
     0
290
     0
174
     0
 93
        1
 44
0.0
173
     0
291
     0
 45
0.0
1001
ACAD
1000
AcDbSavedByObjectVersion
1070
     0
1000
AcDbSavedByObjectVersion
1070
     0
  0
VISUALSTYLE
  5
13C97
102
{ACAD_REACTORS
330
13C8F
102
}
330
13C8F
100
AcDbVisualStyle
  2
3D Hidden
 70
     6
 71
     1
 72
     2
 73
     2
 90
        0
 40
-0.6
 41
-30.0
 62
     5
 63
     7
 74
     2
 91
        2
 64
     7
 65
   257
 75
     2
175
     1
 42
40.0
 92
        0
 66
   257
 43
1.0
 76
     1
 77
     6
 78
     2
 67
     7
 79
     3
170
     0
171
     0
290
     0
174
     0
 93
        1
 44
0.0
173
     0
291
     0
 45
0.0
1001
ACAD
1000
AcDbSavedByObjectVersion
1070
     0
1000
AcDbSavedByObjectVersion
1070
     0
  0
VISUALSTYLE
  5
13C96
102
{ACAD_REACTORS
330
13C8F
102
}
330
13C8F
100
AcDbVisualStyle
  2
3dWireframe
 70
     5
 71
     0
 72
     2
 73
     0
 90
        0
 40
-0.6
 41
-30.0
 62
     5
 63
     7
 74
     1
 91
        4
 64
     7
 65
   257
 75
     1
175
     1
 42
1.0
 92
        0
 66
   257
 43
1.0
 76
     1
 77
     6
 78
     2
 67
     7
 79
     5
170
     0
171
     0
290
     0
174
     0
 93
        1
 44
0.0
173
     0
291
     0
 45
0.0
1001
ACAD
1000
AcDbSavedByObjectVersion
1070
     0
1000
AcDbSavedByObjectVersion
1070
     0
  0
VISUALSTYLE
  5
13C94
102
{ACAD_REACTORS
330
13C8F
102
}
330
13C8F
100
AcDbVisualStyle
  2
Basic
 70
     7
 71
     1
 72
     0
 73
     1
 90
        0
 40
-0.6
 41
-30.0
 62
     5
 63
     7
 74
     0
 91
        4
 64
     7
 65
   257
 75
     1
175
     1
 42
1.0
 92
        8
 66
     7
 43
1.0
 76
     1
 77
     6
 78
     2
 67
     7
 79
     5
170
     0
171
     0
290
     0
174
     0
 93
        1
 44
0.0
173
     0
291
     1
 45
0.0
1001
ACAD
1000
AcDbSavedByObjectVersion
1070
     0
1000
AcDbSavedByObjectVersion
1070
     0
  0
VISUALSTYLE
  5
13C9B
102
{ACAD_REACTORS
330
13C8F
102
}
330
13C8F
100
AcDbVisualStyle
  2
Brighten
 70
    12
 71
     2
 72
     2
 73
     0
 90
        0
 40
-0.6
 41
-30.0
 62
     5
 63
     7
 74
     1
 91
        4
 64
     7
 65
   257
 75
     1
175
     1
 42
1.0
 92
        8
 66
     7
 43
1.0
 76
     1
 77
     6
 78
     2
 67
     7
 79
     5
170
     0
171
     0
290
     0
174
     0
 93
        1
 44
50.0
173
     0
291
     1
 45
0.0
1001
ACAD
1000
AcDbSavedByObjectVersion
1070
     0
1000
AcDbSavedByObjectVersion
1070
     0
  0
VISUALSTYLE
  5
13C9F
102
{ACAD_REACTORS
330
13C8F
102
}
330
13C8F
100
AcDbVisualStyle
  2
ColorChange
 70
    16
 71
     2
 72
     2
 73
     3
 90
        0
 40
-0.6
 41
-30.0
 62
     5
 63
     8
 74
     1
 91
        4
 64
     7
 65
   257
 75
     1
175
     1
 42
1.0
 92
        8
 66
     8
 43
1.0
 76
     1
 77
     6
 78
     2
 67
     7
 79
     5
170
     0
171
     0
290
     0
174
     0
 93
        1
 44
0.0
173
     0
291
     1
 45
0.0
1001
ACAD
1000
AcDbSavedByObjectVersion
1070
     0
1000
AcDbSavedByObjectVersion
1070
     0
  0
VISUALSTYLE
  5
13C98
102
{ACAD_REACTORS
330
13C8F
102
}
330
13C8F
100
AcDbVisualStyle
  2
Conceptual
 70
     9
 71
     3
 72
     2
 73
     0
 90
        0
 40
-0.6
 41
-30.0
 62
     5
 63
     7
 74
     2
 91
        2
 64
     7
 65
   257
 75
     1
175
     1
 42
40.0
 92
        8
 66
     7
 43
1.0
 76
     1
 77
     6
 78
     2
 67
     7
 79
     3
170
     0
171
     0
290
     0
174
     0
 93
        1
 44
0.0
173
     0
291
     0
 45
0.0
1001
ACAD
1000
AcDbSavedByObjectVersion
1070
     0
1000
AcDbSavedByObjectVersion
1070
     0
  0
VISUALSTYLE
  5
13C9A
102
{ACAD_REACTORS
330
13C8F
102
}
330
13C8F
100
AcDbVisualStyle
  2
Dim
 70
    11
 71
     2
 72
     2
 73
     0
 90
        0
 40
-0.6
 41
-30.0
 62
     5
 63
     7
 74
     1
 91
        4
 64
     7
 65
   257
 75
     1
175
     1
 42
1.0
 92
        8
 66
     7
 43
1.0
 76
     1
 77
     6
 78
     2
 67
     7
 79
     5
170
     0
171
     0
290
     0
174
     0
 93
        1
 44
-50.0
173
     0
291
     1
 45
0.0
1001
ACAD
1000
AcDbSavedByObjectVersion
1070
     0
1000
AcDbSavedByObjectVersion
1070
     0
  0
VISUALSTYLE
  5
13C9E
102
{ACAD_REACTORS
330
13C8F
102
}
330
13C8F
100
AcDbVisualStyle
  2
Facepattern
 70
    15
 71
     2
 72
     2
 73
     0
 90
        0
 40
-0.6
 41
-30.0
 62
     5
 63
     7
 74
     1
 91
        4
 64
     7
 65
   257
 75
     1
175
     1
 42
1.0
 92
        8
 66
     7
 43
1.0
 76
     1
 77
     6
 78
     2
 67
     7
 79
     5
170
     0
171
     0
290
     0
174
     0
 93
        1
 44
0.0
173
     0
291
     1
 45
0.0
1001
ACAD
1000
AcDbSavedByObjectVersion
1070
     0
1000
AcDbSavedByObjectVersion
1070
     0
  0
VISUALSTYLE
  5
13C90
102
{ACAD_REACTORS
330
13C8F
102
}
330
13C8F
100
AcDbVisualStyle
  2
Flat
 70
     0
 71
     2
 72
     1
 73
     1
 90
        2
 40
-0.6
 41
30.0
 62
     5
 63
     7
 74
     0
 91
        4
 64
     7
 65
   257
 75
     1
175
     1
 42
1.0
 92
        8
 66
     7
 43
1.0
 76
     1
 77
     6
 78
     2
 67
     7
 79
     5
170
     0
171
     0
290
     0
174
     0
 93
       13
 44
0.0
173
     0
291
     1
 45
0.0
1001
ACAD
1000
AcDbSavedByObjectVersion
1070
     0
1000
AcDbSavedByObjectVersion
1070
     0
  0
VISUALSTYLE
  5
13C91
102
{ACAD_REACTORS
330
13C8F
102
}
330
13C8F
100
AcDbVisualStyle
  2
FlatWithEdges
 70
     1
 71
     2
 72
     1
 73
     1
 90
        2
 40
-0.6
 41
30.0
 62
     5
 63
     7
 74
     1
 91
        4
 64
     7
 65
   257
 75
     1
175
     1
 42
1.0
 92
        0
 66
   257
 43
1.0
 76
     1
 77
     6
 78
     2
 67
     7
 79
     5
170
     0
171
     0
290
     0
174
     0
 93
       13
 44
0.0
173
     0
291
     1
 45
0.0
1001
ACAD
1000
AcDbSavedByObjectVersion
1070
     0
1000
AcDbSavedByObjectVersion
1070
     0
  0
VISUALSTYLE
  5
13C92
102
{ACAD_REACTORS
330
13C8F
102
}
330
13C8F
100
AcDbVisualStyle
  2
Gouraud
 70
     2
 71
     2
 72
     2
 73
     1
 90
        2
 40
-0.6
 41
30.0
 62
     5
 63
     7
 74
     0
 91
        4
 64
     7
 65
   257
 75
     1
175
     1
 42
1.0
 92
        0
 66
     7
 43
1.0
 76
     1
 77
     6
 78
     2
 67
     7
 79
     5
170
     0
171
     0
290
     0
174
     0
 93
       13
 44
0.0
173
     0
291
     1
 45
0.0
1001
ACAD
1000
AcDbSavedByObjectVersion
1070
     0
1000
AcDbSavedByObjectVersion
1070
     0
  0
VISUALSTYLE
  5
13C93
102
{ACAD_REACTORS
330
13C8F
102
}
330
13C8F
100
AcDbVisualStyle
  2
GouraudWithEdges
 70
     3
 71
     2
 72
     2
 73
     1
 90
        2
 40
-0.6
 41
30.0
 62
     5
 63
     7
 74
     1
 91
        4
 64
     7
 65
   257
 75
     1
175
     1
 42
1.0
 92
        0
 66
   257
 43
1.0
 76
     1
 77
     6
 78
     2
 67
     7
 79
     5
170
     0
171
     0
290
     0
174
     0
 93
       13
 44
0.0
173
     0
291
     1
 45
0.0
1001
ACAD
1000
AcDbSavedByObjectVersion
1070
     0
1000
AcDbSavedByObjectVersion
1070
     0
  0
VISUALSTYLE
  5
13C9D
102
{ACAD_REACTORS
330
13C8F
102
}
330
13C8F
100
AcDbVisualStyle
  2
Linepattern
 70
    14
 71
     2
 72
     2
 73
     0
 90
        0
 40
-0.6
 41
-30.0
 62
     5
 63
     7
 74
     1
 91
        4
 64
     7
 65
   257
 75
     7
175
     7
 42
1.0
 92
        8
 66
     7
 43
1.0
 76
     1
 77
     6
 78
     2
 67
     7
 79
     5
170
     0
171
     0
290
     0
174
     0
 93
        1
 44
0.0
173
     0
291
     1
 45
0.0
1001
ACAD
1000
AcDbSavedByObjectVersion
1070
     0
1000
AcDbSavedByObjectVersion
1070
     0
  0
VISUALSTYLE
  5
13C99
102
{ACAD_REACTORS
330
13C8F
102
}
330
13C8F
100
AcDbVisualStyle
  2
Realistic
 70
     8
 71
     2
 72
     2
 73
     0
 90
        0
 40
-0.6
 41
-30.0
 62
     5
 63
     7
 74
     1
 91
        0
 64
     7
 65
   257
 75
     1
175
     1
 42
1.0
 92
        8
 66
     8
 43
1.0
 76
     1
 77
     6
 78
     2
 67
     7
 79
     5
170
     0
171
     0
290
     0
174
     0
 93
       13
 44
0.0
173
     0
291
     0
 45
0.0
1001
ACAD
1000
AcDbSavedByObjectVersion
1070
     0
1000
AcDbSavedByObjectVersion
1070
     0
  0
VISUALSTYLE
  5
13C9C
102
{ACAD_REACTORS
330
13C8F
102
}
330
13C8F
100
AcDbVisualStyle
  2
Thicken
 70
    13
 71
     2
 72
     2
 73
     0
 90
        0
 40
-0.6
 41
-30.0
 62
     5
 63
     7
 74
     1
 91
        4
 64
     7
 65
   257
 75
     1
175
     1
 42
1.0
 92
       12
 66
     7
 43
1.0
 76
     1
 77
     6
 78
     2
 67
     7
 79
     5
170
     0
171
     0
290
     0
174
     0
 93
        1
 44
0.0
173
     0
291
     1
 45
0.0
1001
ACAD
1000
AcDbSavedByObjectVersion
1070
     0
1000
AcDbSavedByObjectVersion
1070
     0
  0
DICTIONARYVAR
  5
13C74
102
{ACAD_REACTORS
330
6DE
102
}
330
6DE
100
DictionaryVariables
280
     0
  1
1:1
  0
DICTIONARYVAR
  5
13CCA
102
{ACAD_REACTORS
330
6DE
102
}
330
6DE
100
DictionaryVariables
280
     0
  1
STANDARD
  0
DICTIONARYVAR
  5
13CC9
102
{ACAD_REACTORS
330
6DE
102
}
330
6DE
100
DictionaryVariables
280
     0
  1
STANDARD
  0
DICTIONARYVAR
  5
6DF
102
{ACAD_REACTORS
330
6DE
102
}
330
6DE
100
DictionaryVariables
280
     0
  1
1
  0
DICTIONARYVAR
  5
18FC
102
{ACAD_REACTORS
330
6DE
102
}
330
6DE
100
DictionaryVariables
280
     0
  1
0
  0
DICTIONARYVAR
  5
6E0
102
{ACAD_REACTORS
330
6DE
102
}
330
6DE
100
DictionaryVariables
280
     0
  1

  0
DICTIONARYVAR
  5
18FB
102
{ACAD_REACTORS
330
6DE
102
}
330
6DE
100
DictionaryVariables
280
     0
  1
127
  0
ACAD_PROXY_OBJECT
  5
119EE
102
{ACAD_REACTORS
330
119ED
102
}
330
119ED
100
AcDbProxyObject
 90
      499
 91
      516
 95
       23
 70
     0
 93
       90
310
51B4D14694680051946C51BF
340
119F0
 94
        0
1001
ACAD
1000
AcRTDxfName
1000
AEC_DISP_REP_2D_SECTION
1000
AcRTDxfName
1000
AEC_DISP_REP_2D_SECTION
1000
AcRTDxfName
1000
AEC_DISP_REP_2D_SECTION
1000
AcRTDxfName
1000
AEC_DISP_REP_2D_SECTION
1000
AcRTDxfName
1000
AEC_DISP_REP_2D_SECTION
1000
AcRTDxfName
1000
AEC_DISP_REP_2D_SECTION
1000
AcRTDxfName
1000
AEC_DISP_REP_2D_SECTION
  0
ACAD_PROXY_OBJECT
  5
11A28
102
{ACAD_REACTORS
330
119ED
102
}
330
119ED
100
AcDbProxyObject
 90
      499
 91
      561
 95
       23
 70
     0
 93
       90
310
51B4D14694680051946C51BF
340
0
 94
        0
1001
ACAD
1000
AcRTDxfName
1000
AEC_DISP_REP_ANCHOR
1000
AcRTDxfName
1000
AEC_DISP_REP_ANCHOR
1000
AcRTDxfName
1000
AEC_DISP_REP_ANCHOR
1000
AcRTDxfName
1000
AEC_DISP_REP_ANCHOR
1000
AcRTDxfName
1000
AEC_DISP_REP_ANCHOR
1000
AcRTDxfName
1000
AEC_DISP_REP_ANCHOR
1000
AcRTDxfName
1000
AEC_DISP_REP_ANCHOR
  0
ACAD_PROXY_OBJECT
  5
11A29
102
{ACAD_REACTORS
330
119ED
102
}
330
119ED
100
AcDbProxyObject
 90
      499
 91
      562
 95
       23
 70
     0
 93
       90
310
51B4D14694680051946C51BF
340
11A2A
 94
        0
1001
ACAD
1000
AcRTDxfName
1000
AEC_DISP_REP_ANCHOR_ENT_TO_NODE
1000
AcRTDxfName
1000
AEC_DISP_REP_ANCHOR_ENT_TO_NODE
1000
AcRTDxfName
1000
AEC_DISP_REP_ANCHOR_ENT_TO_NODE
1000
AcRTDxfName
1000
AEC_DISP_REP_ANCHOR_ENT_TO_NODE
1000
AcRTDxfName
1000
AEC_DISP_REP_ANCHOR_ENT_TO_NODE
1000
AcRTDxfName
1000
AEC_DISP_REP_ANCHOR_ENT_TO_NODE
1000
AcRTDxfName
1000
AEC_DISP_REP_ANCHOR_ENT_TO_NODE
  0
ACAD_PROXY_OBJECT
  5
119F5
102
{ACAD_REACTORS
330
119ED
102
}
330
119ED
100
AcDbProxyObject
 90
      499
 91
      518
 95
       23
 70
     0
 93
      100
310
51B4D14694680051946C51946F
340
119F6
 94
        0
1001
ACAD
1000
AcRTDxfName
1000
AEC_DISP_REP_CLIP_VOLUME_MODEL
1000
AcRTDxfName
1000
AEC_DISP_REP_CLIP_VOLUME_MODEL
1000
AcRTDxfName
1000
AEC_DISP_REP_CLIP_VOLUME_MODEL
1000
AcRTDxfName
1000
AEC_DISP_REP_CLIP_VOLUME_MODEL
1000
AcRTDxfName
1000
AEC_DISP_REP_CLIP_VOLUME_MODEL
1000
AcRTDxfName
1000
AEC_DISP_REP_CLIP_VOLUME_MODEL
1000
AcRTDxfName
1000
AEC_DISP_REP_CLIP_VOLUME_MODEL
  0
ACAD_PROXY_OBJECT
  5
119F7
102
{ACAD_REACTORS
330
119ED
102
}
330
119ED
100
AcDbProxyObject
 90
      499
 91
      520
 95
       23
 70
     0
 93
      100
310
51B4D14694680051946C51946F
340
119F8
 94
        0
1001
ACAD
1000
AcRTDxfName
1000
AEC_DISP_REP_CLIP_VOLUME_PLAN
1000
AcRTDxfName
1000
AEC_DISP_REP_CLIP_VOLUME_PLAN
1000
AcRTDxfName
1000
AEC_DISP_REP_CLIP_VOLUME_PLAN
1000
AcRTDxfName
1000
AEC_DISP_REP_CLIP_VOLUME_PLAN
1000
AcRTDxfName
1000
AEC_DISP_REP_CLIP_VOLUME_PLAN
1000
AcRTDxfName
1000
AEC_DISP_REP_CLIP_VOLUME_PLAN
1000
AcRTDxfName
1000
AEC_DISP_REP_CLIP_VOLUME_PLAN
  0
ACAD_PROXY_OBJECT
  5
119FA
102
{ACAD_REACTORS
330
119ED
102
}
330
119ED
100
AcDbProxyObject
 90
      499
 91
      522
 95
       23
 70
     0
 93
      100
310
51B4D14694680051946C51946F
340
119FB
 94
        0
1001
ACAD
1000
AcRTDxfName
1000
AEC_DISP_REP_CLIP_VOLUME_RESULT_SUBDIV
1000
AcRTDxfName
1000
AEC_DISP_REP_CLIP_VOLUME_RESULT_SUBDIV
1000
AcRTDxfName
1000
AEC_DISP_REP_CLIP_VOLUME_RESULT_SUBDIV
1000
AcRTDxfName
1000
AEC_DISP_REP_CLIP_VOLUME_RESULT_SUBDIV
1000
AcRTDxfName
1000
AEC_DISP_REP_CLIP_VOLUME_RESULT_SUBDIV
1000
AcRTDxfName
1000
AEC_DISP_REP_CLIP_VOLUME_RESULT_SUBDIV
1000
AcRTDxfName
1000
AEC_DISP_REP_CLIP_VOLUME_RESULT_SUBDIV
  0
ACAD_PROXY_OBJECT
  5
119F9
102
{ACAD_REACTORS
330
119ED
102
}
330
119ED
100
AcDbProxyObject
 90
      499
 91
      521
 95
       23
 70
     0
 93
       90
310
51B4D14694680051946C51BF
340
0
 94
        0
1001
ACAD
1000
AcRTDxfName
1000
AEC_DISP_REP_CLIP_VOLUME_RESULT
1000
AcRTDxfName
1000
AEC_DISP_REP_CLIP_VOLUME_RESULT
1000
AcRTDxfName
1000
AEC_DISP_REP_CLIP_VOLUME_RESULT
1000
AcRTDxfName
1000
AEC_DISP_REP_CLIP_VOLUME_RESULT
1000
AcRTDxfName
1000
AEC_DISP_REP_CLIP_VOLUME_RESULT
1000
AcRTDxfName
1000
AEC_DISP_REP_CLIP_VOLUME_RESULT
1000
AcRTDxfName
1000
AEC_DISP_REP_CLIP_VOLUME_RESULT
  0
ACAD_PROXY_OBJECT
  5
119FC
102
{ACAD_REACTORS
330
119ED
102
}
330
119ED
100
AcDbProxyObject
 90
      499
 91
      524
 95
       23
 70
     0
 93
       90
310
51B4D14694680051946C51BF
340
119FD
 94
        0
1001
ACAD
1000
AcRTDxfName
1000
AEC_DISP_REP_DISPLAYTHEME
1000
AcRTDxfName
1000
AEC_DISP_REP_DISPLAYTHEME
1000
AcRTDxfName
1000
AEC_DISP_REP_DISPLAYTHEME
1000
AcRTDxfName
1000
AEC_DISP_REP_DISPLAYTHEME
1000
AcRTDxfName
1000
AEC_DISP_REP_DISPLAYTHEME
1000
AcRTDxfName
1000
AEC_DISP_REP_DISPLAYTHEME
1000
AcRTDxfName
1000
AEC_DISP_REP_DISPLAYTHEME
  0
ACAD_PROXY_OBJECT
  5
11A2D
102
{ACAD_REACTORS
330
119ED
102
}
330
119ED
100
AcDbProxyObject
 90
      499
 91
      566
 95
       23
 70
     0
 93
       90
310
51B4D14694680051946C51BF
340
11A2E
 94
        0
1001
ACAD
1000
AcRTDxfName
1000
AEC_DISP_REP_EDITINPLACEPROFILE
1000
AcRTDxfName
1000
AEC_DISP_REP_EDITINPLACEPROFILE
1000
AcRTDxfName
1000
AEC_DISP_REP_EDITINPLACEPROFILE
1000
AcRTDxfName
1000
AEC_DISP_REP_EDITINPLACEPROFILE
1000
AcRTDxfName
1000
AEC_DISP_REP_EDITINPLACEPROFILE
1000
AcRTDxfName
1000
AEC_DISP_REP_EDITINPLACEPROFILE
1000
AcRTDxfName
1000
AEC_DISP_REP_EDITINPLACEPROFILE
  0
ACAD_PROXY_OBJECT
  5
119FE
102
{ACAD_REACTORS
330
119ED
102
}
330
119ED
100
AcDbProxyObject
 90
      499
 91
      526
 95
       23
 70
     0
 93
       90
310
51B4D14694680051946C51BF
340
119FF
 94
        0
1001
ACAD
1000
AcRTDxfName
1000
AEC_DISP_REP_ENT_REF
1000
AcRTDxfName
1000
AEC_DISP_REP_ENT_REF
1000
AcRTDxfName
1000
AEC_DISP_REP_ENT_REF
1000
AcRTDxfName
1000
AEC_DISP_REP_ENT_REF
1000
AcRTDxfName
1000
AEC_DISP_REP_ENT_REF
1000
AcRTDxfName
1000
AEC_DISP_REP_ENT_REF
1000
AcRTDxfName
1000
AEC_DISP_REP_ENT_REF
  0
ACAD_PROXY_OBJECT
  5
11A00
102
{ACAD_REACTORS
330
119ED
102
}
330
119ED
100
AcDbProxyObject
 90
      499
 91
      528
 95
       23
 70
     0
 93
       90
310
51B4D14694680051946C51BF
340
11A01
 94
        0
1001
ACAD
1000
AcRTDxfName
1000
AEC_DISP_REP_LAYOUT_CURVE
1000
AcRTDxfName
1000
AEC_DISP_REP_LAYOUT_CURVE
1000
AcRTDxfName
1000
AEC_DISP_REP_LAYOUT_CURVE
1000
AcRTDxfName
1000
AEC_DISP_REP_LAYOUT_CURVE
1000
AcRTDxfName
1000
AEC_DISP_REP_LAYOUT_CURVE
1000
AcRTDxfName
1000
AEC_DISP_REP_LAYOUT_CURVE
1000
AcRTDxfName
1000
AEC_DISP_REP_LAYOUT_CURVE
  0
ACAD_PROXY_OBJECT
  5
11A02
102
{ACAD_REACTORS
330
119ED
102
}
330
119ED
100
AcDbProxyObject
 90
      499
 91
      530
 95
       23
 70
     0
 93
       90
310
51B4D14694680051946C51BF
340
11A03
 94
        0
1001
ACAD
1000
AcRTDxfName
1000
AEC_DISP_REP_LAYOUT_GRID2D
1000
AcRTDxfName
1000
AEC_DISP_REP_LAYOUT_GRID2D
1000
AcRTDxfName
1000
AEC_DISP_REP_LAYOUT_GRID2D
1000
AcRTDxfName
1000
AEC_DISP_REP_LAYOUT_GRID2D
1000
AcRTDxfName
1000
AEC_DISP_REP_LAYOUT_GRID2D
1000
AcRTDxfName
1000
AEC_DISP_REP_LAYOUT_GRID2D
1000
AcRTDxfName
1000
AEC_DISP_REP_LAYOUT_GRID2D
  0
ACAD_PROXY_OBJECT
  5
11A04
102
{ACAD_REACTORS
330
119ED
102
}
330
119ED
100
AcDbProxyObject
 90
      499
 91
      532
 95
       23
 70
     0
 93
       90
310
51B4D14694680051946C51BF
340
11A05
 94
        0
1001
ACAD
1000
AcRTDxfName
1000
AEC_DISP_REP_LAYOUT_GRID3D
1000
AcRTDxfName
1000
AEC_DISP_REP_LAYOUT_GRID3D
1000
AcRTDxfName
1000
AEC_DISP_REP_LAYOUT_GRID3D
1000
AcRTDxfName
1000
AEC_DISP_REP_LAYOUT_GRID3D
1000
AcRTDxfName
1000
AEC_DISP_REP_LAYOUT_GRID3D
1000
AcRTDxfName
1000
AEC_DISP_REP_LAYOUT_GRID3D
1000
AcRTDxfName
1000
AEC_DISP_REP_LAYOUT_GRID3D
  0
ACAD_PROXY_OBJECT
  5
11A06
102
{ACAD_REACTORS
330
119ED
102
}
330
119ED
100
AcDbProxyObject
 90
      499
 91
      534
 95
       23
 70
     0
 93
       90
310
51B4D14694680051946C51BF
340
11A07
 94
        0
1001
ACAD
1000
AcRTDxfName
1000
AEC_DISP_REP_MASKBLOCK_REF
1000
AcRTDxfName
1000
AEC_DISP_REP_MASKBLOCK_REF
1000
AcRTDxfName
1000
AEC_DISP_REP_MASKBLOCK_REF
1000
AcRTDxfName
1000
AEC_DISP_REP_MASKBLOCK_REF
1000
AcRTDxfName
1000
AEC_DISP_REP_MASKBLOCK_REF
1000
AcRTDxfName
1000
AEC_DISP_REP_MASKBLOCK_REF
1000
AcRTDxfName
1000
AEC_DISP_REP_MASKBLOCK_REF
  0
ACAD_PROXY_OBJECT
  5
11A08
102
{ACAD_REACTORS
330
119ED
102
}
330
119ED
100
AcDbProxyObject
 90
      499
 91
      536
 95
       23
 70
     0
 93
      100
310
51B4D14694680051946C51946F
340
11A09
 94
        0
1001
ACAD
1000
AcRTDxfName
1000
AEC_DISP_REP_MASKBLOCK_REF_RCP
1000
AcRTDxfName
1000
AEC_DISP_REP_MASKBLOCK_REF_RCP
1000
AcRTDxfName
1000
AEC_DISP_REP_MASKBLOCK_REF_RCP
1000
AcRTDxfName
1000
AEC_DISP_REP_MASKBLOCK_REF_RCP
1000
AcRTDxfName
1000
AEC_DISP_REP_MASKBLOCK_REF_RCP
1000
AcRTDxfName
1000
AEC_DISP_REP_MASKBLOCK_REF_RCP
1000
AcRTDxfName
1000
AEC_DISP_REP_MASKBLOCK_REF_RCP
  0
ACAD_PROXY_OBJECT
  5
11A0A
102
{ACAD_REACTORS
330
119ED
102
}
330
119ED
100
AcDbProxyObject
 90
      499
 91
      537
 95
       23
 70
     0
 93
      100
310
51B4D14694680051946C51946F
340
11A0B
 94
        0
1001
ACAD
1000
AcRTDxfName
1000
AEC_DISP_REP_MASS_ELEM_MODEL
1000
AcRTDxfName
1000
AEC_DISP_REP_MASS_ELEM_MODEL
1000
AcRTDxfName
1000
AEC_DISP_REP_MASS_ELEM_MODEL
1000
AcRTDxfName
1000
AEC_DISP_REP_MASS_ELEM_MODEL
1000
AcRTDxfName
1000
AEC_DISP_REP_MASS_ELEM_MODEL
1000
AcRTDxfName
1000
AEC_DISP_REP_MASS_ELEM_MODEL
1000
AcRTDxfName
1000
AEC_DISP_REP_MASS_ELEM_MODEL
  0
ACAD_PROXY_OBJECT
  5
11A10
102
{ACAD_REACTORS
330
119ED
102
}
330
119ED
100
AcDbProxyObject
 90
      499
 91
      542
 95
       23
 70
     0
 93
      110
310
51B4D14694680051946C5194651B
340
11A11
 94
        0
1001
ACAD
1000
AcRTDxfName
1000
AEC_DISPREPAECDBDISPREPMASSELEMPLAN100
1000
AcRTDxfName
1000
AEC_DISPREPAECDBDISPREPMASSELEMPLAN100
1000
AcRTDxfName
1000
AEC_DISPREPAECDBDISPREPMASSELEMPLAN100
1000
AcRTDxfName
1000
AEC_DISPREPAECDBDISPREPMASSELEMPLAN100
1000
AcRTDxfName
1000
AEC_DISPREPAECDBDISPREPMASSELEMPLAN100
1000
AcRTDxfName
1000
AEC_DISPREPAECDBDISPREPMASSELEMPLAN100
1000
AcRTDxfName
1000
AEC_DISPREPAECDBDISPREPMASSELEMPLAN100
  0
ACAD_PROXY_OBJECT
  5
11A0E
102
{ACAD_REACTORS
330
119ED
102
}
330
119ED
100
AcDbProxyObject
 90
      499
 91
      540
 95
       23
 70
     0
 93
      110
310
51B4D14694680051946C5194651B
340
11A0F
 94
        0
1001
ACAD
1000
AcRTDxfName
1000
AEC_DISPREPAECDBDISPREPMASSELEMPLAN50
1000
AcRTDxfName
1000
AEC_DISPREPAECDBDISPREPMASSELEMPLAN50
1000
AcRTDxfName
1000
AEC_DISPREPAECDBDISPREPMASSELEMPLAN50
1000
AcRTDxfName
1000
AEC_DISPREPAECDBDISPREPMASSELEMPLAN50
1000
AcRTDxfName
1000
AEC_DISPREPAECDBDISPREPMASSELEMPLAN50
1000
AcRTDxfName
1000
AEC_DISPREPAECDBDISPREPMASSELEMPLAN50
1000
AcRTDxfName
1000
AEC_DISPREPAECDBDISPREPMASSELEMPLAN50
  0
ACAD_PROXY_OBJECT
  5
11A12
102
{ACAD_REACTORS
330
119ED
102
}
330
119ED
100
AcDbProxyObject
 90
      499
 91
      543
 95
       23
 70
     0
 93
      110
310
51B4D14694680051946C5194651B
340
11A13
 94
        0
1001
ACAD
1000
AcRTDxfName
1000
AEC_DISP_REP_MASS_ELEM_RCP
1000
AcRTDxfName
1000
AEC_DISP_REP_MASS_ELEM_RCP
1000
AcRTDxfName
1000
AEC_DISP_REP_MASS_ELEM_RCP
1000
AcRTDxfName
1000
AEC_DISP_REP_MASS_ELEM_RCP
1000
AcRTDxfName
1000
AEC_DISP_REP_MASS_ELEM_RCP
1000
AcRTDxfName
1000
AEC_DISP_REP_MASS_ELEM_RCP
1000
AcRTDxfName
1000
AEC_DISP_REP_MASS_ELEM_RCP
  0
ACAD_PROXY_OBJECT
  5
11A0C
102
{ACAD_REACTORS
330
119ED
102
}
330
119ED
100
AcDbProxyObject
 90
      499
 91
      539
 95
       23
 70
     0
 93
      100
310
51B4D14694680051946C51946F
340
11A0D
 94
        0
1001
ACAD
1000
AcRTDxfName
1000
AEC_DISP_REP_MASS_ELEM_SCHEM
1000
AcRTDxfName
1000
AEC_DISP_REP_MASS_ELEM_SCHEM
1000
AcRTDxfName
1000
AEC_DISP_REP_MASS_ELEM_SCHEM
1000
AcRTDxfName
1000
AEC_DISP_REP_MASS_ELEM_SCHEM
1000
AcRTDxfName
1000
AEC_DISP_REP_MASS_ELEM_SCHEM
1000
AcRTDxfName
1000
AEC_DISP_REP_MASS_ELEM_SCHEM
1000
AcRTDxfName
1000
AEC_DISP_REP_MASS_ELEM_SCHEM
  0
ACAD_PROXY_OBJECT
  5
11A14
102
{ACAD_REACTORS
330
119ED
102
}
330
119ED
100
AcDbProxyObject
 90
      499
 91
      544
 95
       23
 70
     0
 93
      100
310
51B4D14694680051946C51946F
340
11A15
 94
        0
1001
ACAD
1000
AcRTDxfName
1000
AEC_DISP_REP_MASS_GROUP_MODEL
1000
AcRTDxfName
1000
AEC_DISP_REP_MASS_GROUP_MODEL
1000
AcRTDxfName
1000
AEC_DISP_REP_MASS_GROUP_MODEL
1000
AcRTDxfName
1000
AEC_DISP_REP_MASS_GROUP_MODEL
1000
AcRTDxfName
1000
AEC_DISP_REP_MASS_GROUP_MODEL
1000
AcRTDxfName
1000
AEC_DISP_REP_MASS_GROUP_MODEL
1000
AcRTDxfName
1000
AEC_DISP_REP_MASS_GROUP_MODEL
  0
ACAD_PROXY_OBJECT
  5
11A16
102
{ACAD_REACTORS
330
119ED
102
}
330
119ED
100
AcDbProxyObject
 90
      499
 91
      546
 95
       23
 70
     0
 93
      100
310
51B4D14694680051946C51946F
340
11A17
 94
        0
1001
ACAD
1000
AcRTDxfName
1000
AEC_DISP_REP_MASS_GROUP_PLAN
1000
AcRTDxfName
1000
AEC_DISP_REP_MASS_GROUP_PLAN
1000
AcRTDxfName
1000
AEC_DISP_REP_MASS_GROUP_PLAN
1000
AcRTDxfName
1000
AEC_DISP_REP_MASS_GROUP_PLAN
1000
AcRTDxfName
1000
AEC_DISP_REP_MASS_GROUP_PLAN
1000
AcRTDxfName
1000
AEC_DISP_REP_MASS_GROUP_PLAN
1000
AcRTDxfName
1000
AEC_DISP_REP_MASS_GROUP_PLAN
  0
ACAD_PROXY_OBJECT
  5
11A1A
102
{ACAD_REACTORS
330
119ED
102
}
330
119ED
100
AcDbProxyObject
 90
      499
 91
      549
 95
       23
 70
     0
 93
      110
310
51B4D14694680051946C5194651B
340
11A1B
 94
        0
1001
ACAD
1000
AcRTDxfName
1000
AEC_DISPREPAECDBDISPREPMASSGROUPPLAN100
1000
AcRTDxfName
1000
AEC_DISPREPAECDBDISPREPMASSGROUPPLAN100
1000
AcRTDxfName
1000
AEC_DISPREPAECDBDISPREPMASSGROUPPLAN100
1000
AcRTDxfName
1000
AEC_DISPREPAECDBDISPREPMASSGROUPPLAN100
1000
AcRTDxfName
1000
AEC_DISPREPAECDBDISPREPMASSGROUPPLAN100
1000
AcRTDxfName
1000
AEC_DISPREPAECDBDISPREPMASSGROUPPLAN100
1000
AcRTDxfName
1000
AEC_DISPREPAECDBDISPREPMASSGROUPPLAN100
  0
ACAD_PROXY_OBJECT
  5
11A18
102
{ACAD_REACTORS
330
119ED
102
}
330
119ED
100
AcDbProxyObject
 90
      499
 91
      547
 95
       23
 70
     0
 93
      110
310
51B4D14694680051946C5194651B
340
11A19
 94
        0
1001
ACAD
1000
AcRTDxfName
1000
AEC_DISPREPAECDBDISPREPMASSGROUPPLAN50
1000
AcRTDxfName
1000
AEC_DISPREPAECDBDISPREPMASSGROUPPLAN50
1000
AcRTDxfName
1000
AEC_DISPREPAECDBDISPREPMASSGROUPPLAN50
1000
AcRTDxfName
1000
AEC_DISPREPAECDBDISPREPMASSGROUPPLAN50
1000
AcRTDxfName
1000
AEC_DISPREPAECDBDISPREPMASSGROUPPLAN50
1000
AcRTDxfName
1000
AEC_DISPREPAECDBDISPREPMASSGROUPPLAN50
1000
AcRTDxfName
1000
AEC_DISPREPAECDBDISPREPMASSGROUPPLAN50
  0
ACAD_PROXY_OBJECT
  5
11A1C
102
{ACAD_REACTORS
330
119ED
102
}
330
119ED
100
AcDbProxyObject
 90
      499
 91
      550
 95
       23
 70
     0
 93
      110
310
51B4D14694680051946C5194651B
340
11A1D
 94
        0
1001
ACAD
1000
AcRTDxfName
1000
AEC_DISP_REP_MASS_GROUP_RCP
1000
AcRTDxfName
1000
AEC_DISP_REP_MASS_GROUP_RCP
1000
AcRTDxfName
1000
AEC_DISP_REP_MASS_GROUP_RCP
1000
AcRTDxfName
1000
AEC_DISP_REP_MASS_GROUP_RCP
1000
AcRTDxfName
1000
AEC_DISP_REP_MASS_GROUP_RCP
1000
AcRTDxfName
1000
AEC_DISP_REP_MASS_GROUP_RCP
1000
AcRTDxfName
1000
AEC_DISP_REP_MASS_GROUP_RCP
  0
ACAD_PROXY_OBJECT
  5
11A2B
102
{ACAD_REACTORS
330
119ED
102
}
330
119ED
100
AcDbProxyObject
 90
      499
 91
      564
 95
       23
 70
     0
 93
       90
310
51B4D14694680051946C51BF
340
11A2C
 94
        0
1001
ACAD
1000
AcRTDxfName
1000
AEC_DISP_REP_MATERIAL
1000
AcRTDxfName
1000
AEC_DISP_REP_MATERIAL
1000
AcRTDxfName
1000
AEC_DISP_REP_MATERIAL
1000
AcRTDxfName
1000
AEC_DISP_REP_MATERIAL
1000
AcRTDxfName
1000
AEC_DISP_REP_MATERIAL
1000
AcRTDxfName
1000
AEC_DISP_REP_MATERIAL
1000
AcRTDxfName
1000
AEC_DISP_REP_MATERIAL
  0
ACAD_PROXY_OBJECT
  5
11A1E
102
{ACAD_REACTORS
330
119ED
102
}
330
119ED
100
AcDbProxyObject
 90
      499
 91
      551
 95
       23
 70
     0
 93
       90
310
51B4D14694680051946C51BF
340
0
 94
        0
1001
ACAD
1000
AcRTDxfName
1000
AEC_DISP_REP_MVBLOCK_REF
1000
AcRTDxfName
1000
AEC_DISP_REP_MVBLOCK_REF
1000
AcRTDxfName
1000
AEC_DISP_REP_MVBLOCK_REF
1000
AcRTDxfName
1000
AEC_DISP_REP_MVBLOCK_REF
1000
AcRTDxfName
1000
AEC_DISP_REP_MVBLOCK_REF
1000
AcRTDxfName
1000
AEC_DISP_REP_MVBLOCK_REF
1000
AcRTDxfName
1000
AEC_DISP_REP_MVBLOCK_REF
  0
ACAD_PROXY_OBJECT
  5
11A1F
102
{ACAD_REACTORS
330
119ED
102
}
330
119ED
100
AcDbProxyObject
 90
      499
 91
      552
 95
       23
 70
     0
 93
      100
310
51B4D14694680051946C51946F
340
0
 94
        0
1001
ACAD
1000
AcRTDxfName
1000
AEC_DISP_REP_MVBLOCK_REF_MODEL
1000
AcRTDxfName
1000
AEC_DISP_REP_MVBLOCK_REF_MODEL
1000
AcRTDxfName
1000
AEC_DISP_REP_MVBLOCK_REF_MODEL
1000
AcRTDxfName
1000
AEC_DISP_REP_MVBLOCK_REF_MODEL
1000
AcRTDxfName
1000
AEC_DISP_REP_MVBLOCK_REF_MODEL
1000
AcRTDxfName
1000
AEC_DISP_REP_MVBLOCK_REF_MODEL
1000
AcRTDxfName
1000
AEC_DISP_REP_MVBLOCK_REF_MODEL
  0
ACAD_PROXY_OBJECT
  5
11A20
102
{ACAD_REACTORS
330
119ED
102
}
330
119ED
100
AcDbProxyObject
 90
      499
 91
      553
 95
       23
 70
     0
 93
      100
310
51B4D14694680051946C51946F
340
0
 94
        0
1001
ACAD
1000
AcRTDxfName
1000
AEC_AECDBDISPREPMVBLOCKREFPLAN100
1000
AcRTDxfName
1000
AEC_AECDBDISPREPMVBLOCKREFPLAN100
1000
AcRTDxfName
1000
AEC_AECDBDISPREPMVBLOCKREFPLAN100
1000
AcRTDxfName
1000
AEC_AECDBDISPREPMVBLOCKREFPLAN100
1000
AcRTDxfName
1000
AEC_AECDBDISPREPMVBLOCKREFPLAN100
1000
AcRTDxfName
1000
AEC_AECDBDISPREPMVBLOCKREFPLAN100
1000
AcRTDxfName
1000
AEC_AECDBDISPREPMVBLOCKREFPLAN100
  0
ACAD_PROXY_OBJECT
  5
11A21
102
{ACAD_REACTORS
330
119ED
102
}
330
119ED
100
AcDbProxyObject
 90
      499
 91
      554
 95
       23
 70
     0
 93
      100
310
51B4D14694680051946C51946F
340
0
 94
        0
1001
ACAD
1000
AcRTDxfName
1000
AEC_AECDBDISPREPMVBLOCKREFPLAN50
1000
AcRTDxfName
1000
AEC_AECDBDISPREPMVBLOCKREFPLAN50
1000
AcRTDxfName
1000
AEC_AECDBDISPREPMVBLOCKREFPLAN50
1000
AcRTDxfName
1000
AEC_AECDBDISPREPMVBLOCKREFPLAN50
1000
AcRTDxfName
1000
AEC_AECDBDISPREPMVBLOCKREFPLAN50
1000
AcRTDxfName
1000
AEC_AECDBDISPREPMVBLOCKREFPLAN50
1000
AcRTDxfName
1000
AEC_AECDBDISPREPMVBLOCKREFPLAN50
  0
ACAD_PROXY_OBJECT
  5
11A22
102
{ACAD_REACTORS
330
119ED
102
}
330
119ED
100
AcDbProxyObject
 90
      499
 91
      555
 95
       23
 70
     0
 93
      100
310
51B4D14694680051946C51946F
340
11A23
 94
        0
1001
ACAD
1000
AcRTDxfName
1000
AEC_DISP_REP_POLYGON_MODEL
1000
AcRTDxfName
1000
AEC_DISP_REP_POLYGON_MODEL
1000
AcRTDxfName
1000
AEC_DISP_REP_POLYGON_MODEL
1000
AcRTDxfName
1000
AEC_DISP_REP_POLYGON_MODEL
1000
AcRTDxfName
1000
AEC_DISP_REP_POLYGON_MODEL
1000
AcRTDxfName
1000
AEC_DISP_REP_POLYGON_MODEL
1000
AcRTDxfName
1000
AEC_DISP_REP_POLYGON_MODEL
  0
ACAD_PROXY_OBJECT
  5
11A24
102
{ACAD_REACTORS
330
119ED
102
}
330
119ED
100
AcDbProxyObject
 90
      499
 91
      557
 95
       23
 70
     0
 93
      100
310
51B4D14694680051946C51946F
340
11A25
 94
        0
1001
ACAD
1000
AcRTDxfName
1000
AEC_DISP_REP_POLYGON_TRUECOLOUR
1000
AcRTDxfName
1000
AEC_DISP_REP_POLYGON_TRUECOLOUR
1000
AcRTDxfName
1000
AEC_DISP_REP_POLYGON_TRUECOLOUR
1000
AcRTDxfName
1000
AEC_DISP_REP_POLYGON_TRUECOLOUR
1000
AcRTDxfName
1000
AEC_DISP_REP_POLYGON_TRUECOLOUR
1000
AcRTDxfName
1000
AEC_DISP_REP_POLYGON_TRUECOLOUR
1000
AcRTDxfName
1000
AEC_DISP_REP_POLYGON_TRUECOLOUR
  0
ACAD_PROXY_OBJECT
  5
11A26
102
{ACAD_REACTORS
330
119ED
102
}
330
119ED
100
AcDbProxyObject
 90
      499
 91
      559
 95
       23
 70
     0
 93
       90
310
51B4D14694680051946C51BF
340
11A27
 94
        0
1001
ACAD
1000
AcRTDxfName
1000
AEC_DISP_REP_SLICE
1000
AcRTDxfName
1000
AEC_DISP_REP_SLICE
1000
AcRTDxfName
1000
AEC_DISP_REP_SLICE
1000
AcRTDxfName
1000
AEC_DISP_REP_SLICE
1000
AcRTDxfName
1000
AEC_DISP_REP_SLICE
1000
AcRTDxfName
1000
AEC_DISP_REP_SLICE
1000
AcRTDxfName
1000
AEC_DISP_REP_SLICE
  0
ACAD_PROXY_OBJECT
  5
119F0
102
{ACAD_REACTORS
330
119EF
102
}
330
119EF
100
AcDbProxyObject
 90
      499
 91
      517
 95
       23
 70
     0
 93
     2963
310
51B4D146946800519465194694644F42546946946C7F7FA80C00000000D684A8D28D28D8FEFF50140400000001AD0951A51A51B1FDFEA030000000035A12A34A34A363FBFD40501000000006B42546946946C7F7FA80A0200000000D684A8D28D28D8FEFF50140400000001AD0951A51A51B1FDFEA02808000000035A12A34
310
A34A363FBFD40501000000006B42546946946C7F7FA80A0200000000D684A8D28D28D8FEFF50140400000001AD0951A51A51B1FDFEA02808000000035A12A34A34A363FBFD40501000000006B42546946946C7F7FA80A0200000000D684A8D28D28D8FEFF50140400000001AD0951A51A51B1FDFEA030000000035A12A34A3
310
4A363FBFD406000000006B42546946946C7F7FA80A0200000000D684A8D28D28D8FEFF50140400000001AD0951A51A51B1FDFEA02808000000034A34A34A34A3203A14A34A34A323FBFD406000000006946907414E53493133310000000000000E100182D4454FB21E93F00000000000005080A55F
340
F
340
12
340
0
340
F
340
12
340
0
340
F
340
12
340
0
340
F
340
12
340
0
340
F
340
12
340
0
340
F
340
12
340
0
340
F
340
12
340
0
340
F
340
12
340
0
340
F
340
12
340
0
340
F
340
12
340
0
340
F
340
12
340
0
340
F
340
12
340
0
340
F
340
12
340
0
340
F
340
12
340
0
340
F
340
12
340
0
340
F
340
12
340
0
340
F
340
12
340
0
340
F
340
12
340
0
340
F
340
12
340
0
340
F
340
12
340
0
 94
        0
1001
ACAD
1000
AcRTDxfName
1000
AEC_DISP_PROPS_2D_SECTION
1000
AcRTDxfName
1000
AEC_DISP_PROPS_2D_SECTION
1000
AcRTDxfName
1000
AEC_DISP_PROPS_2D_SECTION
1000
AcRTDxfName
1000
AEC_DISP_PROPS_2D_SECTION
1000
AcRTDxfName
1000
AEC_DISP_PROPS_2D_SECTION
1000
AcRTDxfName
1000
AEC_DISP_PROPS_2D_SECTION
1000
AcRTDxfName
1000
AEC_DISP_PROPS_2D_SECTION
  0
ACAD_PROXY_OBJECT
  5
119FB
102
{ACAD_REACTORS
330
119EF
102
}
330
119EF
100
AcDbProxyObject
 90
      499
 91
      523
 95
       23
 70
     0
 93
     1459
310
51B4D146946800519465194694642B42546946946C7F7FA80C00000000D684A8D28D28D8FEFF501800000001AD0951A51A51B1FDFEA030000000035A12A34A34A363FBFD406000000006B42546946946C7F7FA80C00000000D684A8D28D28D8FEFF501800000001AD0951A51A51B1FDFEA030000000035A12A34A34A363FBF
310
D406000000006B42546946946C7F7FA80C00000000D684A8D28D28D8FEFF501800000001A51A51901D0951A51A51B1FDFEA030000000035F
340
F
340
12
340
0
340
F
340
12
340
0
340
F
340
12
340
0
340
F
340
12
340
0
340
F
340
12
340
0
340
F
340
12
340
0
340
F
340
12
340
0
340
F
340
12
340
0
340
F
340
12
340
0
340
F
340
12
340
0
340
F
340
12
340
0
 94
        0
1001
ACAD
1000
AcRTDxfName
1000
AEC_DISP_PROPS_CLIP_VOLUME_RESULT
1000
AcRTDxfName
1000
AEC_DISP_PROPS_CLIP_VOLUME_RESULT
1000
AcRTDxfName
1000
AEC_DISP_PROPS_CLIP_VOLUME_RESULT
1000
AcRTDxfName
1000
AEC_DISP_PROPS_CLIP_VOLUME_RESULT
1000
AcRTDxfName
1000
AEC_DISP_PROPS_CLIP_VOLUME_RESULT
1000
AcRTDxfName
1000
AEC_DISP_PROPS_CLIP_VOLUME_RESULT
1000
AcRTDxfName
1000
AEC_DISP_PROPS_CLIP_VOLUME_RESULT
  0
ACAD_PROXY_OBJECT
  5
119FD
102
{ACAD_REACTORS
330
119EF
102
}
330
119EF
100
AcDbProxyObject
 90
      499
 91
      525
 95
       23
 70
     0
 93
     1000
310
51B4D146946800519465194694641742546946946C7F7FA80C00000000D68528D28D28C8FEFF501800000001A51A41D05394D24C4CCC40000000000003840060B51153EC87A4FC0000000000001420295A12A34A34A363FBFD406000000006B42546946946C7F7FA80C00000000D684A8D28D28D8FEFF501800000001A00
340
F
340
12
340
0
340
F
340
12
340
0
340
F
340
12
340
0
340
F
340
12
340
0
340
F
340
12
340
0
 94
        0
1001
ACAD
1000
AcRTDxfName
1000
AEC_DISP_PROPS_DISPLAYTHEME
1000
AcRTDxfName
1000
AEC_DISP_PROPS_DISPLAYTHEME
1000
AcRTDxfName
1000
AEC_DISP_PROPS_DISPLAYTHEME
1000
AcRTDxfName
1000
AEC_DISP_PROPS_DISPLAYTHEME
1000
AcRTDxfName
1000
AEC_DISP_PROPS_DISPLAYTHEME
1000
AcRTDxfName
1000
AEC_DISP_PROPS_DISPLAYTHEME
1000
AcRTDxfName
1000
AEC_DISP_PROPS_DISPLAYTHEME
  0
ACAD_PROXY_OBJECT
  5
11A11
102
{ACAD_REACTORS
330
119EF
102
}
330
119EF
100
AcDbProxyObject
 90
      499
 91
      541
 95
       23
 70
     0
 93
     1068
310
51B4D146946800519465194694640F42546946946C7F7FA80C00000000D684A8D28D28C8FEFF501800000001AD0A51A51A5191FDFEA02808000000034A3483A0A729A4989998800000000000070800C16A22A7D90F49F800000000000028405294651A51902D0951A51A51B1FDFEA02808000000035A12A34A34A363FBFD40
310
6000000006A00F
340
F
340
12
340
0
340
F
340
12
340
0
340
F
340
12
340
0
340
F
340
12
340
0
340
F
340
12
340
0
 94
        0
1001
ACAD
1000
AcRTDxfName
1000
AEC_DISPROPSMASSELEMPLANCOMMON
1000
AcRTDxfName
1000
AEC_DISPROPSMASSELEMPLANCOMMON
1000
AcRTDxfName
1000
AEC_DISPROPSMASSELEMPLANCOMMON
1000
AcRTDxfName
1000
AEC_DISPROPSMASSELEMPLANCOMMON
1000
AcRTDxfName
1000
AEC_DISPROPSMASSELEMPLANCOMMON
1000
AcRTDxfName
1000
AEC_DISPROPSMASSELEMPLANCOMMON
1000
AcRTDxfName
1000
AEC_DISPROPSMASSELEMPLANCOMMON
  0
ACAD_PROXY_OBJECT
  5
119FF
102
{ACAD_REACTORS
330
119EF
102
}
330
119EF
100
AcDbProxyObject
 90
      499
 91
      527
 95
       23
 70
     0
 93
      358
310
51B4D1469468005194651A51A51902D0951A51A51B1FDFEA030000000035A12A34A34A363FBFD406000000006B
340
F
340
12
340
0
340
F
340
12
340
0
 94
        0
1001
ACAD
1000
AcRTDxfName
1000
AEC_DISP_PROPS_ENT_REF
1000
AcRTDxfName
1000
AEC_DISP_PROPS_ENT_REF
1000
AcRTDxfName
1000
AEC_DISP_PROPS_ENT_REF
1000
AcRTDxfName
1000
AEC_DISP_PROPS_ENT_REF
1000
AcRTDxfName
1000
AEC_DISP_PROPS_ENT_REF
1000
AcRTDxfName
1000
AEC_DISP_PROPS_ENT_REF
1000
AcRTDxfName
1000
AEC_DISP_PROPS_ENT_REF
  0
ACAD_PROXY_OBJECT
  5
11A03
102
{ACAD_REACTORS
330
119EF
102
}
330
119EF
100
AcDbProxyObject
 90
      499
 91
      531
 95
       23
 70
     0
 93
      596
310
51B4D14694680051946519469464134254694694647F7FA80C00000000D684A8D28D28C8FEFF501800000001AD0951A51A51B1FDFEA030000000035A12A34A34A363FBFD4060000000069F
340
F
340
12
340
0
340
F
340
12
340
0
340
F
340
12
340
0
340
F
340
12
340
0
 94
        0
1001
ACAD
1000
AcRTDxfName
1000
AEC_DISP_PROPS_LAYOUT_GRID2D
1000
AcRTDxfName
1000
AEC_DISP_PROPS_LAYOUT_GRID2D
1000
AcRTDxfName
1000
AEC_DISP_PROPS_LAYOUT_GRID2D
1000
AcRTDxfName
1000
AEC_DISP_PROPS_LAYOUT_GRID2D
1000
AcRTDxfName
1000
AEC_DISP_PROPS_LAYOUT_GRID2D
1000
AcRTDxfName
1000
AEC_DISP_PROPS_LAYOUT_GRID2D
1000
AcRTDxfName
1000
AEC_DISP_PROPS_LAYOUT_GRID2D
  0
ACAD_PROXY_OBJECT
  5
11A17
102
{ACAD_REACTORS
330
119EF
102
}
330
119EF
100
AcDbProxyObject
 90
      499
 91
      545
 95
       23
 70
     0
 93
      366
310
51B4D1469468005194651A51A51902D0951A51A51B1FDFEA02808000000035A12A34A34A363FBFD406000000006B
340
F
340
12
340
0
340
F
340
12
340
0
 94
        0
1001
ACAD
1000
AcRTDxfName
1000
AEC_DISP_PROPS_MASS_GROUP
1000
AcRTDxfName
1000
AEC_DISP_PROPS_MASS_GROUP
1000
AcRTDxfName
1000
AEC_DISP_PROPS_MASS_GROUP
1000
AcRTDxfName
1000
AEC_DISP_PROPS_MASS_GROUP
1000
AcRTDxfName
1000
AEC_DISP_PROPS_MASS_GROUP
1000
AcRTDxfName
1000
AEC_DISP_PROPS_MASS_GROUP
1000
AcRTDxfName
1000
AEC_DISP_PROPS_MASS_GROUP
  0
ACAD_PROXY_OBJECT
  5
11A05
102
{ACAD_REACTORS
330
119EF
102
}
330
119EF
100
AcDbProxyObject
 90
      499
 91
      533
 95
       23
 70
     0
 93
      757
310
51B4D14694680051946519469464134254694694647F7FA80C00000000D684A8D28D28C8FEFF501800000001AD0951A51A51B1FDFEA030000000035A12A34A34A363FBFD40600000000695194694640742546946946C7F7FA80C00000000D7
340
F
340
12
340
0
340
F
340
12
340
0
340
F
340
12
340
0
340
F
340
12
340
0
340
F
340
12
340
0
 94
        0
1001
ACAD
1000
AcRTDxfName
1000
AEC_DISP_PROPS_LAYOUT_GRID3D
1000
AcRTDxfName
1000
AEC_DISP_PROPS_LAYOUT_GRID3D
1000
AcRTDxfName
1000
AEC_DISP_PROPS_LAYOUT_GRID3D
1000
AcRTDxfName
1000
AEC_DISP_PROPS_LAYOUT_GRID3D
1000
AcRTDxfName
1000
AEC_DISP_PROPS_LAYOUT_GRID3D
1000
AcRTDxfName
1000
AEC_DISP_PROPS_LAYOUT_GRID3D
1000
AcRTDxfName
1000
AEC_DISP_PROPS_LAYOUT_GRID3D
  0
ACAD_PROXY_OBJECT
  5
11A09
102
{ACAD_REACTORS
330
119EF
102
}
330
119EF
100
AcDbProxyObject
 90
      499
 91
      535
 95
       23
 70
     0
 93
      356
310
51B4D146946800519465194694640B42546946946C7F7FA80C00000000D684A8D28D28D8FEFF501800000001AF
340
F
340
12
340
0
340
F
340
12
340
0
 94
        0
1001
ACAD
1000
AcRTDxfName
1000
AEC_DISP_PROPS_MASKBLOCK
1000
AcRTDxfName
1000
AEC_DISP_PROPS_MASKBLOCK
1000
AcRTDxfName
1000
AEC_DISP_PROPS_MASKBLOCK
1000
AcRTDxfName
1000
AEC_DISP_PROPS_MASKBLOCK
1000
AcRTDxfName
1000
AEC_DISP_PROPS_MASKBLOCK
1000
AcRTDxfName
1000
AEC_DISP_PROPS_MASKBLOCK
1000
AcRTDxfName
1000
AEC_DISP_PROPS_MASKBLOCK
  0
ACAD_PROXY_OBJECT
  5
11A0B
102
{ACAD_REACTORS
330
119EF
102
}
330
119EF
100
AcDbProxyObject
 90
      499
 91
      538
 95
       23
 70
     0
 93
      778
310
51B4D146946800519465194694640F42546946946C7F7FA80A0200000000D684A8D28D28C8FEFF501800000001AD0A51A51A5191FDFEA02808000000034A3483A0A729A4989998800000000000070800C16A22A7D90F49F8000000000000284052BF
340
F
340
12
340
0
340
F
340
12
340
0
340
F
340
12
340
0
 94
        0
1001
ACAD
1000
AcRTDxfName
1000
AEC_DISP_PROPS_MASS_ELEM_MODEL
1000
AcRTDxfName
1000
AEC_DISP_PROPS_MASS_ELEM_MODEL
1000
AcRTDxfName
1000
AEC_DISP_PROPS_MASS_ELEM_MODEL
1000
AcRTDxfName
1000
AEC_DISP_PROPS_MASS_ELEM_MODEL
1000
AcRTDxfName
1000
AEC_DISP_PROPS_MASS_ELEM_MODEL
1000
AcRTDxfName
1000
AEC_DISP_PROPS_MASS_ELEM_MODEL
1000
AcRTDxfName
1000
AEC_DISP_PROPS_MASS_ELEM_MODEL
  0
ACAD_PROXY_OBJECT
  5
11A0D
102
{ACAD_REACTORS
330
119EF
102
}
330
119EF
100
AcDbProxyObject
 90
      499
 91
      538
 95
       23
 70
     0
 93
      778
310
51B4D146946800519465194694640F42546946946C7F7FA80A0200000000D684A8D28D28C8FEFF501800000001AD0A51A51A5191FDFEA02808000000034A3483A0A729A4989998800000000000070800C16A22A7D90F49F8000000000000284052BF
340
F
340
12
340
0
340
F
340
12
340
0
340
F
340
12
340
0
 94
        0
1001
ACAD
1000
AcRTDxfName
1000
AEC_DISP_PROPS_MASS_ELEM_MODEL
1000
AcRTDxfName
1000
AEC_DISP_PROPS_MASS_ELEM_MODEL
1000
AcRTDxfName
1000
AEC_DISP_PROPS_MASS_ELEM_MODEL
1000
AcRTDxfName
1000
AEC_DISP_PROPS_MASS_ELEM_MODEL
1000
AcRTDxfName
1000
AEC_DISP_PROPS_MASS_ELEM_MODEL
1000
AcRTDxfName
1000
AEC_DISP_PROPS_MASS_ELEM_MODEL
1000
AcRTDxfName
1000
AEC_DISP_PROPS_MASS_ELEM_MODEL
  0
ACAD_PROXY_OBJECT
  5
11A23
102
{ACAD_REACTORS
330
119EF
102
}
330
119EF
100
AcDbProxyObject
 90
      499
 91
      556
 95
       23
 70
     0
 93
     1406
310
51B4D146946800519465194694641B42546946946C7F7FA80C00000000D684A8D28D28D8FEFF501800000001AD0951A51A51B1FDFEA030000000035A12A34A34A363FBFD406000000006B4294694694647F7FA80C00000000D28D20E829CA6926266620000000000001C200305A88A9F643D27E0000000000000A1014AD0A5
310
1A51A5191FDFEA030000000034A3483A0A729A4989998800000000000070800C16A22A7D90F49F8000000000000284052B
340
F
340
12
340
0
340
F
340
12
340
0
340
F
340
12
340
0
340
F
340
12
340
0
340
F
340
12
340
0
340
F
340
12
340
0
 94
        0
1001
ACAD
1000
AcRTDxfName
1000
AEC_DISP_PROPS_POLYGON_MODEL
1000
AcRTDxfName
1000
AEC_DISP_PROPS_POLYGON_MODEL
1000
AcRTDxfName
1000
AEC_DISP_PROPS_POLYGON_MODEL
1000
AcRTDxfName
1000
AEC_DISP_PROPS_POLYGON_MODEL
1000
AcRTDxfName
1000
AEC_DISP_PROPS_POLYGON_MODEL
1000
AcRTDxfName
1000
AEC_DISP_PROPS_POLYGON_MODEL
1000
AcRTDxfName
1000
AEC_DISP_PROPS_POLYGON_MODEL
  0
ACAD_PROXY_OBJECT
  5
11A0F
102
{ACAD_REACTORS
330
119EF
102
}
330
119EF
100
AcDbProxyObject
 90
      499
 91
      541
 95
       23
 70
     0
 93
     1068
310
51B4D146946800519465194694640F42546946946C7F7FA80C00000000D684A8D28D28C8FEFF501800000001AD0A51A51A5191FDFEA02808000000034A3483A0A729A4989998800000000000070800C16A22A7D90F49F800000000000028405294651A51902D0951A51A51B1FDFEA02808000000035A12A34A34A363FBFD40
310
6000000006A00F
340
F
340
12
340
0
340
F
340
12
340
0
340
F
340
12
340
0
340
F
340
12
340
0
340
F
340
12
340
0
 94
        0
1001
ACAD
1000
AcRTDxfName
1000
AEC_DISPROPSMASSELEMPLANCOMMON
1000
AcRTDxfName
1000
AEC_DISPROPSMASSELEMPLANCOMMON
1000
AcRTDxfName
1000
AEC_DISPROPSMASSELEMPLANCOMMON
1000
AcRTDxfName
1000
AEC_DISPROPSMASSELEMPLANCOMMON
1000
AcRTDxfName
1000
AEC_DISPROPSMASSELEMPLANCOMMON
1000
AcRTDxfName
1000
AEC_DISPROPSMASSELEMPLANCOMMON
1000
AcRTDxfName
1000
AEC_DISPROPSMASSELEMPLANCOMMON
  0
ACAD_PROXY_OBJECT
  5
11A13
102
{ACAD_REACTORS
330
119EF
102
}
330
119EF
100
AcDbProxyObject
 90
      499
 91
      538
 95
       23
 70
     0
 93
      778
310
51B4D146946800519465194694640F42546946946C7F7FA80A0200000000D684A8D28D28C8FEFF501800000001AD0A51A51A5191FDFEA02808000000034A3483A0A729A4989998800000000000070800C16A22A7D90F49F8000000000000284052BF
340
F
340
12
340
0
340
F
340
12
340
0
340
F
340
12
340
0
 94
        0
1001
ACAD
1000
AcRTDxfName
1000
AEC_DISP_PROPS_MASS_ELEM_MODEL
1000
AcRTDxfName
1000
AEC_DISP_PROPS_MASS_ELEM_MODEL
1000
AcRTDxfName
1000
AEC_DISP_PROPS_MASS_ELEM_MODEL
1000
AcRTDxfName
1000
AEC_DISP_PROPS_MASS_ELEM_MODEL
1000
AcRTDxfName
1000
AEC_DISP_PROPS_MASS_ELEM_MODEL
1000
AcRTDxfName
1000
AEC_DISP_PROPS_MASS_ELEM_MODEL
1000
AcRTDxfName
1000
AEC_DISP_PROPS_MASS_ELEM_MODEL
  0
ACAD_PROXY_OBJECT
  5
11A2A
102
{ACAD_REACTORS
330
119EF
102
}
330
119EF
100
AcDbProxyObject
 90
      499
 91
      563
 95
       23
 70
     0
 93
      205
310
51B4D1469468005194651B42546946946C7F7FA80C00000000D7
340
F
340
12
340
0
 94
        0
1001
ACAD
1000
AcRTDxfName
1000
AEC_DISP_PROPS_ENT
1000
AcRTDxfName
1000
AEC_DISP_PROPS_ENT
1000
AcRTDxfName
1000
AEC_DISP_PROPS_ENT
1000
AcRTDxfName
1000
AEC_DISP_PROPS_ENT
1000
AcRTDxfName
1000
AEC_DISP_PROPS_ENT
1000
AcRTDxfName
1000
AEC_DISP_PROPS_ENT
1000
AcRTDxfName
1000
AEC_DISP_PROPS_ENT
  0
ACAD_PROXY_OBJECT
  5
11A15
102
{ACAD_REACTORS
330
119EF
102
}
330
119EF
100
AcDbProxyObject
 90
      499
 91
      545
 95
       23
 70
     0
 93
      366
310
51B4D1469468005194651A51A51902D0951A51A51B1FDFEA02808000000035A12A34A34A363FBFD406000000006B
340
F
340
12
340
0
340
F
340
12
340
0
 94
        0
1001
ACAD
1000
AcRTDxfName
1000
AEC_DISP_PROPS_MASS_GROUP
1000
AcRTDxfName
1000
AEC_DISP_PROPS_MASS_GROUP
1000
AcRTDxfName
1000
AEC_DISP_PROPS_MASS_GROUP
1000
AcRTDxfName
1000
AEC_DISP_PROPS_MASS_GROUP
1000
AcRTDxfName
1000
AEC_DISP_PROPS_MASS_GROUP
1000
AcRTDxfName
1000
AEC_DISP_PROPS_MASS_GROUP
1000
AcRTDxfName
1000
AEC_DISP_PROPS_MASS_GROUP
  0
ACAD_PROXY_OBJECT
  5
11A19
102
{ACAD_REACTORS
330
119EF
102
}
330
119EF
100
AcDbProxyObject
 90
      499
 91
      548
 95
       23
 70
     0
 93
     1070
310
51B4D1469468005194651A51A51902D0951A51A51B1FDFEA030000000035A12A34A34A363FBFD40600000000694651A51903D0951A51A51B1FDFEA02808000000035A14A34A34A323FBFD40501000000006946907414E53493133310000000000000E100182D4454FB21E93F00000000000005080A5684A8D28D28D8FEFF50
310
1800000001A803
340
F
340
12
340
0
340
F
340
12
340
0
340
F
340
12
340
0
340
F
340
12
340
0
340
F
340
12
340
0
 94
        0
1001
ACAD
1000
AcRTDxfName
1000
AEC_DISPROPSMASSGROUPPLANCOMMON
1000
AcRTDxfName
1000
AEC_DISPROPSMASSGROUPPLANCOMMON
1000
AcRTDxfName
1000
AEC_DISPROPSMASSGROUPPLANCOMMON
1000
AcRTDxfName
1000
AEC_DISPROPSMASSGROUPPLANCOMMON
1000
AcRTDxfName
1000
AEC_DISPROPSMASSGROUPPLANCOMMON
1000
AcRTDxfName
1000
AEC_DISPROPSMASSGROUPPLANCOMMON
1000
AcRTDxfName
1000
AEC_DISPROPSMASSGROUPPLANCOMMON
  0
ACAD_PROXY_OBJECT
  5
119F6
102
{ACAD_REACTORS
330
119EF
102
}
330
119EF
100
AcDbProxyObject
 90
      499
 91
      519
 95
       23
 70
     0
 93
      475
310
51B4D146946800519465194694640F42546946946C7F7FA80C00000000D684A8D28D28D8FEFF501800000001AD0951A51A51B1FDFEA030000000035F
340
F
340
12
340
0
340
F
340
12
340
0
340
F
340
12
340
0
 94
        0
1001
ACAD
1000
AcRTDxfName
1000
AEC_DISP_PROPS_CLIP_VOLUME
1000
AcRTDxfName
1000
AEC_DISP_PROPS_CLIP_VOLUME
1000
AcRTDxfName
1000
AEC_DISP_PROPS_CLIP_VOLUME
1000
AcRTDxfName
1000
AEC_DISP_PROPS_CLIP_VOLUME
1000
AcRTDxfName
1000
AEC_DISP_PROPS_CLIP_VOLUME
1000
AcRTDxfName
1000
AEC_DISP_PROPS_CLIP_VOLUME
1000
AcRTDxfName
1000
AEC_DISP_PROPS_CLIP_VOLUME
  0
ACAD_PROXY_OBJECT
  5
11A1B
102
{ACAD_REACTORS
330
119EF
102
}
330
119EF
100
AcDbProxyObject
 90
      499
 91
      548
 95
       23
 70
     0
 93
     1070
310
51B4D1469468005194651A51A51902D0951A51A51B1FDFEA030000000035A12A34A34A363FBFD40600000000694651A51903D0951A51A51B1FDFEA02808000000035A14A34A34A323FBFD40501000000006946907414E53493133310000000000000E100182D4454FB21E93F00000000000005080A5684A8D28D28D8FEFF50
310
1800000001A803
340
F
340
12
340
0
340
F
340
12
340
0
340
F
340
12
340
0
340
F
340
12
340
0
340
F
340
12
340
0
 94
        0
1001
ACAD
1000
AcRTDxfName
1000
AEC_DISPROPSMASSGROUPPLANCOMMON
1000
AcRTDxfName
1000
AEC_DISPROPSMASSGROUPPLANCOMMON
1000
AcRTDxfName
1000
AEC_DISPROPSMASSGROUPPLANCOMMON
1000
AcRTDxfName
1000
AEC_DISPROPSMASSGROUPPLANCOMMON
1000
AcRTDxfName
1000
AEC_DISPROPSMASSGROUPPLANCOMMON
1000
AcRTDxfName
1000
AEC_DISPROPSMASSGROUPPLANCOMMON
1000
AcRTDxfName
1000
AEC_DISPROPSMASSGROUPPLANCOMMON
  0
ACAD_PROXY_OBJECT
  5
11A1D
102
{ACAD_REACTORS
330
119EF
102
}
330
119EF
100
AcDbProxyObject
 90
      499
 91
      545
 95
       23
 70
     0
 93
      366
310
51B4D1469468005194651A51A51902D0951A51A51B1FDFEA02808000000035A12A34A34A363FBFD406000000006B
340
F
340
12
340
0
340
F
340
12
340
0
 94
        0
1001
ACAD
1000
AcRTDxfName
1000
AEC_DISP_PROPS_MASS_GROUP
1000
AcRTDxfName
1000
AEC_DISP_PROPS_MASS_GROUP
1000
AcRTDxfName
1000
AEC_DISP_PROPS_MASS_GROUP
1000
AcRTDxfName
1000
AEC_DISP_PROPS_MASS_GROUP
1000
AcRTDxfName
1000
AEC_DISP_PROPS_MASS_GROUP
1000
AcRTDxfName
1000
AEC_DISP_PROPS_MASS_GROUP
1000
AcRTDxfName
1000
AEC_DISP_PROPS_MASS_GROUP
  0
ACAD_PROXY_OBJECT
  5
11A25
102
{ACAD_REACTORS
330
119EF
102
}
330
119EF
100
AcDbProxyObject
 90
      499
 91
      558
 95
       23
 70
     0
 93
      154
310
51B4D1469468005194651BFFFFFFFFFFFD0240BF
 94
        0
1001
ACAD
1000
AcRTDxfName
1000
AEC_DISP_PROPS_POLYGON_TRUECOLOUR
1000
AcRTDxfName
1000
AEC_DISP_PROPS_POLYGON_TRUECOLOUR
1000
AcRTDxfName
1000
AEC_DISP_PROPS_POLYGON_TRUECOLOUR
1000
AcRTDxfName
1000
AEC_DISP_PROPS_POLYGON_TRUECOLOUR
1000
AcRTDxfName
1000
AEC_DISP_PROPS_POLYGON_TRUECOLOUR
1000
AcRTDxfName
1000
AEC_DISP_PROPS_POLYGON_TRUECOLOUR
1000
AcRTDxfName
1000
AEC_DISP_PROPS_POLYGON_TRUECOLOUR
  0
ACAD_PROXY_OBJECT
  5
11A01
102
{ACAD_REACTORS
330
119EF
102
}
330
119EF
100
AcDbProxyObject
 90
      499
 91
      529
 95
       23
 70
     0
 93
      239
310
51B4D146946800519465194694640742546946946C7F7FA80C00000000D3
340
F
340
12
340
0
 94
        0
1001
ACAD
1000
AcRTDxfName
1000
AEC_DISP_PROPS_LAYOUT_CURVE
1000
AcRTDxfName
1000
AEC_DISP_PROPS_LAYOUT_CURVE
1000
AcRTDxfName
1000
AEC_DISP_PROPS_LAYOUT_CURVE
1000
AcRTDxfName
1000
AEC_DISP_PROPS_LAYOUT_CURVE
1000
AcRTDxfName
1000
AEC_DISP_PROPS_LAYOUT_CURVE
1000
AcRTDxfName
1000
AEC_DISP_PROPS_LAYOUT_CURVE
1000
AcRTDxfName
1000
AEC_DISP_PROPS_LAYOUT_CURVE
  0
ACAD_PROXY_OBJECT
  5
11A27
102
{ACAD_REACTORS
330
119EF
102
}
330
119EF
100
AcDbProxyObject
 90
      499
 91
      560
 95
       23
 70
     0
 93
      475
310
51B4D146946800519465194694640F42546946946C7F7FA80C00000000D684A8D28D28D8FEFF501800000001AD0951A51A51B1FDFEA030000000035F
340
F
340
12
340
0
340
F
340
12
340
0
340
F
340
12
340
0
 94
        0
1001
ACAD
1000
AcRTDxfName
1000
AEC_DISP_PROPS_SLICE
1000
AcRTDxfName
1000
AEC_DISP_PROPS_SLICE
1000
AcRTDxfName
1000
AEC_DISP_PROPS_SLICE
1000
AcRTDxfName
1000
AEC_DISP_PROPS_SLICE
1000
AcRTDxfName
1000
AEC_DISP_PROPS_SLICE
1000
AcRTDxfName
1000
AEC_DISP_PROPS_SLICE
1000
AcRTDxfName
1000
AEC_DISP_PROPS_SLICE
  0
ACAD_PROXY_OBJECT
  5
11A2C
102
{ACAD_REACTORS
330
119EF
102
}
330
119EF
100
AcDbProxyObject
 90
      499
 91
      565
 95
       23
 70
     0
 93
     1965
310
51B4D146946800519465194694641742546946946C7F7FA80C00000000D684A8D28D28D8FEFF501800000001AD0951A51A51B1FDFEA030000000035A12A34A34A363FBFD406000000006B42546946946C7F7FA80C00000000D28D28C81E8528D28D28C8FEFF501800000001A51A41D05394D24C4CCC4000000000000384006
310
0B51153EC87A4FC0000000000001420295A14A34A34A323FBFD406000000006946907414E53493133310000000000000E100182D4454FB21E93F00000000000005080A568528D28D28C8FEFF501800000001A51A41D05394D24C4CCC40000000000003840060B51153EC87A4FC00000000000014202957
340
F
340
12
340
0
340
F
340
12
340
0
340
F
340
12
340
0
340
F
340
12
340
0
340
F
340
12
340
0
340
F
340
12
340
0
340
F
340
12
340
0
340
F
340
12
340
0
340
0
340
0
340
0
 94
        0
1001
ACAD
1000
AcRTDxfName
1000
AEC_DISP_PROPS_MATERIAL
1000
AcRTDxfName
1000
AEC_DISP_PROPS_MATERIAL
1000
AcRTDxfName
1000
AEC_DISP_PROPS_MATERIAL
1000
AcRTDxfName
1000
AEC_DISP_PROPS_MATERIAL
1000
AcRTDxfName
1000
AEC_DISP_PROPS_MATERIAL
1000
AcRTDxfName
1000
AEC_DISP_PROPS_MATERIAL
1000
AcRTDxfName
1000
AEC_DISP_PROPS_MATERIAL
  0
ACAD_PROXY_OBJECT
  5
11A07
102
{ACAD_REACTORS
330
119EF
102
}
330
119EF
100
AcDbProxyObject
 90
      499
 91
      535
 95
       23
 70
     0
 93
      356
310
51B4D146946800519465194694640B42546946946C7F7FA80C00000000D684A8D28D28D8FEFF501800000001AF
340
F
340
12
340
0
340
F
340
12
340
0
 94
        0
1001
ACAD
1000
AcRTDxfName
1000
AEC_DISP_PROPS_MASKBLOCK
1000
AcRTDxfName
1000
AEC_DISP_PROPS_MASKBLOCK
1000
AcRTDxfName
1000
AEC_DISP_PROPS_MASKBLOCK
1000
AcRTDxfName
1000
AEC_DISP_PROPS_MASKBLOCK
1000
AcRTDxfName
1000
AEC_DISP_PROPS_MASKBLOCK
1000
AcRTDxfName
1000
AEC_DISP_PROPS_MASKBLOCK
1000
AcRTDxfName
1000
AEC_DISP_PROPS_MASKBLOCK
  0
ACAD_PROXY_OBJECT
  5
11A2E
102
{ACAD_REACTORS
330
119EF
102
}
330
119EF
100
AcDbProxyObject
 90
      499
 91
      567
 95
       23
 70
     0
 93
      881
310
51B4D146946800519465194694641342546946946C7F7FA80C00000000D68528D28D28C8FEFF501800000001A51A41D05394D24C4CCC40000000000003840060B51153EC87A4FC0000000000001420295A12A34A34A363FBFD406000000006B42546946946C7F7FA80C00000000D7F
340
F
340
12
340
0
340
F
340
12
340
0
340
F
340
12
340
0
340
F
340
12
340
0
 94
        0
1001
ACAD
1000
AcRTDxfName
1000
AEC_DISP_PROPS_EDITINPLACEPROFILE_MODEL
1000
AcRTDxfName
1000
AEC_DISP_PROPS_EDITINPLACEPROFILE_MODEL
1000
AcRTDxfName
1000
AEC_DISP_PROPS_EDITINPLACEPROFILE_MODEL
1000
AcRTDxfName
1000
AEC_DISP_PROPS_EDITINPLACEPROFILE_MODEL
1000
AcRTDxfName
1000
AEC_DISP_PROPS_EDITINPLACEPROFILE_MODEL
1000
AcRTDxfName
1000
AEC_DISP_PROPS_EDITINPLACEPROFILE_MODEL
1000
AcRTDxfName
1000
AEC_DISP_PROPS_EDITINPLACEPROFILE_MODEL
  0
ACAD_PROXY_OBJECT
  5
119F8
102
{ACAD_REACTORS
330
119EF
102
}
330
119EF
100
AcDbProxyObject
 90
      499
 91
      519
 95
       23
 70
     0
 93
      475
310
51B4D146946800519465194694640F42546946946C7F7FA80C00000000D684A8D28D28D8FEFF501800000001AD0951A51A51B1FDFEA030000000035F
340
F
340
12
340
0
340
F
340
12
340
0
340
F
340
12
340
0
 94
        0
1001
ACAD
1000
AcRTDxfName
1000
AEC_DISP_PROPS_CLIP_VOLUME
1000
AcRTDxfName
1000
AEC_DISP_PROPS_CLIP_VOLUME
1000
AcRTDxfName
1000
AEC_DISP_PROPS_CLIP_VOLUME
1000
AcRTDxfName
1000
AEC_DISP_PROPS_CLIP_VOLUME
1000
AcRTDxfName
1000
AEC_DISP_PROPS_CLIP_VOLUME
1000
AcRTDxfName
1000
AEC_DISP_PROPS_CLIP_VOLUME
1000
AcRTDxfName
1000
AEC_DISP_PROPS_CLIP_VOLUME
  0
ACAD_PROXY_OBJECT
  5
119EC
102
{ACAD_REACTORS
330
119EB
102
}
330
119EB
100
AcDbProxyObject
 90
      499
 91
      515
 95
       23
 70
     0
 93
     1327
310
51B4D1469468005194651A8FC812095550000000000000B08000000000000008200000000000001807E8F2048329B897233A1723C8120C86EA5C8CE85D0002000012048226189918480B68000000000001607E0000000000002C201FB0FE9B7AF03A67E8C20A4A09014191A9B1021B7B637B9149010101020A2191A9B21082
310
86828882A48690000000000000701FA1E82CAC698C2F2CAE4A6E8C85CC8EECFE8FCC02A41A4E29
330
0
 94
        0
1001
ACAD
1000
AcRTDxfName
1000
AEC_VARS_DWG_SETUP
1000
AcRTDxfName
1000
AEC_VARS_DWG_SETUP
1000
AcRTDxfName
1000
AEC_VARS_DWG_SETUP
1000
AcRTDxfName
1000
AEC_VARS_DWG_SETUP
1000
AcRTDxfName
1000
AEC_VARS_DWG_SETUP
1000
AcRTDxfName
1000
AEC_VARS_DWG_SETUP
1000
AcRTDxfName
1000
AEC_VARS_DWG_SETUP
  0
DICTIONARY
  5
18C9C
330
619
100
AcDbDictionary
280
     1
281
     1
  3
ACAD_XREC_ROUNDTRIP
360
18C9D
  0
DICTIONARY
  5
18C9E
330
61A
100
AcDbDictionary
280
     1
281
     1
  3
ACAD_XREC_ROUNDTRIP
360
18C9F
  0
DICTIONARY
  5
13C80
330
13C7F
100
AcDbDictionary
280
     1
281
     1
  3
ACAD_XREC_ROUNDTRIP
360
18C92
  3
BUMPTILE
360
13C82
  3
DIFFUSETILE
360
13C81
  3
OPACITYTILE
360
13C85
  3
REFLECTIONTILE
360
13C84
  3
REFRACTIONTILE
360
13C86
  3
SPECULARTILE
360
13C83
  0
DICTIONARY
  5
13C78
330
13C77
100
AcDbDictionary
280
     1
281
     1
  3
ACAD_XREC_ROUNDTRIP
360
18C91
  3
BUMPTILE
360
13C7A
  3
DIFFUSETILE
360
13C79
  3
OPACITYTILE
360
13C7D
  3
REFLECTIONTILE
360
13C7C
  3
REFRACTIONTILE
360
13C7E
  3
SPECULARTILE
360
13C7B
  0
DICTIONARY
  5
13C88
330
13C87
100
AcDbDictionary
280
     1
281
     1
  3
ACAD_XREC_ROUNDTRIP
360
18C93
  3
BUMPTILE
360
13C8A
  3
DIFFUSETILE
360
13C89
  3
OPACITYTILE
360
13C8D
  3
REFLECTIONTILE
360
13C8C
  3
REFRACTIONTILE
360
13C8E
  3
SPECULARTILE
360
13C8B
  0
DICTIONARY
  5
13CBB
330
13CA2
100
AcDbDictionary
280
     1
281
     1
  3
ACAD_ROUNDTRIP_2008_TABLESTYLE_CELLSTYLEMAP
360
18C9A
  3
ACAD_XREC_ROUNDTRIP
360
18CA0
  0
XRECORD
  5
18C9D
102
{ACAD_REACTORS
330
18C9C
102
}
330
18C9C
100
AcDbXrecord
280
     1
102
SHADEPLOT
 70
     0
102
SHADEPLOTRESLEVEL
 70
     2
102
SHADEPLOTCUSTOMDPI
 70
   300
  0
XRECORD
  5
18C9F
102
{ACAD_REACTORS
330
18C9E
102
}
330
18C9E
100
AcDbXrecord
280
     1
102
SHADEPLOT
 70
     0
102
SHADEPLOTRESLEVEL
 70
     2
102
SHADEPLOTCUSTOMDPI
 70
   300
  0
XRECORD
  5
18C92
102
{ACAD_REACTORS
330
13C80
102
}
330
13C80
100
AcDbXrecord
280
     1
102
MATERIAL
148
0.0
149
0.0
149
0.0
 93
        0
 94
      127
282
     0
 72
     0
 77
     0
171
     0
175
     0
179
     0
273
     0
  0
XRECORD
  5
13C82
102
{ACAD_REACTORS
330
13C80
102
}
330
13C80
100
AcDbXrecord
280
     1
270
     1
271
     1
  0
XRECORD
  5
13C81
102
{ACAD_REACTORS
330
13C80
102
}
330
13C80
100
AcDbXrecord
280
     1
270
     1
271
     1
  0
XRECORD
  5
13C85
102
{ACAD_REACTORS
330
13C80
102
}
330
13C80
100
AcDbXrecord
280
     1
270
     1
271
     1
  0
XRECORD
  5
13C84
102
{ACAD_REACTORS
330
13C80
102
}
330
13C80
100
AcDbXrecord
280
     1
270
     1
271
     1
  0
XRECORD
  5
13C86
102
{ACAD_REACTORS
330
13C80
102
}
330
13C80
100
AcDbXrecord
280
     1
270
     1
271
     1
  0
XRECORD
  5
13C83
102
{ACAD_REACTORS
330
13C80
102
}
330
13C80
100
AcDbXrecord
280
     1
270
     1
271
     1
  0
XRECORD
  5
18C91
102
{ACAD_REACTORS
330
13C78
102
}
330
13C78
100
AcDbXrecord
280
     1
102
MATERIAL
148
0.0
149
0.0
149
0.0
 93
        0
 94
      127
282
     0
 72
     0
 77
     0
171
     0
175
     0
179
     0
273
     0
  0
XRECORD
  5
13C7A
102
{ACAD_REACTORS
330
13C78
102
}
330
13C78
100
AcDbXrecord
280
     1
270
     1
271
     1
  0
XRECORD
  5
13C79
102
{ACAD_REACTORS
330
13C78
102
}
330
13C78
100
AcDbXrecord
280
     1
270
     1
271
     1
  0
XRECORD
  5
13C7D
102
{ACAD_REACTORS
330
13C78
102
}
330
13C78
100
AcDbXrecord
280
     1
270
     1
271
     1
  0
XRECORD
  5
13C7C
102
{ACAD_REACTORS
330
13C78
102
}
330
13C78
100
AcDbXrecord
280
     1
270
     1
271
     1
  0
XRECORD
  5
13C7E
102
{ACAD_REACTORS
330
13C78
102
}
330
13C78
100
AcDbXrecord
280
     1
270
     1
271
     1
  0
XRECORD
  5
13C7B
102
{ACAD_REACTORS
330
13C78
102
}
330
13C78
100
AcDbXrecord
280
     1
270
     1
271
     1
  0
XRECORD
  5
18C93
102
{ACAD_REACTORS
330
13C88
102
}
330
13C88
100
AcDbXrecord
280
     1
102
MATERIAL
148
0.0
149
0.0
149
0.0
 93
        0
 94
      127
282
     0
 72
     0
 77
     0
171
     0
175
     0
179
     0
273
     0
  0
XRECORD
  5
13C8A
102
{ACAD_REACTORS
330
13C88
102
}
330
13C88
100
AcDbXrecord
280
     1
270
     1
271
     1
  0
XRECORD
  5
13C89
102
{ACAD_REACTORS
330
13C88
102
}
330
13C88
100
AcDbXrecord
280
     1
270
     1
271
     1
  0
XRECORD
  5
13C8D
102
{ACAD_REACTORS
330
13C88
102
}
330
13C88
100
AcDbXrecord
280
     1
270
     1
271
     1
  0
XRECORD
  5
13C8C
102
{ACAD_REACTORS
330
13C88
102
}
330
13C88
100
AcDbXrecord
280
     1
270
     1
271
     1
  0
XRECORD
  5
13C8E
102
{ACAD_REACTORS
330
13C88
102
}
330
13C88
100
AcDbXrecord
280
     1
270
     1
271
     1
  0
XRECORD
  5
13C8B
102
{ACAD_REACTORS
330
13C88
102
}
330
13C88
100
AcDbXrecord
280
     1
270
     1
271
     1
  0
CELLSTYLEMAP
  5
18C9A
102
{ACAD_REACTORS
330
13CBB
102
}
330
13CBB
100
AcDbCellStyleMap
 90
        3
300
CELLSTYLE
  1
TABLEFORMAT_BEGIN
 90
        5
170
     1
 91
        0
 92
    32768
 62
   257
 93
        1
300
CONTENTFORMAT
  1
CONTENTFORMAT_BEGIN
 90
        0
 91
        0
 92
      512
 93
        0
300

 40
0.0
140
1.0
 94
        5
 62
     0
340
10
144
0.25
309
CONTENTFORMAT_END
171
     1
301
MARGIN
  1
CELLMARGIN_BEGIN
 40
0.06
 40
0.06
 40
0.06
 40
0.06
 40
0.18
 40
0.18
309
CELLMARGIN_END
 94
        6
 95
        1
302
GRIDFORMAT
  1
GRIDFORMAT_BEGIN
 90
        0
 91
        1
 62
     0
 92
       -2
340
0
 93
        0
 40
0.045
309
GRIDFORMAT_END
 95
        2
302
GRIDFORMAT
  1
GRIDFORMAT_BEGIN
 90
        0
 91
        1
 62
     0
 92
       -2
340
0
 93
        0
 40
0.045
309
GRIDFORMAT_END
 95
        4
302
GRIDFORMAT
  1
GRIDFORMAT_BEGIN
 90
        0
 91
        1
 62
     0
 92
       -2
340
0
 93
        0
 40
0.045
309
GRIDFORMAT_END
 95
        8
302
GRIDFORMAT
  1
GRIDFORMAT_BEGIN
 90
        0
 91
        1
 62
     0
 92
       -2
340
0
 93
        0
 40
0.045
309
GRIDFORMAT_END
 95
       16
302
GRIDFORMAT
  1
GRIDFORMAT_BEGIN
 90
        0
 91
        1
 62
     0
 92
       -2
340
0
 93
        0
 40
0.045
309
GRIDFORMAT_END
 95
       32
302
GRIDFORMAT
  1
GRIDFORMAT_BEGIN
 90
        0
 91
        1
 62
     0
 92
       -2
340
0
 93
        0
 40
0.045
309
GRIDFORMAT_END
309
TABLEFORMAT_END
  1
CELLSTYLE_BEGIN
 90
        1
 91
        1
300
_TITLE
309
CELLSTYLE_END
300
CELLSTYLE
  1
TABLEFORMAT_BEGIN
 90
        5
170
     1
 91
        0
 92
        0
 62
   257
 93
        1
300
CONTENTFORMAT
  1
CONTENTFORMAT_BEGIN
 90
        0
 91
        0
 92
      512
 93
        0
300

 40
0.0
140
1.0
 94
        5
 62
     0
340
10
144
0.18
309
CONTENTFORMAT_END
171
     1
301
MARGIN
  1
CELLMARGIN_BEGIN
 40
0.06
 40
0.06
 40
0.06
 40
0.06
 40
0.18
 40
0.18
309
CELLMARGIN_END
 94
        6
 95
        1
302
GRIDFORMAT
  1
GRIDFORMAT_BEGIN
 90
        0
 91
        1
 62
     0
 92
       -2
340
0
 93
        0
 40
0.045
309
GRIDFORMAT_END
 95
        2
302
GRIDFORMAT
  1
GRIDFORMAT_BEGIN
 90
        0
 91
        1
 62
     0
 92
       -2
340
0
 93
        0
 40
0.045
309
GRIDFORMAT_END
 95
        4
302
GRIDFORMAT
  1
GRIDFORMAT_BEGIN
 90
        0
 91
        1
 62
     0
 92
       -2
340
0
 93
        0
 40
0.045
309
GRIDFORMAT_END
 95
        8
302
GRIDFORMAT
  1
GRIDFORMAT_BEGIN
 90
        0
 91
        1
 62
     0
 92
       -2
340
0
 93
        0
 40
0.045
309
GRIDFORMAT_END
 95
       16
302
GRIDFORMAT
  1
GRIDFORMAT_BEGIN
 90
        0
 91
        1
 62
     0
 92
       -2
340
0
 93
        0
 40
0.045
309
GRIDFORMAT_END
 95
       32
302
GRIDFORMAT
  1
GRIDFORMAT_BEGIN
 90
        0
 91
        1
 62
     0
 92
       -2
340
0
 93
        0
 40
0.045
309
GRIDFORMAT_END
309
TABLEFORMAT_END
  1
CELLSTYLE_BEGIN
 90
        2
 91
        1
300
_HEADER
309
CELLSTYLE_END
300
CELLSTYLE
  1
TABLEFORMAT_BEGIN
 90
        5
170
     1
 91
        0
 92
        0
 62
   257
 93
        1
300
CONTENTFORMAT
  1
CONTENTFORMAT_BEGIN
 90
        0
 91
        0
 92
      512
 93
        0
300

 40
0.0
140
1.0
 94
        2
 62
     0
340
10
144
0.18
309
CONTENTFORMAT_END
171
     1
301
MARGIN
  1
CELLMARGIN_BEGIN
 40
0.06
 40
0.06
 40
0.06
 40
0.06
 40
0.18
 40
0.18
309
CELLMARGIN_END
 94
        6
 95
        1
302
GRIDFORMAT
  1
GRIDFORMAT_BEGIN
 90
        0
 91
        1
 62
     0
 92
       -2
340
0
 93
        0
 40
0.045
309
GRIDFORMAT_END
 95
        2
302
GRIDFORMAT
  1
GRIDFORMAT_BEGIN
 90
        0
 91
        1
 62
     0
 92
       -2
340
0
 93
        0
 40
0.045
309
GRIDFORMAT_END
 95
        4
302
GRIDFORMAT
  1
GRIDFORMAT_BEGIN
 90
        0
 91
        1
 62
     0
 92
       -2
340
0
 93
        0
 40
0.045
309
GRIDFORMAT_END
 95
        8
302
GRIDFORMAT
  1
GRIDFORMAT_BEGIN
 90
        0
 91
        1
 62
     0
 92
       -2
340
0
 93
        0
 40
0.045
309
GRIDFORMAT_END
 95
       16
302
GRIDFORMAT
  1
GRIDFORMAT_BEGIN
 90
        0
 91
        1
 62
     0
 92
       -2
340
0
 93
        0
 40
0.045
309
GRIDFORMAT_END
 95
       32
302
GRIDFORMAT
  1
GRIDFORMAT_BEGIN
 90
        0
 91
        1
 62
     0
 92
       -2
340
0
 93
        0
 40
0.045
309
GRIDFORMAT_END
309
TABLEFORMAT_END
  1
CELLSTYLE_BEGIN
 90
        3
 91
        2
300
_DATA
309
CELLSTYLE_END
  0
XRECORD
  5
18CA0
102
{ACAD_REACTORS
330
13CBB
102
}
330
13CBB
100
AcDbXrecord
280
     1
102
ACAD_ROUNDTRIP_PRE2007_TABLESTYLE
 90
      512
 91
        0
  1

 92
      512
 93
        0
  2

 94
      512
 95
        0
  3

  0
ENDSEC
  0
EOF
