  0
SECTION
  2
HEADER
  9
$ACADVER
  1
AC1015
  9
$ACADMAINTVER
 70
    20
  9
$DWGCODEPAGE
  3
ANSI_932
  9
$INSBASE
 10
0.0
 20
0.0
 30
0.0
  9
$EXTMIN
 10
9530.936883437552
 20
-5061.677252078886
 30
-0.0000000000000255
  9
$EXTMAX
 10
9620.397564764775
 20
-4975.369691938697
 30
0.0000000000000355
  9
$LIMMIN
 10
0.0
 20
0.0
  9
$LIMMAX
 10
420.0
 20
297.0
  9
$ORTHOMODE
 70
     1
  9
$REGENMODE
 70
     1
  9
$FILLMODE
 70
     1
  9
$QTEXTMODE
 70
     0
  9
$MIRRTEXT
 70
     1
  9
$LTSCALE
 40
5.0
  9
$ATTMODE
 70
     0
  9
$TEXTSIZE
 40
53.44730959687513
  9
$TRACEWID
 40
1.0
  9
$TEXTSTYLE
  7
STANDARD
  9
$CLAYER
  8
寸法線
  9
$CELTYPE
  6
BYLAYER
  9
$CECOLOR
 62
   256
  9
$CELTSCALE
 40
1.0
  9
$DISPSILH
 70
     0
  9
$DIMSCALE
 40
1.0
  9
$DIMASZ
 40
2.5
  9
$DIMEXO
 40
1.5
  9
$DIMDLI
 40
0.38
  9
$DIMRND
 40
0.0
  9
$DIMDLE
 40
0.0
  9
$DIMEXE
 40
1.0
  9
$DIMTP
 40
0.0
  9
$DIMTM
 40
0.0
  9
$DIMTXT
 40
2.500000000000003
  9
$DIMCEN
 40
0.0
  9
$DIMTSZ
 40
0.0
  9
$DIMTOL
 70
     0
  9
$DIMLIM
 70
     0
  9
$DIMTIH
 70
     0
  9
$DIMTOH
 70
     0
  9
$DIMSE1
 70
     0
  9
$DIMSE2
 70
     0
  9
$DIMTAD
 70
     3
  9
$DIMZIN
 70
     8
  9
$DIMBLK
  1

  9
$DIMASO
 70
     1
  9
$DIMSHO
 70
     0
  9
$DIMPOST
  1

  9
$DIMAPOST
  1

  9
$DIMALT
 70
     0
  9
$DIMALTD
 70
     0
  9
$DIMALTF
 40
25.4
  9
$DIMLFAC
 40
1.0
  9
$DIMTOFL
 70
     1
  9
$DIMTVP
 40
0.0
  9
$DIMTIX
 70
     0
  9
$DIMSOXD
 70
     0
  9
$DIMSAH
 70
     1
  9
$DIMBLK1
  1
OPEN
  9
$DIMBLK2
  1
OPEN
  9
$DIMSTYLE
  2
STANDARD
  9
$DIMCLRD
 70
     8
  9
$DIMCLRE
 70
     8
  9
$DIMCLRT
 70
   256
  9
$DIMTFAC
 40
1.0
  9
$DIMGAP
 40
1.0
  9
$DIMJUST
 70
     0
  9
$DIMSD1
 70
     0
  9
$DIMSD2
 70
     0
  9
$DIMTOLJ
 70
     1
  9
$DIMTZIN
 70
     0
  9
$DIMALTZ
 70
     0
  9
$DIMALTTZ
 70
     0
  9
$DIMUPT
 70
     0
  9
$DIMDEC
 70
     2
  9
$DIMTDEC
 70
     2
  9
$DIMALTU
 70
     2
  9
$DIMALTTD
 70
     0
  9
$DIMTXSTY
  7
STANDARD
  9
$DIMAUNIT
 70
     0
  9
$DIMADEC
 70
     2
  9
$DIMALTRND
 40
0.0
  9
$DIMAZIN
 70
     2
  9
$DIMDSEP
 70
    46
  9
$DIMATFIT
 70
     1
  9
$DIMFRAC
 70
     0
  9
$DIMLDRBLK
  1
OPEN
  9
$DIMLUNIT
 70
     2
  9
$DIMLWD
 70
    -2
  9
$DIMLWE
 70
    -2
  9
$DIMTMOVE
 70
     0
  9
$LUNITS
 70
     2
  9
$LUPREC
 70
     2
  9
$SKETCHINC
 40
0.1
  9
$FILLETRAD
 40
15.5
  9
$AUNITS
 70
     0
  9
$AUPREC
 70
     1
  9
$MENU
  1
FM
  9
$ELEVATION
 40
0.0
  9
$PELEVATION
 40
0.0
  9
$THICKNESS
 40
0.0
  9
$LIMCHECK
 70
     0
  9
$CHAMFERA
 40
0.0
  9
$CHAMFERB
 40
0.0
  9
$CHAMFERC
 40
0.0
  9
$CHAMFERD
 40
0.0
  9
$SKPOLY
 70
     0
  9
$TDCREATE
 40
2448636.619629630
  9
$TDUCREATE
 40
2448636.244629629
  9
$TDUPDATE
 40
2457337.791574097
  9
$TDUUPDATE
 40
2457337.416574097
  9
$TDINDWG
 40
48.8069669560
  9
$TDUSRTIMER
 40
2456821.230906042
  9
$USRTIMER
 70
     1
  9
$ANGBASE
 50
0.0
  9
$ANGDIR
 70
     0
  9
$PDMODE
 70
     3
  9
$PDSIZE
 40
0.0
  9
$PLINEWID
 40
0.0
  9
$SPLFRAME
 70
     0
  9
$SPLINETYPE
 70
     6
  9
$SPLINESEGS
 70
     8
  9
$HANDSEED
  5
12D55E
  9
$SURFTAB1
 70
     6
  9
$SURFTAB2
 70
     6
  9
$SURFTYPE
 70
     6
  9
$SURFU
 70
     6
  9
$SURFV
 70
     6
  9
$UCSBASE
  2

  9
$UCSNAME
  2

  9
$UCSORG
 10
0.0
 20
0.0
 30
0.0
  9
$UCSXDIR
 10
1.0
 20
0.0
 30
0.0
  9
$UCSYDIR
 10
0.0
 20
1.0
 30
0.0
  9
$UCSORTHOREF
  2

  9
$UCSORTHOVIEW
 70
     0
  9
$UCSORGTOP
 10
0.0
 20
0.0
 30
0.0
  9
$UCSORGBOTTOM
 10
0.0
 20
0.0
 30
0.0
  9
$UCSORGLEFT
 10
0.0
 20
0.0
 30
0.0
  9
$UCSORGRIGHT
 10
0.0
 20
0.0
 30
0.0
  9
$UCSORGFRONT
 10
0.0
 20
0.0
 30
0.0
  9
$UCSORGBACK
 10
0.0
 20
0.0
 30
0.0
  9
$PUCSBASE
  2

  9
$PUCSNAME
  2

  9
$PUCSORG
 10
0.0
 20
0.0
 30
0.0
  9
$PUCSXDIR
 10
1.0
 20
0.0
 30
0.0
  9
$PUCSYDIR
 10
0.0
 20
1.0
 30
0.0
  9
$PUCSORTHOREF
  2

  9
$PUCSORTHOVIEW
 70
     0
  9
$PUCSORGTOP
 10
0.0
 20
0.0
 30
0.0
  9
$PUCSORGBOTTOM
 10
0.0
 20
0.0
 30
0.0
  9
$PUCSORGLEFT
 10
0.0
 20
0.0
 30
0.0
  9
$PUCSORGRIGHT
 10
0.0
 20
0.0
 30
0.0
  9
$PUCSORGFRONT
 10
0.0
 20
0.0
 30
0.0
  9
$PUCSORGBACK
 10
0.0
 20
0.0
 30
0.0
  9
$USERI1
 70
     0
  9
$USERI2
 70
     0
  9
$USERI3
 70
     0
  9
$USERI4
 70
     0
  9
$USERI5
 70
     0
  9
$USERR1
 40
0.0
  9
$USERR2
 40
0.0
  9
$USERR3
 40
0.0
  9
$USERR4
 40
0.0
  9
$USERR5
 40
0.0
  9
$WORLDVIEW
 70
     0
  9
$SHADEDGE
 70
     3
  9
$SHADEDIF
 70
    70
  9
$TILEMODE
 70
     1
  9
$MAXACTVP
 70
    16
  9
$PINSBASE
 10
0.0
 20
0.0
 30
0.0
  9
$PLIMCHECK
 70
     0
  9
$PEXTMIN
 10
1.000000000000000E+20
 20
1.000000000000000E+20
 30
1.000000000000000E+20
  9
$PEXTMAX
 10
-1.000000000000000E+20
 20
-1.000000000000000E+20
 30
-1.000000000000000E+20
  9
$PLIMMIN
 10
0.0
 20
0.0
  9
$PLIMMAX
 10
0.0
 20
0.0
  9
$UNITMODE
 70
     0
  9
$VISRETAIN
 70
     0
  9
$PLINEGEN
 70
     0
  9
$PSLTSCALE
 70
     0
  9
$TREEDEPTH
 70
  3020
  9
$CMLSTYLE
  2
STANDARD
  9
$CMLJUST
 70
     0
  9
$CMLSCALE
 40
1.0
  9
$PROXYGRAPHICS
 70
     1
  9
$MEASUREMENT
 70
     0
  9
$CELWEIGHT
370
    -1
  9
$ENDCAPS
280
     0
  9
$JOINSTYLE
280
     0
  9
$LWDISPLAY
290
     0
  9
$INSUNITS
 70
     0
  9
$HYPERLINKBASE
  1

  9
$STYLESHEET
  1
SPAX FORM.CTB
  9
$XEDIT
290
     1
  9
$CEPSNTYPE
380
     0
  9
$PSTYLEMODE
290
     1
  9
$FINGERPRINTGUID
  2
{BBAEEBA6-8B94-11D3-9160-00E0294F7E09}
  9
$VERSIONGUID
  2
{FE57D37A-9D76-46B0-A901-50810E9CB00A}
  9
$EXTNAMES
290
     1
  9
$PSVPSCALE
 40
0.0
  9
$OLESTARTUP
290
     0
  0
ENDSEC
  0
SECTION
  2
CLASSES
  0
CLASS
  1
ACDBDICTIONARYWDFLT
  2
AcDbDictionaryWithDefault
  3
ObjectDBX Classes
 90
        0
280
     0
281
     0
  0
CLASS
  1
ACDBPLACEHOLDER
  2
AcDbPlaceHolder
  3
ObjectDBX Classes
 90
        0
280
     0
281
     0
  0
CLASS
  1
LAYOUT
  2
AcDbLayout
  3
ObjectDBX Classes
 90
        0
280
     0
281
     0
  0
CLASS
  1
DICTIONARYVAR
  2
AcDbDictionaryVar
  3
ObjectDBX Classes
 90
        0
280
     0
281
     0
  0
CLASS
  1
MATERIAL
  2
AcDbMaterial
  3
ObjectDBX Classes
 90
     1153
280
     0
281
     0
  0
CLASS
  1
VISUALSTYLE
  2
AcDbVisualStyle
  3
ObjectDBX Classes
 90
     4095
280
     0
281
     0
  0
CLASS
  1
TABLESTYLE
  2
AcDbTableStyle
  3
ObjectDBX Classes
 90
     4095
280
     0
281
     0
  0
CLASS
  1
SCALE
  2
AcDbScale
  3
ObjectDBX Classes
 90
     1153
280
     0
281
     0
  0
CLASS
  1
MLEADERSTYLE
  2
AcDbMLeaderStyle
  3
ACDB_MLEADERSTYLE_CLASS
 90
     4095
280
     0
281
     0
  0
CLASS
  1
CELLSTYLEMAP
  2
AcDbCellStyleMap
  3
ObjectDBX Classes
 90
     1152
280
     0
281
     0
  0
CLASS
  1
SORTENTSTABLE
  2
AcDbSortentsTable
  3
ObjectDBX Classes
 90
        0
280
     0
281
     0
  0
CLASS
  1
MULTILEADER
  2
AcDbMLeader
  3
ACDB_MLEADER_CLASS
 90
    33793
280
     0
281
     1
  0
CLASS
  1
DIMASSOC
  2
AcDbDimAssoc
  3
"AcDbDimAssoc|Product Desc:     AcDim ARX App For Dimension|Company:          Autodesk, Inc.|WEB Address:      www.autodesk.com"
 90
    32768
280
     0
281
     0
  0
CLASS
  1
RASTERVARIABLES
  2
AcDbRasterVariables
  3
ISM
 90
        0
280
     0
281
     0
  0
CLASS
  1
SUN
  2
AcDbSun
  3
SCENEOE
 90
    33921
280
     0
281
     0
  0
ENDSEC
  0
SECTION
  2
TABLES
  0
TABLE
  2
VPORT
  5
8
330
0
100
AcDbSymbolTable
 70
     1
  0
VPORT
  5
12A532
330
8
100
AcDbSymbolTableRecord
100
AcDbViewportTableRecord
  2
*Active
 70
     0
 10
0.0
 20
0.0
 11
1.0
 21
1.0
 12
9575.667224101165
 22
-5018.523472008791
 13
0.0
 23
0.0
 14
1.0
 24
1.0
 15
20.0
 25
20.0
 16
0.0
 26
0.0
 36
1.0
 17
0.0
 27
0.0
 37
0.0
 40
88.56198976393001
 41
1.020066889632107
 42
50.0
 43
0.0
 44
0.0
 50
0.0
 51
0.0
 71
    16
 72
   100
 73
     1
 74
     0
 75
     0
 76
     0
 77
     0
 78
     0
281
     0
 65
     1
110
0.0
120
0.0
130
0.0
111
1.0
121
0.0
131
0.0
112
0.0
122
1.0
132
0.0
 79
     0
146
0.0
  0
ENDTAB
  0
TABLE
  2
LTYPE
  5
5
330
0
100
AcDbSymbolTable
 70
     4
  0
LTYPE
  5
12
330
5
100
AcDbSymbolTableRecord
100
AcDbLinetypeTableRecord
  2
BYBLOCK
 70
     0
  3

 72
    65
 73
     0
 40
0.0
  0
LTYPE
  5
13
330
5
100
AcDbSymbolTableRecord
100
AcDbLinetypeTableRecord
  2
BYLAYER
 70
     0
  3

 72
    65
 73
     0
 40
0.0
  0
LTYPE
  5
14
330
5
100
AcDbSymbolTableRecord
100
AcDbLinetypeTableRecord
  2
CONTINUOUS
 70
     0
  3
Solid line
 72
    65
 73
     0
 40
0.0
  0
LTYPE
  5
26
330
5
100
AcDbSymbolTableRecord
100
AcDbLinetypeTableRecord
  2
PHANTOM
 70
     0
  3
_____ _ _ _____ _ _ _____ _ _ _____ _ _ ____
 72
    65
 73
     6
 40
2.5
 49
1.25
 74
     0
 49
-0.25
 74
     0
 49
0.25
 74
     0
 49
-0.25
 74
     0
 49
0.25
 74
     0
 49
-0.25
 74
     0
  0
LTYPE
  5
27
330
5
100
AcDbSymbolTableRecord
100
AcDbLinetypeTableRecord
  2
HIDDEN
 70
     0
  3
_ _ _ _ _ _ _ _ _ _ _ _ _ _ _ _ _ _ _ _ _ _ _
 72
    65
 73
     2
 40
0.375
 49
0.25
 74
     0
 49
-0.125
 74
     0
  0
LTYPE
  5
514
330
5
100
AcDbSymbolTableRecord
100
AcDbLinetypeTableRecord
  2
CENTER
 70
     0
  3
Center ____ _ ____ _ ____ _ ____ _ ____ _ ____
 72
    65
 73
     4
 40
2.0
 49
1.25
 74
     0
 49
-0.25
 74
     0
 49
0.25
 74
     0
 49
-0.25
 74
     0
  0
ENDTAB
  0
TABLE
  2
LAYER
  5
2
102
{ACAD_XDICTIONARY
360
8BF
102
}
330
0
100
AcDbSymbolTable
 70
     4
  0
LAYER
  5
F
102
{ACAD_XDICTIONARY
360
A60
102
}
330
2
100
AcDbSymbolTableRecord
100
AcDbLayerTableRecord
  2
0
 70
     0
 62
     7
  6
CONTINUOUS
370
    -3
390
616
  0
LAYER
  5
34
102
{ACAD_XDICTIONARY
360
A66
102
}
330
2
100
AcDbSymbolTableRecord
100
AcDbLayerTableRecord
  2
寸法線
 70
     0
 62
     7
  6
CONTINUOUS
370
    -3
390
616
  0
LAYER
  5
2F4
102
{ACAD_XDICTIONARY
360
A6E
102
}
330
2
100
AcDbSymbolTableRecord
100
AcDbLayerTableRecord
  2
文字
 70
     0
 62
     7
  6
CONTINUOUS
370
    -3
390
616
  0
LAYER
  5
305
102
{ACAD_XDICTIONARY
360
A72
102
}
330
2
100
AcDbSymbolTableRecord
100
AcDbLayerTableRecord
  2
姿図
 70
     0
 62
     8
  6
CONTINUOUS
370
    -3
390
616
  0
ENDTAB
  0
TABLE
  2
STYLE
  5
3
330
0
100
AcDbSymbolTable
 70
     1
  0
STYLE
  5
10
330
3
100
AcDbSymbolTableRecord
100
AcDbTextStyleTableRecord
  2
STANDARD
 70
     0
 40
0.0
 41
1.0
 50
0.0
 71
     0
 42
53.44730959687513
  3
MONOTXT
  4
BIGFONT
  0
ENDTAB
  0
TABLE
  2
VIEW
  5
6
330
0
100
AcDbSymbolTable
 70
     0
  0
ENDTAB
  0
TABLE
  2
UCS
  5
7
330
0
100
AcDbSymbolTable
 70
     0
  0
ENDTAB
  0
TABLE
  2
APPID
  5
9
330
0
100
AcDbSymbolTable
 70
    15
  0
APPID
  5
11
330
9
100
AcDbSymbolTableRecord
100
AcDbRegAppTableRecord
  2
ACAD
 70
     0
  0
APPID
  5
8BB
330
9
100
AcDbSymbolTableRecord
100
AcDbRegAppTableRecord
  2
ACAD_PSEXT
 70
     0
  0
APPID
  5
A5A
330
9
100
AcDbSymbolTableRecord
100
AcDbRegAppTableRecord
  2
ACAD_MLEADERVER
 70
     0
  0
APPID
  5
A5E
330
9
100
AcDbSymbolTableRecord
100
AcDbRegAppTableRecord
  2
ACAD_DSTYLE_DIMJAG
 70
     0
  0
APPID
  5
A5F
330
9
100
AcDbSymbolTableRecord
100
AcDbRegAppTableRecord
  2
ACAD_DSTYLE_DIMTALN
 70
     0
  0
APPID
  5
12C0
330
9
100
AcDbSymbolTableRecord
100
AcDbRegAppTableRecord
  2
ACAD_EXEMPT_FROM_CAD_STANDARDS
 70
     0
  0
APPID
  5
1C50
330
9
100
AcDbSymbolTableRecord
100
AcDbRegAppTableRecord
  2
AcAecLayerStandard
 70
     0
  0
APPID
  5
5088
330
9
100
AcDbSymbolTableRecord
100
AcDbRegAppTableRecord
  2
ACAD_DSTYLE_DIMRADIAL_EXTENSION
 70
     0
  0
APPID
  5
14AF3
330
9
100
AcDbSymbolTableRecord
100
AcDbRegAppTableRecord
  2
WACOM_STRING
 70
     0
  0
APPID
  5
14AF4
330
9
100
AcDbSymbolTableRecord
100
AcDbRegAppTableRecord
  2
WACOM_DRSYM_ARROW
 70
     0
  0
APPID
  5
1E1A8
330
9
100
AcDbSymbolTableRecord
100
AcDbRegAppTableRecord
  2
GENIUS_GENODEF_13
 70
     0
  0
APPID
  5
1E1A9
330
9
100
AcDbSymbolTableRecord
100
AcDbRegAppTableRecord
  2
GENIUS_GENREC_14
 70
     0
  0
APPID
  5
1E1AA
330
9
100
AcDbSymbolTableRecord
100
AcDbRegAppTableRecord
  2
GENIUS_GENOBJ-N-REC_13
 70
     0
  0
APPID
  5
27C72
330
9
100
AcDbSymbolTableRecord
100
AcDbRegAppTableRecord
  2
ASK_MEN_XD
 70
     0
  0
APPID
  5
29316
330
9
100
AcDbSymbolTableRecord
100
AcDbRegAppTableRecord
  2
ACAD_DSTYLE_DIMBREAK
 70
     0
  0
ENDTAB
  0
TABLE
  2
DIMSTYLE
  5
A
330
0
100
AcDbSymbolTable
 70
     1
100
AcDbDimStyleTable
 71
     0
  0
DIMSTYLE
105
1CC
330
A
100
AcDbSymbolTableRecord
100
AcDbDimStyleTableRecord
  2
STANDARD
 70
     0
 41
2.5
 42
1.5
 44
1.0
 73
     0
 74
     0
 77
     3
 78
     8
 79
     2
140
2.500000000000003
141
0.0
147
1.0
171
     0
172
     1
173
     1
176
     8
177
     8
178
   256
179
     2
271
     2
272
     2
274
     0
289
     1
340
10
341
608
343
608
344
608
1001
ACAD_DSTYLE_DIMJAG
1070
   388
1040
1.5
1001
ACAD_DSTYLE_DIMTALN
1070
   392
1070
     0
  0
ENDTAB
  0
TABLE
  2
BLOCK_RECORD
  5
1
330
0
100
AcDbSymbolTable
 70
     3
  0
BLOCK_RECORD
  5
18
102
{ACAD_XDICTIONARY
360
143F
102
}
330
1
100
AcDbSymbolTableRecord
100
AcDbBlockTableRecord
  2
*MODEL_SPACE
340
619
  0
BLOCK_RECORD
  5
15
330
1
100
AcDbSymbolTableRecord
100
AcDbBlockTableRecord
  2
*PAPER_SPACE
340
61A
  0
BLOCK_RECORD
  5
608
330
1
100
AcDbSymbolTableRecord
100
AcDbBlockTableRecord
  2
_OPEN
340
0
  0
BLOCK_RECORD
  5
89D
330
1
100
AcDbSymbolTableRecord
100
AcDbBlockTableRecord
  2
SUN
340
0
  0
BLOCK_RECORD
  5
1F1F
330
1
100
AcDbSymbolTableRecord
100
AcDbBlockTableRecord
  2
_OPEN30
340
0
  0
ENDTAB
  0
ENDSEC
  0
SECTION
  2
BLOCKS
  0
BLOCK
  5
39
330
18
100
AcDbEntity
  8
0
100
AcDbBlockBegin
  2
*MODEL_SPACE
 70
     0
 10
0.0
 20
0.0
 30
0.0
  3
*MODEL_SPACE
  1
*MODEL_SPACE
  0
ENDBLK
  5
3A
330
18
100
AcDbEntity
  8
0
100
AcDbBlockEnd
  0
BLOCK
  5
37
330
15
100
AcDbEntity
 67
     1
  8
0
100
AcDbBlockBegin
  2
*PAPER_SPACE
 70
     0
 10
0.0
 20
0.0
 30
0.0
  3
*PAPER_SPACE
  1
*PAPER_SPACE
  0
ENDBLK
  5
38
330
15
100
AcDbEntity
 67
     1
  8
0
100
AcDbBlockEnd
  0
BLOCK
  5
609
330
608
100
AcDbEntity
  8
0
100
AcDbBlockBegin
  2
_OPEN
 70
     0
 10
0.0
 20
0.0
 30
0.0
  3
_OPEN
  1
_OPEN
  0
LINE
  5
60A
330
608
100
AcDbEntity
  8
0
  6
ByBlock
 62
     0
100
AcDbLine
 10
-1.0
 20
0.1666666666666667
 30
0.0
 11
0.0
 21
0.0
 31
0.0
  0
LINE
  5
60B
330
608
100
AcDbEntity
  8
0
  6
ByBlock
 62
     0
100
AcDbLine
 10
0.0
 20
0.0
 30
0.0
 11
-1.0
 21
-0.1666666666666667
 31
0.0
  0
LINE
  5
60C
330
608
100
AcDbEntity
  8
0
  6
ByBlock
 62
     0
100
AcDbLine
 10
0.0
 20
0.0
 30
0.0
 11
-1.0
 21
0.0
 31
0.0
  0
ENDBLK
  5
60D
330
608
100
AcDbEntity
  8
0
100
AcDbBlockEnd
  0
BLOCK
  5
89E
330
89D
100
AcDbEntity
  8
0
100
AcDbBlockBegin
  2
SUN
 70
     0
 10
0.0
 20
0.0
 30
0.0
  3
SUN
  1
SUN
  0
LINE
  5
89F
330
89D
100
AcDbEntity
  8
0
100
AcDbLine
 10
-0.0000000000000568
 20
0.0
 30
0.0
 11
-1.500000000000056
 21
0.0
 31
0.0
  0
LINE
  5
8A0
330
89D
100
AcDbEntity
  8
0
100
AcDbLine
 10
-0.0000000000000568
 20
0.0000000000000284
 30
0.0
 11
-1.500000000000056
 21
0.401923788646684
 31
0.0
  0
LINE
  5
8A1
330
89D
100
AcDbEntity
  8
0
100
AcDbLine
 10
-0.0000000000000568
 20
0.0000000000000284
 30
0.0
 11
-1.500000000000056
 21
-0.4019237886466557
 31
0.0
  0
ENDBLK
  5
8A2
330
89D
100
AcDbEntity
  8
0
100
AcDbBlockEnd
  0
BLOCK
  5
1F20
330
1F1F
100
AcDbEntity
  8
0
100
AcDbBlockBegin
  2
_OPEN30
 70
     0
 10
0.0
 20
0.0
 30
0.0
  3
_OPEN30
  1
_OPEN30
  0
LINE
  5
1F21
330
1F1F
100
AcDbEntity
  8
0
  6
ByBlock
 62
     0
100
AcDbLine
 10
-1.0
 20
0.26794919
 30
0.0
 11
0.0
 21
0.0
 31
0.0
  0
LINE
  5
1F22
330
1F1F
100
AcDbEntity
  8
0
  6
ByBlock
 62
     0
100
AcDbLine
 10
0.0
 20
0.0
 30
0.0
 11
-1.0
 21
-0.26794919
 31
0.0
  0
LINE
  5
1F23
330
1F1F
100
AcDbEntity
  8
0
  6
ByBlock
 62
     0
100
AcDbLine
 10
0.0
 20
0.0
 30
0.0
 11
-1.0
 21
0.0
 31
0.0
  0
ENDBLK
  5
1F24
330
1F1F
100
AcDbEntity
  8
0
100
AcDbBlockEnd
  0
ENDSEC
  0
SECTION
  2
ENTITIES
  0
MTEXT
  5
D0CC6
330
18
100
AcDbEntity
  8
寸法線
100
AcDbMText
 10
2610.774875364868
 20
-2740.315466585338
 30
0.0
 40
2.500000000000003
 41
0.0
 71
     9
 72
     1
  1
\A1;
 73
     1
 44
1.0
1001
ACAD
1000
MTEXTBEGIN
1070
    73
1070
     1
1070
    44
1040
1.0
1070
    74
1070
     0
1000
MTEXTEND
  0
MTEXT
  5
F6D77
330
18
100
AcDbEntity
  8
文字
100
AcDbMText
 10
5821.057140836062
 20
-2842.341718131324
 30
0.0
 40
2.5
 41
64.39156592258223
 71
     1
 72
     5
  1
   
 73
     1
 44
1.0
1001
ACAD
1000
MTEXTBEGIN
1070
    73
1070
     1
1070
    44
1040
1.0
1070
    74
1070
     0
1000
MTEXTEND
  0
MTEXT
  5
F6D78
330
18
100
AcDbEntity
  8
寸法線
100
AcDbMText
 10
6222.662262480188
 20
-2968.738290481128
 30
0.0
 40
3.000000000000001
 41
0.0
 71
     7
 72
     1
  1
\A1;
 73
     1
 44
1.0
1001
ACAD
1000
MTEXTBEGIN
1070
    73
1070
     1
1070
    44
1040
1.0
1070
    74
1070
     0
1000
MTEXTEND
  0
TEXT
  5
12BF2A
330
18
100
AcDbEntity
  8
文字
100
AcDbText
 10
9531.485289806978
 20
-5061.287910552535
 30
0.0
 40
6.5
  1
SX-505/80DF/CE
100
AcDbText
  0
SPLINE
  5
12D080
330
18
100
AcDbEntity
  8
姿図
100
AcDbSpline
210
0.0
220
0.0
230
1.0
 70
    24
 71
     3
 72
     8
 73
     4
 74
     0
 42
0.0000000001
 43
0.0000000001
 40
0.0
 40
0.0
 40
0.0
 40
0.0
 40
1.0
 40
1.0
 40
1.0
 40
1.0
 10
9572.056630519096
 20
-5013.852124286202
 30
-0.0000000000000061
 10
9572.056630519096
 20
-5013.852124286202
 30
-0.0000000000000061
 10
9576.333445562706
 20
-4991.081149349962
 30
-0.0000000000000061
 10
9576.333445562706
 20
-4991.081149349962
 30
-0.0000000000000061
  0
SPLINE
  5
12D081
330
18
100
AcDbEntity
  8
姿図
100
AcDbSpline
210
0.0
220
0.0
230
1.0
 70
    24
 71
     3
 72
     8
 73
     4
 74
     0
 42
0.0000000001
 43
0.0000000001
 40
6.0
 40
6.0
 40
6.0
 40
6.0
 40
7.0
 40
7.0
 40
7.0
 40
7.0
 10
9590.088490505664
 20
-4990.711886398473
 30
-0.0000000000000061
 10
9590.088490505664
 20
-4990.711886398473
 30
-0.0000000000000061
 10
9593.442869387255
 20
-5020.530590947891
 30
-0.0000000000000061
 10
9593.442869387255
 20
-5020.530590947891
 30
-0.0000000000000061
  0
SPLINE
  5
12D082
330
18
100
AcDbEntity
  8
姿図
100
AcDbSpline
210
0.0
220
0.0
230
1.0
 70
     8
 71
     3
 72
     8
 73
     4
 74
     0
 42
0.0000000001
 43
0.0000000001
 40
7.0
 40
7.0
 40
7.0
 40
7.0
 40
8.0
 40
8.0
 40
8.0
 40
8.0
 10
9593.442869387255
 20
-5020.530590947891
 30
-0.0000000000000061
 10
9593.442869387255
 20
-5020.530590947891
 30
-0.0000000000000061
 10
9593.719816600872
 20
-5020.807538161508
 30
-0.0000000000000061
 10
9593.904448076617
 20
-5020.899853899381
 30
-0.0000000000000061
  0
SPLINE
  5
12D083
330
18
100
AcDbEntity
  8
姿図
100
AcDbSpline
210
0.0
220
0.0
230
1.0
 70
     8
 71
     3
 72
    17
 73
    13
 74
     0
 42
0.0000000001
 43
0.0000000001
 40
0.0
 40
0.0
 40
0.0
 40
0.0
 40
1.0
 40
1.0
 40
1.0
 40
2.0
 40
2.0
 40
2.0
 40
3.0
 40
3.0
 40
3.0
 40
4.0
 40
4.0
 40
4.0
 40
4.0
 10
9574.918418393137
 20
-5013.390545596841
 30
-0.0000000000000061
 10
9574.918418393137
 20
-5013.390545596841
 30
-0.0000000000000061
 10
9579.113958906253
 20
-4993.341367234191
 30
-0.0000000000000061
 10
9579.113958906253
 20
-4993.341367234191
 30
-0.0000000000000061
 10
9579.113958906253
 20
-4993.341367234191
 30
-0.0000000000000061
 10
9579.804923975157
 20
-4993.293540794845
 30
-0.0000000000000061
 10
9579.804923975157
 20
-4993.293540794845
 30
-0.0000000000000061
 10
9579.804923975157
 20
-4993.293540794845
 30
-0.0000000000000061
 10
9583.71031455564
 20
-4994.008826327014
 30
-0.0000000000000061
 10
9584.419847002449
 20
-4993.005748184518
 30
-0.0000000000000061
 10
9584.419847002449
 20
-4993.005748184518
 30
-0.0000000000000061
 10
9586.804311181353
 20
-4992.829036924115
 30
-0.0000000000000061
 10
9586.804311181353
 20
-4992.829036924115
 30
-0.0000000000000061
  0
SPLINE
  5
12D084
330
18
100
AcDbEntity
  8
姿図
100
AcDbSpline
210
0.0
220
0.0
230
1.0
 70
     8
 71
     3
 72
     8
 73
     4
 74
     0
 42
0.0000000001
 43
0.0000000001
 40
0.0
 40
0.0
 40
0.0
 40
0.0
 40
1.0
 40
1.0
 40
1.0
 40
1.0
 10
9591.073672520769
 20
-5021.361432588742
 30
-0.0000000000000061
 10
9591.073672520769
 20
-5021.361432588742
 30
-0.0000000000000061
 10
9591.473226573745
 20
-5021.297965518955
 30
-0.0000000000000061
 10
9591.288595098005
 20
-5019.944962985764
 30
-0.0000000000000061
  0
SPLINE
  5
12D085
330
18
100
AcDbEntity
  8
姿図
100
AcDbSpline
210
0.0
220
0.0
230
1.0
 70
    24
 71
     3
 72
     8
 73
     4
 74
     0
 42
0.0000000001
 43
0.0000000001
 40
1.0
 40
1.0
 40
1.0
 40
1.0
 40
2.0
 40
2.0
 40
2.0
 40
2.0
 10
9591.288595098005
 20
-5019.944962985764
 30
-0.0000000000000061
 10
9591.288595098005
 20
-5019.944962985764
 30
-0.0000000000000061
 10
9586.642517102902
 20
-4991.850687571131
 30
-0.0000000000000061
 10
9586.642517102902
 20
-4991.850687571131
 30
-0.0000000000000061
  0
SPLINE
  5
12D086
330
18
100
AcDbEntity
  8
姿図
100
AcDbSpline
210
0.0
220
0.0
230
1.0
 70
    24
 71
     3
 72
     8
 73
     4
 74
     0
 42
0.0000000001
 43
0.0000000001
 40
6.0
 40
6.0
 40
6.0
 40
6.0
 40
7.0
 40
7.0
 40
7.0
 40
7.0
 10
9577.041680364194
 20
-4992.866160687725
 30
-0.0000000000000061
 10
9577.041680364194
 20
-4992.866160687725
 30
-0.0000000000000061
 10
9572.948775579627
 20
-5013.605468174072
 30
-0.0000000000000061
 10
9572.948775579627
 20
-5013.605468174072
 30
-0.0000000000000061
  0
ELLIPSE
  5
12D087
330
18
100
AcDbEntity
  8
姿図
100
AcDbEllipse
 10
9593.331441406775
 20
-5023.2466930481
 30
-0.0000000000000061
 11
0.4511210471801072
 21
-1.616967846167546
 31
0.0
210
0.0
220
0.0
230
1.0
 40
0.643531171717028
 41
0.1727975711782461
 42
3.069675997577923
  0
ELLIPSE
  5
12D088
330
18
100
AcDbEntity
  8
姿図
100
AcDbEllipse
 10
9593.826196064433
 20
-5023.065667655867
 30
-0.0000000000000061
 11
0.4763636317545334
 21
-1.710004800741861
 31
0.0
210
0.0
220
0.0
230
0.9999999999999998
 40
0.6435771184023121
 41
0.0
 42
6.283185307179585
  0
LINE
  5
12D089
330
18
100
AcDbEntity
  8
姿図
100
AcDbLine
 10
9593.577029804057
 20
-5025.854495691215
 30
-0.0000000000000061
 11
9594.595723658901
 21
-5025.301319882704
 31
-0.0000000000000061
  0
LINE
  5
12D08A
330
18
100
AcDbEntity
  8
姿図
100
AcDbLine
 10
9591.899465644706
 20
-5020.915720666828
 30
-0.0000000000000061
 11
9593.196934491826
 21
-5020.715222423635
 31
-0.0000000000000061
  0
ELLIPSE
  5
12D08B
330
18
100
AcDbEntity
  8
姿図
100
AcDbEllipse
 10
9593.660676831298
 20
-5023.093795107249
 30
-0.0000000000000061
 11
0.6498162486159499
 21
-2.336742114889764
 31
0.0
210
0.0
220
0.0
230
0.9999999999999996
 40
0.6439476357599928
 41
0.0
 42
6.283185307179585
  0
ELLIPSE
  5
12D08C
330
18
100
AcDbEntity
  8
姿図
100
AcDbEllipse
 10
9592.597242804009
 20
-5023.435651824057
 30
-0.0000000000000061
 11
0.7006620261158656
 21
-2.52137359063414
 31
0.0
210
0.0
220
0.0
230
0.9999999999999996
 40
0.8372735138002814
 41
2.937168574284825
 42
6.528588851372925
  0
LINE
  5
12D08D
330
18
100
AcDbEntity
  8
姿図
100
AcDbLine
 10
9587.632779148602
 20
-5022.469221443208
 30
-0.0000000000000061
 11
9591.278305527904
 21
-5021.081463778858
 31
-0.0000000000000061
  0
SPLINE
  5
12D08E
330
18
100
AcDbEntity
  8
姿図
100
AcDbSpline
210
0.0
220
0.0
230
1.0
 70
     8
 71
     3
 72
    11
 73
     7
 74
     0
 42
0.0000000001
 43
0.0000000001
 40
0.0
 40
0.0
 40
0.0
 40
0.0
 40
1.0
 40
1.0
 40
1.0
 40
2.0
 40
2.0
 40
2.0
 40
2.0
 10
9596.120747002252
 20
-5018.315013238959
 30
-0.0000000000000061
 10
9596.120747002252
 20
-5018.315013238959
 30
-0.0000000000000061
 10
9597.658381011184
 20
-5016.806227898112
 30
-0.0000000000000061
 10
9597.658381011184
 20
-5016.806227898112
 30
-0.0000000000000061
 10
9597.658381011184
 20
-5016.806227898112
 30
-0.0000000000000061
 10
9597.72184808097
 20
-5016.683621058749
 30
-0.0000000000000061
 10
9597.690114546079
 20
-5016.591305320877
 30
-0.0000000000000061
  0
SPLINE
  5
12D08F
330
18
100
AcDbEntity
  8
姿図
100
AcDbSpline
210
0.0
220
0.0
230
1.0
 70
    24
 71
     3
 72
     8
 73
     4
 74
     0
 42
0.0000000001
 43
0.0000000001
 40
1.505573087642825
 40
1.505573087642825
 40
1.505573087642825
 40
1.505573087642825
 40
1.793215549939621
 40
1.793215549939621
 40
1.793215549939621
 40
1.793215549939621
 10
9586.21716480504
 20
-5009.987702277395
 30
-0.0000000000000061
 10
9587.367657411029
 20
-5009.129162856828
 30
-0.0000000000000061
 10
9588.510771881074
 20
-5008.276129269605
 30
-0.0000000000000061
 10
9589.265702219464
 20
-5007.71277279785
 30
-0.0000000000000061
  0
SPLINE
  5
12D090
330
18
100
AcDbEntity
  8
姿図
100
AcDbSpline
210
0.0
220
0.0
230
1.0
 70
     8
 71
     3
 72
    11
 73
     7
 74
     0
 42
0.0000000001
 43
0.0000000001
 40
0.0
 40
0.0
 40
0.0
 40
0.0
 40
1.0
 40
1.0
 40
1.0
 40
1.88888372913265
 40
1.88888372913265
 40
1.88888372913265
 40
1.88888372913265
 10
9600.305246307989
 20
-5020.161327996403
 30
-0.0000000000000061
 10
9600.305246307989
 20
-5020.161327996403
 30
-0.0000000000000061
 10
9600.5807510882
 20
-5020.530590947891
 30
-0.0000000000000061
 10
9600.427853147349
 20
-5020.715222423635
 30
-0.0000000000000061
 10
9600.427853147349
 20
-5020.715222423635
 30
-0.0000000000000061
 10
9595.079300947398
 20
-5024.96967487674
 30
-0.0000000000000061
 10
9593.8906785974
 20
-5025.915152659083
 30
-0.0000000000000061
  0
SPLINE
  5
12D091
330
18
100
AcDbEntity
  8
姿図
100
AcDbSpline
210
0.0
220
0.0
230
1.0
 70
     8
 71
     3
 72
    11
 73
     7
 74
     0
 42
0.0000000001
 43
0.0000000001
 40
0.0
 40
0.0
 40
0.0
 40
0.0
 40
1.0
 40
1.0
 40
1.0
 40
1.814174646936441
 40
1.814174646936441
 40
1.814174646936441
 40
1.814174646936441
 10
9601.198112585221
 20
-5018.499644714704
 30
-0.0000000000000061
 10
9601.198112585221
 20
-5018.499644714704
 30
-0.0000000000000061
 10
9601.505350900323
 20
-5018.716009725341
 30
-0.0000000000000061
 10
9601.043772210964
 20
-5019.11556377832
 30
-0.0000000000000061
 10
9600.66796654452
 20
-5019.440870558336
 30
-0.0000000000000061
 10
9596.742892106872
 20
-5022.602150176551
 30
-0.0000000000000061
 10
9595.297112389225
 20
-5023.765808790386
 30
-0.0000000000000061
  0
SPLINE
  5
12D092
330
18
100
AcDbEntity
  8
姿図
100
AcDbSpline
210
0.0
220
0.0
230
1.0
 70
     8
 71
     3
 72
    14
 73
    10
 74
     0
 42
0.0000000001
 43
0.0000000001
 40
0.0
 40
0.0
 40
0.0
 40
0.0
 40
1.0
 40
1.0
 40
1.0
 40
2.0
 40
2.0
 40
2.0
 40
2.760018265937638
 40
2.760018265937638
 40
2.760018265937638
 40
2.760018265937638
 10
9599.998007992878
 20
-5017.730827710237
 30
-0.0000000000000061
 10
9599.998007992878
 20
-5017.730827710237
 30
-0.0000000000000061
 10
9601.382744060964
 20
-5018.591960452576
 30
-0.0000000000000061
 10
9601.382744060964
 20
-5018.591960452576
 30
-0.0000000000000061
 10
9601.382744060964
 20
-5018.591960452576
 30
-0.0000000000000061
 10
9601.720273477559
 20
-5018.838616564702
 30
-0.0000000000000061
 10
9601.44332626394
 20
-5019.11556377832
 30
-0.0000000000000061
 10
9601.44332626394
 20
-5019.11556377832
 30
-0.0000000000000061
 10
9597.195309175914
 20
-5022.776598805247
 30
-0.0000000000000061
 10
9595.156416161691
 20
-5024.533761873697
 30
-0.0000000000000061
  0
SPLINE
  5
12D093
330
18
100
AcDbEntity
  8
姿図
100
AcDbSpline
210
0.0
220
0.0
230
1.0
 70
     8
 71
     3
 72
    11
 73
     7
 74
     0
 42
0.0000000001
 43
0.0000000001
 40
0.0
 40
0.0
 40
0.0
 40
0.0
 40
1.0
 40
1.0
 40
1.0
 40
1.887883960454415
 40
1.887883960454415
 40
1.887883960454415
 40
1.887883960454415
 10
9601.320719424583
 20
-5016.069144428538
 30
-0.0000000000000061
 10
9601.320719424583
 20
-5016.069144428538
 30
-0.0000000000000061
 10
9601.720273477559
 20
-5016.037410893644
 30
-0.0000000000000061
 10
9600.889431836712
 20
-5016.653329957261
 30
-0.0000000000000061
 10
9600.151740870121
 20
-5017.200194614782
 30
-0.0000000000000061
 10
9595.630266598872
 20
-5020.754754791716
 30
-0.0000000000000061
 10
9594.625679802584
 20
-5021.54492711824
 30
-0.0000000000000061
  0
SPLINE
  5
12D094
330
18
100
AcDbEntity
  8
姿図
100
AcDbSpline
210
0.0
220
0.0
230
1.0
 70
     8
 71
     3
 72
    11
 73
     7
 74
     0
 42
0.0000000001
 43
0.0000000001
 40
0.0
 40
0.0
 40
0.0
 40
0.0
 40
1.0
 40
1.0
 40
1.0
 40
1.675127286579801
 40
1.675127286579801
 40
1.675127286579801
 40
1.675127286579801
 10
9600.243221671604
 20
-5013.544885971095
 30
-0.0000000000000061
 10
9600.243221671604
 20
-5013.544885971095
 30
-0.0000000000000061
 10
9600.70624279437
 20
-5013.576619505989
 30
-0.0000000000000061
 10
9600.367270944367
 20
-5013.883857821094
 30
-0.0000000000000061
 10
9600.138421799055
 20
-5014.091282791105
 30
-0.0000000000000061
 10
9595.996719660494
 20
-5017.398615660493
 30
-0.0000000000000061
 10
9593.329820897185
 20
-5019.525647963168
 30
-0.0000000000000061
  0
SPLINE
  5
12D095
330
18
100
AcDbEntity
  8
姿図
100
AcDbSpline
210
0.0
220
0.0
230
1.0
 70
     8
 71
     3
 72
    14
 73
    10
 74
     0
 42
0.0000000001
 43
0.0000000001
 40
0.0
 40
0.0
 40
0.0
 40
0.0
 40
1.0
 40
1.0
 40
1.0
 40
2.0
 40
2.0
 40
2.0
 40
2.903771721635468
 40
2.903771721635468
 40
2.903771721635468
 40
2.903771721635468
 10
9598.950801341393
 20
-5015.515250001304
 30
-0.0000000000000061
 10
9598.950801341393
 20
-5015.515250001304
 30
-0.0000000000000061
 10
9601.320719424583
 20
-5016.069144428538
 30
-0.0000000000000061
 10
9601.320719424583
 20
-5016.069144428538
 30
-0.0000000000000061
 10
9601.320719424583
 20
-5016.069144428538
 30
-0.0000000000000061
 10
9601.904904953304
 20
-5016.190308834494
 30
-0.0000000000000061
 10
9601.505350900323
 20
-5016.498989583005
 30
-0.0000000000000061
 10
9601.144245245981
 20
-5016.777966514522
 30
-0.0000000000000061
 10
9595.844190585003
 20
-5021.039206719514
 30
-0.0000000000000061
 10
9594.827504110062
 20
-5021.85672704342
 30
-0.0000000000000061
  0
SPLINE
  5
12D096
330
18
100
AcDbEntity
  8
姿図
100
AcDbSpline
210
0.0
220
0.0
230
1.0
 70
     8
 71
     3
 72
    11
 73
     7
 74
     0
 42
0.0000000001
 43
0.0000000001
 40
0.0
 40
0.0
 40
0.0
 40
0.0
 40
1.0
 40
1.0
 40
1.0
 40
1.201957035102942
 40
1.201957035102942
 40
1.201957035102942
 40
1.201957035102942
 10
9595.073540350762
 20
-5016.161460166411
 30
-0.0000000000000061
 10
9595.073540350762
 20
-5016.161460166411
 30
-0.0000000000000061
 10
9597.043904380972
 20
-5014.315145408968
 30
-0.0000000000000061
 10
9597.043904380972
 20
-5014.315145408968
 30
-0.0000000000000061
 10
9596.962920319496
 20
-5014.004318093875
 30
-0.0000000000000061
 10
9596.840577349508
 20
-5013.737438296075
 30
-0.0000000000000061
 10
9596.696883984179
 20
-5013.509432598035
 30
-0.0000000000000061
  0
SPLINE
  5
12D097
330
18
100
AcDbEntity
  8
姿図
100
AcDbSpline
210
0.0
220
0.0
230
1.0
 70
     8
 71
     3
 72
    11
 73
     7
 74
     0
 42
0.0000000001
 43
0.0000000001
 40
1.371408514633379
 40
1.371408514633379
 40
1.371408514633379
 40
1.371408514633379
 40
2.0
 40
2.0
 40
2.0
 40
3.0
 40
3.0
 40
3.0
 40
3.0
 10
9596.301914218271
 20
-5013.014615292055
 30
-0.0000000000000061
 10
9595.786996526955
 20
-5012.496872597981
 30
-0.0000000000000061
 10
9595.227880725015
 20
-5012.314490277266
 30
-0.0000000000000061
 10
9595.227880725015
 20
-5012.314490277266
 30
-0.0000000000000061
 10
9595.227880725015
 20
-5012.314490277266
 30
-0.0000000000000061
 10
9593.258237911509
 20
-5013.821833184712
 30
-0.0000000000000061
 10
9593.258237911509
 20
-5013.821833184712
 30
-0.0000000000000061
  0
SPLINE
  5
12D098
330
18
100
AcDbEntity
  8
姿図
100
AcDbSpline
210
0.0
220
0.0
230
1.0
 70
     8
 71
     3
 72
    14
 73
    10
 74
     0
 42
0.0000000001
 43
0.0000000001
 40
0.1253663450285614
 40
0.1253663450285614
 40
0.1253663450285614
 40
0.1253663450285614
 40
1.0
 40
1.0
 40
1.0
 40
2.0
 40
2.0
 40
2.0
 40
2.79498799956431
 40
2.79498799956431
 40
2.79498799956431
 40
2.79498799956431
 10
9596.900140283992
 20
-5013.895575543084
 30
-0.0000000000000061
 10
9597.63220409836
 20
-5013.813128446833
 30
-0.0000000000000061
 10
9600.551902420116
 20
-5013.484303768116
 30
-0.0000000000000061
 10
9600.551902420116
 20
-5013.484303768116
 30
-0.0000000000000061
 10
9600.551902420116
 20
-5013.484303768116
 30
-0.0000000000000061
 10
9601.444768697348
 20
-5013.452570233223
 30
-0.0000000000000061
 10
9600.736533895862
 20
-5014.068489296837
 30
-0.0000000000000061
 10
9600.173495727801
 20
-5014.558137561116
 30
-0.0000000000000061
 10
9595.351794599029
 20
-5018.528375611118
 30
-0.0000000000000061
 10
9593.398445860545
 20
-5020.135688623262
 30
-0.0000000000000061
  0
SPLINE
  5
12D099
330
18
100
AcDbEntity
  8
姿図
100
AcDbSpline
210
0.0
220
0.0
230
1.0
 70
     8
 71
     3
 72
    14
 73
    10
 74
     0
 42
0.0000000001
 43
0.0000000001
 40
1.443519435933285
 40
1.443519435933285
 40
1.443519435933285
 40
1.443519435933285
 40
2.0
 40
2.0
 40
2.0
 40
3.0
 40
3.0
 40
3.0
 40
3.529837330600595
 40
3.529837330600595
 40
3.529837330600595
 40
3.529837330600595
 10
9594.147672253667
 20
-5014.634304528979
 30
-0.0000000000000061
 10
9596.463787093449
 20
-5012.892909486494
 30
-0.0000000000000061
 10
9599.074850614162
 20
-5010.929754209183
 30
-0.0000000000000061
 10
9599.074850614162
 20
-5010.929754209183
 30
-0.0000000000000061
 10
9599.074850614162
 20
-5010.929754209183
 30
-0.0000000000000061
 10
9599.444113565649
 20
-5010.856190105567
 30
-0.0000000000000061
 10
9599.382088929266
 20
-5011.236992524289
 30
-0.0000000000000061
 10
9599.366039572913
 20
-5011.334817172544
 30
-0.0000000000000061
 10
9597.060511115678
 20
-5013.220816512959
 30
-0.0000000000000061
 10
9594.896112045359
 20
-5014.97264505603
 30
-0.0000000000000061
  0
SPLINE
  5
12D09A
330
18
100
AcDbEntity
  8
姿図
100
AcDbSpline
210
0.0
220
0.0
230
1.0
 70
     8
 71
     3
 72
    14
 73
    10
 74
     0
 42
0.0000000001
 43
0.0000000001
 40
1.47114458461932
 40
1.47114458461932
 40
1.47114458461932
 40
1.47114458461932
 40
2.0
 40
2.0
 40
2.0
 40
3.0
 40
3.0
 40
3.0
 40
4.0
 40
4.0
 40
4.0
 40
4.0
 10
9592.507612092306
 20
-5012.216634194594
 30
-0.0000000000000061
 10
9594.737756354255
 20
-5010.562225632759
 30
-0.0000000000000061
 10
9597.104486583949
 20
-5008.806492238125
 30
-0.0000000000000061
 10
9597.104486583949
 20
-5008.806492238125
 30
-0.0000000000000061
 10
9597.104486583949
 20
-5008.806492238125
 30
-0.0000000000000061
 10
9597.72184808097
 20
-5008.561278559401
 30
-0.0000000000000061
 10
9597.690114546079
 20
-5009.022136032061
 30
-0.0000000000000061
 10
9597.690114546079
 20
-5009.022136032061
 30
-0.0000000000000061
 10
9595.627434777997
 20
-5012.468830651522
 30
-0.0000000000000061
 10
9595.627434777997
 20
-5012.468830651522
 30
-0.0000000000000061
  0
SPLINE
  5
12D09B
330
18
100
AcDbEntity
  8
姿図
100
AcDbSpline
210
0.0
220
0.0
230
1.0
 70
    24
 71
     3
 72
     8
 73
     4
 74
     0
 42
0.0000000001
 43
0.0000000001
 40
1.361944250330176
 40
1.361944250330176
 40
1.361944250330176
 40
1.361944250330176
 40
1.428242292534494
 40
1.428242292534494
 40
1.428242292534494
 40
1.428242292534494
 10
9589.051636656781
 20
-5011.889226827134
 30
-0.0000000000000061
 10
9589.311709245567
 20
-5011.696977176542
 30
-0.0000000000000061
 10
9589.582089242524
 20
-5011.497108131577
 30
-0.0000000000000061
 10
9589.857826756157
 20
-5011.293278728032
 30
-0.0000000000000061
  0
SPLINE
  5
12D09C
330
18
100
AcDbEntity
  8
姿図
100
AcDbSpline
210
0.0
220
0.0
230
1.0
 70
     8
 71
     3
 72
    11
 73
     7
 74
     0
 42
0.0000000001
 43
0.0000000001
 40
1.615278216396081
 40
1.615278216396081
 40
1.615278216396081
 40
1.615278216396081
 40
2.0
 40
2.0
 40
2.0
 40
3.0
 40
3.0
 40
3.0
 40
3.0
 10
9592.208286427856
 20
-5009.55578285149
 30
-0.0000000000000061
 10
9593.755173688023
 20
-5008.412300039009
 30
-0.0000000000000061
 10
9595.012236931081
 20
-5007.483059589722
 30
-0.0000000000000061
 10
9595.012236931081
 20
-5007.483059589722
 30
-0.0000000000000061
 10
9595.012236931081
 20
-5007.483059589722
 30
-0.0000000000000061
 10
9595.288462927996
 20
-5007.268137012488
 30
-0.0000000000000061
 10
9595.258171826506
 20
-5008.160282073019
 30
-0.0000000000000061
  0
SPLINE
  5
12D09D
330
18
100
AcDbEntity
  8
姿図
100
AcDbSpline
210
0.0
220
0.0
230
1.0
 70
    24
 71
     3
 72
     8
 73
     4
 74
     0
 42
0.0000000001
 43
0.0000000001
 40
1.360826806385313
 40
1.360826806385313
 40
1.360826806385313
 40
1.360826806385313
 40
1.445359962748387
 40
1.445359962748387
 40
1.445359962748387
 40
1.445359962748387
 10
9588.733198808482
 20
-5011.690047376866
 30
-0.0000000000000061
 10
9589.072767267101
 20
-5011.438077738006
 30
-0.0000000000000061
 10
9589.429657511942
 20
-5011.173254831689
 30
-0.0000000000000061
 10
9589.793348369893
 20
-5010.903385673325
 30
-0.0000000000000061
  0
SPLINE
  5
12D09E
330
18
100
AcDbEntity
  8
姿図
100
AcDbSpline
210
0.0
220
0.0
230
1.0
 70
    24
 71
     3
 72
     8
 73
     4
 74
     0
 42
0.0000000001
 43
0.0000000001
 40
1.629831745831646
 40
1.629831745831646
 40
1.629831745831646
 40
1.629831745831646
 40
2.0
 40
2.0
 40
2.0
 40
2.0
 10
9592.162151296472
 20
-5009.145665240851
 30
-0.0000000000000061
 10
9593.665313333728
 20
-5008.03027543929
 30
-0.0000000000000061
 10
9594.858617773526
 20
-5007.144808956425
 30
-0.0000000000000061
 10
9594.858617773526
 20
-5007.144808956425
 30
-0.0000000000000061
  0
SPLINE
  5
12D09F
330
18
100
AcDbEntity
  8
姿図
100
AcDbSpline
210
0.0
220
0.0
230
1.0
 70
     8
 71
     3
 72
    11
 73
     7
 74
     0
 42
0.0000000001
 43
0.0000000001
 40
2.0
 40
2.0
 40
2.0
 40
2.0
 40
3.0
 40
3.0
 40
3.0
 40
4.0
 40
4.0
 40
4.0
 40
4.0
 10
9594.858617773526
 20
-5007.144808956425
 30
-0.0000000000000061
 10
9594.858617773526
 20
-5007.144808956425
 30
-0.0000000000000061
 10
9595.258171826506
 20
-5007.08278432004
 30
-0.0000000000000061
 10
9595.258171826506
 20
-5007.483059589722
 30
-0.0000000000000061
 10
9595.258171826506
 20
-5007.883334859403
 30
-0.0000000000000061
 10
9595.227880725015
 20
-5010.098912568334
 30
-0.0000000000000061
 10
9595.227880725015
 20
-5010.098912568334
 30
-0.0000000000000061
  0
SPLINE
  5
12D0A0
330
18
100
AcDbEntity
  8
姿図
100
AcDbSpline
210
0.0
220
0.0
230
1.0
 70
    24
 71
     3
 72
     8
 73
     4
 74
     0
 42
0.0000000001
 43
0.0000000001
 40
1.404660919629102
 40
1.404660919629102
 40
1.404660919629102
 40
1.404660919629102
 40
1.573101002211188
 40
1.573101002211188
 40
1.573101002211188
 40
1.573101002211188
 10
9587.372525931639
 20
-5010.7985673747
 30
-0.0000000000000061
 10
9588.066838126326
 20
-5010.281667105667
 30
-0.0000000000000061
 10
9588.807432685777
 20
-5009.730310626614
 30
-0.0000000000000061
 10
9589.512540357418
 20
-5009.2053733607
 30
-0.0000000000000061
  0
SPLINE
  5
12D0A1
330
18
100
AcDbEntity
  8
姿図
100
AcDbSpline
210
0.0
220
0.0
230
1.0
 70
     8
 71
     3
 72
    11
 73
     7
 74
     0
 42
0.0000000001
 43
0.0000000001
 40
1.799348189808346
 40
1.799348189808346
 40
1.799348189808346
 40
1.799348189808346
 40
2.0
 40
2.0
 40
2.0
 40
3.0
 40
3.0
 40
3.0
 40
3.0
 10
9591.963596546584
 20
-5007.38061554528
 30
-0.0000000000000061
 10
9592.514246809644
 20
-5006.970668447564
 30
-0.0000000000000061
 10
9592.85868385853
 20
-5006.714242585255
 30
-0.0000000000000061
 10
9592.85868385853
 20
-5006.714242585255
 30
-0.0000000000000061
 10
9592.85868385853
 20
-5006.714242585255
 30
-0.0000000000000061
 10
9593.074327652468
 20
-5006.744533686745
 30
-0.0000000000000061
 10
9593.043315334275
 20
-5007.206112376105
 30
-0.0000000000000061
  0
SPLINE
  5
12D0A2
330
18
100
AcDbEntity
  8
姿図
100
AcDbSpline
210
0.0
220
0.0
230
1.0
 70
    24
 71
     3
 72
     8
 73
     4
 74
     0
 42
0.0000000001
 43
0.0000000001
 40
1.402850150975758
 40
1.402850150975758
 40
1.402850150975758
 40
1.402850150975758
 40
1.583667207078013
 40
1.583667207078013
 40
1.583667207078013
 40
1.583667207078013
 10
9587.156801337343
 20
-5010.651027194731
 30
-0.0000000000000061
 10
9587.906323593985
 20
-5010.094187245987
 30
-0.0000000000000061
 10
9588.710577583688
 20
-5009.496685642221
 30
-0.0000000000000061
 10
9589.467695614972
 20
-5008.934202591184
 30
-0.0000000000000061
  0
SPLINE
  5
12D0A3
330
18
100
AcDbEntity
  8
姿図
100
AcDbSpline
210
0.0
220
0.0
230
1.0
 70
     8
 71
     3
 72
    14
 73
    10
 74
     0
 42
0.0000000001
 43
0.0000000001
 40
1.815455566821609
 40
1.815455566821609
 40
1.815455566821609
 40
1.815455566821609
 40
2.0
 40
2.0
 40
2.0
 40
3.0
 40
3.0
 40
3.0
 40
4.0
 40
4.0
 40
4.0
 40
4.0
 10
9591.932380701141
 20
-5007.10312272012
 30
-0.0000000000000061
 10
9592.410923165642
 20
-5006.747600840626
 30
-0.0000000000000061
 10
9592.704343484276
 20
-5006.529611109511
 30
-0.0000000000000061
 10
9592.704343484276
 20
-5006.529611109511
 30
-0.0000000000000061
 10
9592.704343484276
 20
-5006.529611109511
 30
-0.0000000000000061
 10
9593.013024232789
 20
-5006.405561836745
 30
-0.0000000000000061
 10
9593.043315334275
 20
-5006.744533686745
 30
-0.0000000000000061
 10
9593.043315334275
 20
-5006.744533686745
 30
-0.0000000000000061
 10
9592.98129069789
 20
-5008.898807975996
 30
-0.0000000000000061
 10
9592.98129069789
 20
-5008.898807975996
 30
-0.0000000000000061
  0
SPLINE
  5
12D0A4
330
18
100
AcDbEntity
  8
姿図
100
AcDbSpline
210
0.0
220
0.0
230
1.0
 70
    24
 71
     3
 72
     8
 73
     4
 74
     0
 42
0.0000000001
 43
0.0000000001
 40
1.510185474351763
 40
1.510185474351763
 40
1.510185474351763
 40
1.510185474351763
 40
1.810497930033094
 40
1.810497930033094
 40
1.810497930033094
 40
1.810497930033094
 10
9586.073786075134
 20
-5009.883457204621
 30
-0.0000000000000061
 10
9587.288570263872
 20
-5008.978268701125
 30
-0.0000000000000061
 10
9588.488485034082
 20
-5008.084160047722
 30
-0.0000000000000061
 10
9589.235114712707
 20
-5007.527813819541
 30
-0.0000000000000061
  0
SPLINE
  5
12D0A5
330
18
100
AcDbEntity
  8
姿図
100
AcDbSpline
210
0.0
220
0.0
230
1.0
 70
     8
 71
     3
 72
    11
 73
     7
 74
     0
 42
0.0000000001
 43
0.0000000001
 40
1.0
 40
1.0
 40
1.0
 40
1.000000000000003
 40
2.0
 40
2.0
 40
2.0
 40
2.10277645146085
 40
2.10277645146085
 40
2.10277645146085
 40
2.10277645146085
 10
9570.53050806137
 20
-5014.673896978031
 30
-0.0000000000000061
 10
9574.601083044202
 20
-5011.718765281311
 30
-0.0000000000000061
 10
9581.581018287382
 20
-5014.335339476627
 30
-0.0000000000000061
 10
9586.313642286734
 20
-5020.523378780871
 30
-0.0000000000000061
 10
9586.80034108386
 20
-5021.159363502061
 30
-0.0000000000000061
 10
9587.244385515999
 20
-5021.80843631024
 30
-0.0000000000000061
 10
9587.645225244683
 20
-5022.464483536132
 30
-0.0000000000000061
  0
SPLINE
  5
12D0A6
330
18
100
AcDbEntity
  8
姿図
100
AcDbSpline
210
0.0
220
0.0
230
1.0
 70
     8
 71
     3
 72
     8
 73
     4
 74
     0
 42
0.0000000001
 43
0.0000000001
 40
2.529370585629381
 40
2.529370585629381
 40
2.529370585629381
 40
2.529370585629381
 40
2.999999999999996
 40
3.0
 40
3.0
 40
3.0
 10
9590.364134958482
 20
-5030.556934297689
 30
-0.0000000000000061
 10
9590.513868210379
 20
-5033.343884228448
 30
-0.0000000000000061
 10
9589.709757755988
 20
-5035.744977397783
 30
-0.0000000000000061
 10
9587.898960747297
 20
-5037.173186522558
 30
-0.0000000000000061
  0
ELLIPSE
  5
12D0A7
330
18
100
AcDbEntity
  8
姿図
100
AcDbEllipse
 10
9589.973060302209
 20
-5016.89754040561
 30
-0.0000000000000061
 11
5.277551857870764
 21
-5.505994302663387
 31
0.0
210
0.0
220
0.0
230
0.9999999999999998
 40
0.5896757540129041
 41
2.589251650966877
 42
2.614621634798047
  0
ELLIPSE
  5
12D0A8
330
18
100
AcDbEntity
  8
姿図
100
AcDbEllipse
 10
9589.973060302209
 20
-5016.89754040561
 30
-0.0000000000000061
 11
5.277551857870764
 21
-5.505994302663387
 31
0.0
210
0.0
220
0.0
230
0.9999999999999998
 40
0.5896757540129041
 41
6.965981119172361
 42
7.147828363455014
  0
ELLIPSE
  5
12D0A9
330
18
100
AcDbEntity
  8
姿図
100
AcDbEllipse
 10
9589.973060302209
 20
-5016.89754040561
 30
-0.0000000000000061
 11
5.277551857870764
 21
-5.505994302663387
 31
0.0
210
0.0
220
0.0
230
0.9999999999999998
 40
0.5896757540129041
 41
7.339249712863026
 42
7.531924593532863
  0
ELLIPSE
  5
12D0AA
330
18
100
AcDbEntity
  8
姿図
100
AcDbEllipse
 10
9589.973060302209
 20
-5016.89754040561
 30
-0.0000000000000061
 11
5.277551857870764
 21
-5.505994302663387
 31
0.0
210
0.0
220
0.0
230
0.9999999999999998
 40
0.5896757540129041
 41
7.728897397957167
 42
7.896541804765815
  0
ELLIPSE
  5
12D0AB
330
18
100
AcDbEntity
  8
姿図
100
AcDbEllipse
 10
9589.973060302209
 20
-5016.89754040561
 30
-0.0000000000000061
 11
5.277551857870764
 21
-5.505994302663387
 31
0.0
210
0.0
220
0.0
230
0.9999999999999998
 40
0.5896757540129041
 41
8.489247713282603
 42
8.607693964296711
  0
ARC
  5
12D0AC
330
18
100
AcDbEntity
  8
姿図
100
AcDbCircle
 10
9588.87360880988
 20
-5010.440996221079
 30
-0.0000000000000061
 40
0.4436734182372752
100
AcDbArc
 50
158.3286271790336
 51
250.9430020259656
  0
ARC
  5
12D0AD
330
18
100
AcDbEntity
  8
姿図
100
AcDbCircle
 10
9593.371005785263
 20
-5013.182431819316
 30
-0.0000000000000061
 40
0.5305635549859548
100
AcDbArc
 50
160.4247343165085
 51
224.460661065416
  0
ARC
  5
12D0AE
330
18
100
AcDbEntity
  8
姿図
100
AcDbCircle
 10
9595.221644210736
 20
-5015.439396985856
 30
-0.0000000000000061
 40
0.5650198592711318
100
AcDbArc
 50
120.2647657538528
 51
124.6443451644839
  0
ARC
  5
12D0AF
330
18
100
AcDbEntity
  8
姿図
100
AcDbCircle
 10
9596.097267175332
 20
-5016.494323223223
 30
-0.0000000000000061
 40
0.8087376358169283
100
AcDbArc
 50
210.0537915453266
 51
255.6920591719458
  0
ARC
  5
12D0B0
330
18
100
AcDbEntity
  8
姿図
100
AcDbCircle
 10
9596.558708120584
 20
-5019.015464621118
 30
-0.0000000000000061
 40
0.4817684811365542
100
AcDbArc
 50
203.2404029724748
 51
273.6673327535127
  0
SPLINE
  5
12D0B1
330
18
100
AcDbEntity
  8
姿図
100
AcDbSpline
210
0.0
220
0.0
230
1.0
 70
     8
 71
     3
 72
     8
 73
     4
 74
     0
 42
0.0000000001
 43
0.0000000001
 40
0.0
 40
0.0
 40
0.0
 40
0.0
 40
1.0
 40
1.0
 40
1.0
 40
1.0
 10
9589.891833964065
 20
-5031.204444301507
 30
-0.0000000000000061
 10
9590.396450037472
 20
-5030.468957103195
 30
-0.0000000000000061
 10
9594.193886172732
 20
-5025.51952751716
 30
-0.0000000000000061
 10
9594.193886172732
 20
-5025.51952751716
 30
-0.0000000000000061
  0
LINE
  5
12D0B2
330
18
100
AcDbEntity
  8
姿図
100
AcDbLine
 10
9587.51220391837
 20
-5023.357443123383
 30
-0.0000000000000037
 11
9591.073672520769
 21
-5021.361432588742
 31
-0.0000000000000061
  0
LINE
  5
12D0B3
330
18
100
AcDbEntity
  8
姿図
100
AcDbLine
 10
9587.632779148602
 20
-5022.469221443208
 30
-0.0000000000000061
 11
9587.51220391837
 21
-5023.357443123383
 31
-0.0000000000000037
  0
SPLINE
  5
12D0B4
330
18
100
AcDbEntity
  8
姿図
100
AcDbSpline
210
0.0
220
0.0
230
1.0
 70
     8
 71
     3
 72
    11
 73
     7
 74
     0
 42
0.0000000001
 43
0.0000000001
 40
1.0
 40
1.0
 40
1.0
 40
1.000000000000003
 40
2.0
 40
2.0
 40
2.0
 40
2.132564484647538
 40
2.132564484647538
 40
2.132564484647538
 40
2.132564484647538
 10
9570.060061238924
 20
-5014.994365306121
 30
-0.0000000000000061
 10
9574.130636221758
 20
-5012.039233609399
 30
-0.0000000000000061
 10
9581.110571464938
 20
-5014.655807804716
 30
-0.0000000000000061
 10
9585.843195464292
 20
-5020.84384710896
 30
-0.0000000000000061
 10
9586.470955756677
 20
-5021.664161350306
 30
-0.0000000000000061
 10
9587.027753269401
 20
-5022.506249846959
 30
-0.0000000000000061
 10
9587.51220391837
 20
-5023.357443123383
 30
-0.0000000000000061
  0
SPLINE
  5
12D0B5
330
18
100
AcDbEntity
  8
姿図
100
AcDbSpline
210
0.0
220
0.0
230
1.0
 70
     8
 71
     3
 72
     8
 73
     4
 74
     0
 42
0.0000000001
 43
0.0000000001
 40
2.546094283791051
 40
2.546094283791051
 40
2.546094283791051
 40
2.546094283791051
 40
2.999999999999996
 40
3.0
 40
3.0
 40
3.0
 10
9589.891833964065
 20
-5031.204444301505
 30
-0.0000000000000061
 10
9589.958998394001
 20
-5033.891320900231
 30
-0.0000000000000061
 10
9589.127346371524
 20
-5036.221585788117
 30
-0.0000000000000061
 10
9587.34131589688
 20
-5037.686641689099
 30
-0.0000000000000061
  0
LINE
  5
12D0B6
330
18
100
AcDbEntity
  8
姿図
100
AcDbLine
 10
9588.575109459045
 20
-5010.769240397877
 30
-0.0000000000000061
 11
9587.973716159446
 21
-5011.200666968099
 31
-0.0000000000000061
  0
LINE
  5
12D0B7
330
18
100
AcDbEntity
  8
姿図
100
AcDbLine
 10
9592.992325852149
 20
-5013.554048818571
 30
-0.0000000000000061
 11
9592.683713124621
 21
-5013.782081879178
 31
-0.0000000000000061
  0
LINE
  5
12D0B8
330
18
100
AcDbEntity
  8
姿図
100
AcDbLine
 10
9595.490542566595
 20
-5017.029058496739
 30
-0.0000000000000061
 11
9593.23608054966
 21
-5018.692344443856
 31
-0.0000000000000061
  0
LINE
  5
12D0B9
330
18
100
AcDbEntity
  8
姿図
100
AcDbLine
 10
9596.116031626737
 20
-5019.205565623895
 30
-0.0000000000000061
 11
9593.904448076617
 21
-5020.899853899381
 31
-0.0000000000000061
  0
SPLINE
  5
12D0BA
330
18
100
AcDbEntity
  8
姿図
100
AcDbSpline
210
0.0
220
0.0
230
1.0
 70
     8
 71
     3
 72
     8
 73
     4
 74
     0
 42
0.0000000001
 43
0.0000000001
 40
0.3537168008125633
 40
0.3537168008125633
 40
0.3537168008125633
 40
0.3537168008125633
 40
1.0
 40
1.0
 40
1.0
 40
1.0
 10
9587.898960747452
 20
-5037.173186522412
 30
-0.0000000000000061
 10
9586.814799620412
 20
-5038.209415827106
 30
-0.0000000000000061
 10
9584.758255689717
 20
-5039.935968666857
 30
-0.0000000000000061
 10
9581.596163838124
 20
-5041.546845647857
 30
-0.0000000000000061
  0
ARC
  5
12D0BB
330
18
100
AcDbEntity
  8
姿図
100
AcDbCircle
 10
9589.388196641559
 20
-5042.862485242128
 30
-0.0000000000000061
 40
33.91473023496308
100
AcDbArc
 50
123.781852860515
 51
135.6505614347181
  0
LINE
  5
12D0BC
330
18
100
AcDbEntity
  8
姿図
100
AcDbLine
 10
9565.469211625254
 20
-5019.845874040045
 30
-0.0000000000000061
 11
9566.744698199871
 21
-5018.214245110178
 31
-0.0000000000000061
  0
LINE
  5
12D0BD
330
18
100
AcDbEntity
  8
姿図
100
AcDbLine
 10
9566.404937987364
 20
-5019.632879705688
 30
-0.0000000000000061
 11
9567.585440047171
 21
-5017.938782593883
 31
-0.0000000000000061
  0
LINE
  5
12D0BE
330
18
100
AcDbEntity
  8
姿図
100
AcDbLine
 10
9567.246897692427
 20
-5019.571548658112
 30
-0.0000000000000061
 11
9568.468633605164
 21
-5017.818278289832
 31
-0.0000000000000061
  0
LINE
  5
12D0BF
330
18
100
AcDbEntity
  8
姿図
100
AcDbLine
 10
9568.111257808725
 20
-5019.61598885611
 30
-0.0000000000000061
 11
9569.455965732004
 21
-5017.817832912192
 31
-0.0000000000000061
  0
LINE
  5
12D0C0
330
18
100
AcDbEntity
  8
姿図
100
AcDbLine
 10
9568.956461339409
 20
-5019.751972724026
 30
-0.0000000000000061
 11
9570.327010624307
 21
-5017.919261470962
 31
-0.0000000000000061
  0
LINE
  5
12D0C1
330
18
100
AcDbEntity
  8
姿図
100
AcDbLine
 10
9569.641597521231
 20
-5019.923517947348
 30
-0.0000000000000061
 11
9571.261856760202
 21
-5018.123229904046
 31
-0.0000000000000061
  0
LINE
  5
12D0C2
330
18
100
AcDbEntity
  8
姿図
100
AcDbLine
 10
9570.499644350755
 20
-5020.210896865942
 30
-0.0000000000000061
 11
9572.133379814749
 21
-5018.395635239286
 31
-0.0000000000000061
  0
LINE
  5
12D0C3
330
18
100
AcDbEntity
  8
姿図
100
AcDbLine
 10
9571.352979091209
 20
-5020.573298807727
 30
-0.0000000000000061
 11
9573.117795322387
 21
-5018.808482576546
 31
-0.0000000000000061
  0
LINE
  5
12D0C4
330
18
100
AcDbEntity
  8
姿図
100
AcDbLine
 10
9573.04547937997
 20
-5021.512282555695
 30
-0.0000000000000061
 11
9574.968306627051
 21
-5019.749690912537
 31
-0.0000000000000061
  0
LINE
  5
12D0C5
330
18
100
AcDbEntity
  8
姿図
100
AcDbLine
 10
9580.063608703545
 20
-5041.853055357607
 30
-0.0000000000000061
 11
9582.115108907121
 21
-5041.158192385427
 31
-0.0000000000000061
  0
LINE
  5
12D0C6
330
18
100
AcDbEntity
  8
姿図
100
AcDbLine
 10
9580.695320061305
 20
-5041.158192385427
 30
-0.0000000000000061
 11
9582.965832429071
 21
-5040.256665415872
 31
-0.0000000000000061
  0
LINE
  5
12D0C7
330
18
100
AcDbEntity
  8
姿図
100
AcDbLine
 10
9581.134225255013
 20
-5040.548302140329
 30
-0.0000000000000061
 11
9583.533992861196
 21
-5039.331028716901
 31
-0.0000000000000061
  0
LINE
  5
12D0C8
330
18
100
AcDbEntity
  8
姿図
100
AcDbLine
 10
9581.448711889489
 20
-5039.923680820676
 30
-0.0000000000000061
 11
9583.9232918652
 21
-5038.368928270146
 31
-0.0000000000000061
  0
LINE
  5
12D0C9
330
18
100
AcDbEntity
  8
姿図
100
AcDbLine
 10
9581.770926135542
 20
-5038.996410938333
 30
-0.0000000000000061
 11
9584.157052415712
 21
-5037.425264408783
 31
-0.0000000000000061
  0
LINE
  5
12D0CA
330
18
100
AcDbEntity
  8
姿図
100
AcDbLine
 10
9581.968338182708
 20
-5038.026958238582
 30
-0.0000000000000061
 11
9584.301578056537
 21
-5036.410356326001
 31
-0.0000000000000061
  0
LINE
  5
12D0CB
330
18
100
AcDbEntity
  8
姿図
100
AcDbLine
 10
9582.052356558847
 20
-5037.09750108318
 30
-0.0000000000000061
 11
9584.337376714433
 21
-5035.514308546811
 31
-0.0000000000000061
  0
LINE
  5
12D0CC
330
18
100
AcDbEntity
  8
姿図
100
AcDbLine
 10
9582.0832035398
 20
-5036.077262639439
 30
-0.0000000000000061
 11
9584.316579252321
 21
-5034.529852324334
 31
-0.0000000000000061
  0
LINE
  5
12D0CD
330
18
100
AcDbEntity
  8
姿図
100
AcDbLine
 10
9581.923676703189
 20
-5035.056290885143
 30
-0.0000000000000061
 11
9584.152186997721
 21
-5033.367497927571
 31
-0.0000000000000061
  0
LINE
  5
12D0CE
330
18
100
AcDbEntity
  8
姿図
100
AcDbLine
 10
9581.796055233905
 20
-5034.035319130849
 30
-0.0000000000000061
 11
9583.958358347604
 21
-5032.396698802496
 31
-0.0000000000000061
  0
LINE
  5
12D0CF
330
18
100
AcDbEntity
  8
姿図
100
AcDbLine
 10
9581.572717662654
 20
-5033.006371034723
 30
-0.0000000000000061
 11
9583.693687526537
 21
-5031.399073559747
 31
-0.0000000000000061
  0
LINE
  5
12D0D0
330
18
100
AcDbEntity
  8
姿図
100
AcDbLine
 10
9581.253663989432
 20
-5032.04921001507
 30
-0.0000000000000061
 11
9583.327512314022
 21
-5030.299400491197
 31
-0.0000000000000061
  0
LINE
  5
12D0D1
330
18
100
AcDbEntity
  8
姿図
100
AcDbLine
 10
9580.934610316216
 20
-5031.219670464704
 30
-0.0000000000000061
 11
9583.002393973593
 21
-5029.474978003793
 31
-0.0000000000000061
  0
LINE
  5
12D0D2
330
18
100
AcDbEntity
  8
姿図
100
AcDbLine
 10
9580.487935173712
 20
-5030.310367496035
 30
-0.0000000000000061
 11
9582.582400454144
 21
-5028.543162415669
 31
-0.0000000000000061
  0
LINE
  5
12D0D3
330
18
100
AcDbEntity
  8
姿図
100
AcDbLine
 10
9580.126341559388
 20
-5029.490299362946
 30
-0.0000000000000061
 11
9582.178919641762
 21
-5027.662222008329
 31
-0.0000000000000061
  0
LINE
  5
12D0D4
330
18
100
AcDbEntity
  8
姿図
100
AcDbLine
 10
9579.688827610533
 20
-5028.681885580471
 30
-0.0000000000000061
 11
9581.677401602822
 21
-5026.859026087539
 31
-0.0000000000000061
  0
LINE
  5
12D0D5
330
18
100
AcDbEntity
  8
姿図
100
AcDbLine
 10
9579.084099011556
 20
-5027.662222008329
 30
-0.0000000000000061
 11
9581.047919568371
 21
-5025.862053164582
 31
-0.0000000000000061
  0
LINE
  5
12D0D6
330
18
100
AcDbEntity
  8
姿図
100
AcDbLine
 10
9578.445991665121
 20
-5026.609344886712
 30
-0.0000000000000061
 11
9580.360313704424
 21
-5024.854549684016
 31
-0.0000000000000061
  0
LINE
  5
12D0D7
330
18
100
AcDbEntity
  8
姿図
100
AcDbLine
 10
9577.712168216722
 20
-5025.779805336346
 30
-0.0000000000000061
 11
9579.65904038074
 21
-5023.995172519329
 31
-0.0000000000000061
  0
LINE
  5
12D0D8
330
18
100
AcDbEntity
  8
姿図
100
AcDbLine
 10
9577.058373646721
 20
-5025.001868669456
 30
-0.0000000000000061
 11
9578.99469130394
 21
-5023.226910817006
 31
-0.0000000000000061
  0
LINE
  5
12D0D9
330
18
100
AcDbEntity
  8
姿図
100
AcDbLine
 10
9576.340237421884
 20
-5024.248347704903
 30
-0.0000000000000061
 11
9578.254559461191
 21
-5022.493552502208
 31
-0.0000000000000061
  0
LINE
  5
12D0DA
330
18
100
AcDbEntity
  8
姿図
100
AcDbLine
 10
9575.702130075452
 20
-5023.514524256503
 30
-0.0000000000000061
 11
9577.616452114757
 21
-5021.759729053807
 31
-0.0000000000000061
  0
LINE
  5
12D0DB
330
18
100
AcDbEntity
  8
姿図
100
AcDbLine
 10
9575.000211994373
 20
-5023.004038379355
 30
-0.0000000000000061
 11
9576.930214473788
 21
-5021.234869439892
 31
-0.0000000000000061
  0
LINE
  5
12D0DC
330
18
100
AcDbEntity
  8
姿図
100
AcDbLine
 10
9574.388668222795
 20
-5022.469202558589
 30
-0.0000000000000061
 11
9576.293107988311
 21
-5020.723466106865
 31
-0.0000000000000061
  0
LINE
  5
12D0DD
330
18
100
AcDbEntity
  8
姿図
100
AcDbLine
 10
9573.750606121041
 20
-5021.990580574474
 30
-0.0000000000000061
 11
9575.648847952299
 21
-5020.250525562483
 31
-0.0000000000000061
  0
LINE
  5
12D0DE
330
18
100
AcDbEntity
  8
姿図
100
AcDbLine
 10
9564.264517036169
 20
-5020.418858866676
 30
-0.0000000000000061
 11
9565.852498223815
 21
-5018.60856031276
 31
-0.0000000000000061
  0
LINE
  5
12D0DF
330
18
100
AcDbEntity
  8
姿図
100
AcDbLine
 10
9581.37430615962
 20
-5041.679645732592
 30
-0.0000000000000061
 11
9578.546048604648
 21
-5042.743410085276
 31
-0.0000000000000061
  0
LINE
  5
12D0E0
330
18
100
AcDbEntity
  8
姿図
100
AcDbLine
 10
9564.287516106606
 20
-5020.038322100708
 30
-0.0000000000000061
 11
9563.051327130679
 21
-5021.557425454695
 31
-0.0000000000000061
  0
SPLINE
  5
12D0E1
330
18
100
AcDbEntity
  8
姿図
100
AcDbSpline
210
0.0
220
0.0
230
1.0
 70
     8
 71
     3
 72
    17
 73
    13
 74
     0
 42
0.0000000001
 43
0.0000000001
 40
0.1965331616420136
 40
0.1965331616420136
 40
0.1965331616420136
 40
0.1965331616420136
 40
1.0
 40
1.0
 40
1.0
 40
2.0
 40
2.0
 40
2.0
 40
3.0
 40
3.0
 40
3.0
 40
4.0
 40
4.0
 40
4.0
 40
4.0
 10
9564.287516106526
 20
-5020.038322100819
 30
-0.0000000000000061
 10
9564.617084238978
 20
-5019.590169696422
 30
-0.0000000000000061
 10
9565.007988856653
 20
-5019.196556403613
 30
-0.0000000000000061
 10
9565.461005686534
 20
-5018.867308097544
 30
-0.0000000000000061
 10
9569.26671778238
 20
-5016.103007131935
 30
-0.0000000000000061
 10
9576.014204449567
 20
-5018.902204593054
 30
-0.0000000000000061
 10
9580.53180505378
 20
-5025.121757135337
 30
-0.0000000000000061
 10
9585.049405657994
 20
-5031.339315592162
 30
-0.0000000000000061
 10
9585.627690440698
 20
-5038.622712726077
 30
-0.0000000000000061
 10
9581.821978344853
 20
-5041.386515170324
 30
-0.0000000000000061
 10
9581.677407149177
 20
-5041.492201699576
 30
-0.0000000000000061
 10
9581.527850739856
 20
-5041.589911886999
 30
-0.0000000000000061
 10
9581.37430615962
 20
-5041.679645732592
 30
-0.0000000000000061
  0
ELLIPSE
  5
12D0E2
330
18
100
AcDbEntity
  8
姿図
100
AcDbEllipse
 10
9571.90962879576
 20
-5031.328348122143
 30
-0.0000000000000061
 11
7.832518416805893
 21
-10.78002598383419
 31
0.0
210
0.0
220
0.0
230
1.0
 40
0.5991002932922082
 41
0.0
 42
6.283185307179585
  0
SPLINE
  5
12D0E3
330
18
100
AcDbEntity
  8
姿図
100
AcDbSpline
210
0.0
220
0.0
230
1.0
 70
     8
 71
     3
 72
    11
 73
     7
 74
     0
 42
0.0000000001
 43
0.0000000001
 40
1.006377578182845
 40
1.006377578182845
 40
1.006377578182845
 40
1.006377578182845
 40
2.0
 40
2.0
 40
2.0
 40
2.914863247510368
 40
2.914863247510368
 40
2.914863247510368
 40
2.914863247510368
 10
9579.562358001314
 20
-5040.334405606049
 30
-0.0000000000000061
 10
9576.371210488762
 20
-5042.570788070841
 30
-0.0000000000000061
 10
9570.71225540624
 20
-5040.137259910803
 30
-0.0000000000000061
 10
9566.879298968258
 20
-5034.861867553026
 30
-0.0000000000000061
 10
9563.350160638227
 20
-5030.004627540769
 30
-0.0000000000000061
 10
9562.590309231763
 20
-5024.420538376659
 30
-0.0000000000000061
 10
9564.922303647428
 20
-5021.734474972916
 30
-0.0000000000000061
  0
SPLINE
  5
12D0E4
330
18
100
AcDbEntity
  8
姿図
100
AcDbSpline
210
0.0
220
0.0
230
1.0
 70
     8
 71
     3
 72
    14
 73
    10
 74
     0
 42
0.0000000001
 43
0.0000000001
 40
0.9229664054401968
 40
0.9229664054401968
 40
0.9229664054401968
 40
0.9229664054401968
 40
1.0
 40
1.0
 40
1.0
 40
2.0
 40
2.0
 40
2.0
 40
2.939685942522725
 40
2.939685942522725
 40
2.939685942522725
 40
2.939685942522725
 10
9579.360698175504
 20
-5040.551354777484
 30
-0.0000000000000061
 10
9579.321285828408
 20
-5040.582104329821
 30
-0.0000000000000061
 10
9579.281264980416
 20
-5040.61223083034
 30
-0.0000000000000061
 10
9579.240634719978
 20
-5040.641724251907
 30
-0.0000000000000061
 10
9576.061065457819
 20
-5042.952869297274
 30
-0.0000000000000061
 10
9570.353992878144
 20
-5040.52207912445
 30
-0.0000000000000061
 10
9566.496434560399
 20
-5035.212826593566
 30
-0.0000000000000061
 10
9562.87154123675
 20
-5030.223796624991
 30
-0.0000000000000061
 10
9562.168249908964
 20
-5024.467939674831
 30
-0.0000000000000061
 10
9564.736093970848
 20
-5021.873266521398
 30
-0.0000000000000061
  0
ELLIPSE
  5
12D0E5
330
18
100
AcDbEntity
  8
姿図
100
AcDbEllipse
 10
9571.854542184993
 20
-5031.385179557687
 30
-0.0000000000000061
 11
6.984284315275475
 21
-9.61348599113292
 31
0.0
210
0.0
220
0.0
230
1.0
 40
0.5991474518236252
 41
0.0
 42
6.283185307179585
  0
LINE
  5
12D0E6
330
18
100
AcDbEntity
  8
姿図
100
AcDbLine
 10
9572.207087395971
 20
-5021.01063764535
 30
-0.0000000000000122
 11
9574.129914643053
 21
-5019.248046002193
 31
-0.0000000000000122
  0
LINE
  5
12D0E7
330
18
100
AcDbEntity
  8
姿図
100
AcDbLine
 10
9578.916397450393
 20
-4990.294827659202
 30
-0.0000000000000061
 11
9578.977847276441
 21
-4992.638596318563
 31
-0.0000000000000061
  0
LINE
  5
12D0E8
330
18
100
AcDbEntity
  8
姿図
100
AcDbLine
 10
9584.159874960063
 20
-4989.276929364202
 30
-0.0000000000000061
 11
9584.222047725246
 21
-4992.021929240699
 31
-0.0000000000000061
  0
SPLINE
  5
12D0E9
330
18
100
AcDbEntity
  8
姿図
100
AcDbSpline
210
0.0
220
0.0
230
1.0
 70
     8
 71
     3
 72
    11
 73
     7
 74
     0
 42
0.0000000001
 43
0.0000000001
 40
1.0
 40
1.0
 40
1.0
 40
1.0
 40
2.0
 40
2.0
 40
2.0
 40
3.0
 40
3.0
 40
3.0
 40
3.0
 10
9576.294297225992
 20
-4991.004030945702
 30
-0.0000000000000061
 10
9576.294297225992
 20
-4991.004030945702
 30
-0.0000000000000061
 10
9576.510456025852
 20
-4990.449536633015
 30
-0.0000000000000061
 10
9577.435818112215
 20
-4990.387363867837
 30
-0.0000000000000061
 10
9578.361180198575
 20
-4990.325191102659
 30
-0.0000000000000061
 10
9578.916397450393
 20
-4990.294827659202
 30
-0.0000000000000061
 10
9578.916397450393
 20
-4990.294827659202
 30
-0.0000000000000061
  0
SPLINE
  5
12D0EA
330
18
100
AcDbEntity
  8
姿図
100
AcDbSpline
210
0.0
220
0.0
230
1.0
 70
     8
 71
     3
 72
     8
 73
     4
 74
     0
 42
0.0000000001
 43
0.0000000001
 40
3.0
 40
3.0
 40
3.0
 40
3.0
 40
4.0
 40
4.0
 40
4.0
 40
4.0
 10
9578.916397450393
 20
-4990.294827659202
 30
-0.0000000000000061
 10
9578.916397450393
 20
-4990.294827659202
 30
-0.0000000000000061
 10
9579.808504336776
 20
-4987.831774043391
 30
-0.0000000000000061
 10
9584.222047725246
 20
-4989.30729280766
 30
-0.0000000000000061
  0
SPLINE
  5
12D0EB
330
18
100
AcDbEntity
  8
姿図
100
AcDbSpline
210
0.0
220
0.0
230
1.0
 70
    24
 71
     3
 72
     8
 73
     4
 74
     0
 42
0.0000000001
 43
0.0000000001
 40
4.0
 40
4.0
 40
4.0
 40
4.0
 40
5.0
 40
5.0
 40
5.0
 40
5.0
 10
9584.222047725246
 20
-4989.30729280766
 30
-0.0000000000000061
 10
9584.222047725246
 20
-4989.30729280766
 30
-0.0000000000000061
 10
9588.386177113871
 20
-4988.999320738294
 30
-0.0000000000000061
 10
9588.386177113871
 20
-4988.999320738294
 30
-0.0000000000000061
  0
SPLINE
  5
12D0EC
330
18
100
AcDbEntity
  8
姿図
100
AcDbSpline
210
0.0
220
0.0
230
1.0
 70
     8
 71
     3
 72
     8
 73
     4
 74
     0
 42
0.0000000001
 43
0.0000000001
 40
5.0
 40
5.0
 40
5.0
 40
5.0
 40
6.0
 40
6.0
 40
6.0
 40
6.0
 10
9588.386177113871
 20
-4988.999320738294
 30
-0.0000000000000061
 10
9588.386177113871
 20
-4988.999320738294
 30
-0.0000000000000061
 10
9589.834947130333
 20
-4988.690625729797
 30
-0.0000000000000061
 10
9590.082192312783
 20
-4990.633886111157
 30
-0.0000000000000061
  0
SPLINE
  5
12D0ED
330
18
100
AcDbEntity
  8
姿図
100
AcDbSpline
210
0.0
220
0.0
230
1.0
 70
    24
 71
     3
 72
     8
 73
     4
 74
     0
 42
0.0000000001
 43
0.0000000001
 40
1.0
 40
1.0
 40
1.0
 40
1.0
 40
2.0
 40
2.0
 40
2.0
 40
2.0
 10
9579.081451061345
 20
-4993.269646739054
 30
-0.0000000000000061
 10
9579.081451061345
 20
-4993.269646739054
 30
-0.0000000000000061
 10
9579.774066310379
 20
-4993.221706079404
 30
-0.0000000000000061
 10
9579.774066310379
 20
-4993.221706079404
 30
-0.0000000000000061
  0
SPLINE
  5
12D0EE
330
18
100
AcDbEntity
  8
姿図
100
AcDbSpline
210
0.0
220
0.0
230
1.0
 70
     8
 71
     3
 72
     8
 73
     4
 74
     0
 42
0.0000000001
 43
0.0000000001
 40
2.0
 40
2.0
 40
2.0
 40
2.0
 40
3.0
 40
3.0
 40
3.0
 40
3.0
 10
9579.774066310379
 20
-4993.221706079404
 30
-0.0000000000000061
 10
9579.774066310379
 20
-4993.221706079404
 30
-0.0000000000000061
 10
9583.688783842749
 20
-4993.938699874449
 30
-0.0000000000000061
 10
9584.400010812769
 20
-4992.933226155535
 30
-0.0000000000000061
  0
SPLINE
  5
12D0EF
330
18
100
AcDbEntity
  8
姿図
100
AcDbSpline
210
0.0
220
0.0
230
1.0
 70
    24
 71
     3
 72
     8
 73
     4
 74
     0
 42
0.0000000001
 43
0.0000000001
 40
3.0
 40
3.0
 40
3.0
 40
3.0
 40
4.0
 40
4.0
 40
4.0
 40
4.0
 10
9584.400010812769
 20
-4992.933226155535
 30
-0.0000000000000061
 10
9584.400010812769
 20
-4992.933226155535
 30
-0.0000000000000061
 10
9586.790169628915
 20
-4992.756092868862
 30
-0.0000000000000061
 10
9586.790169628915
 20
-4992.756092868862
 30
-0.0000000000000061
  0
SPLINE
  5
12D0F0
330
18
100
AcDbEntity
  8
姿図
100
AcDbSpline
210
0.0
220
0.0
230
1.0
 70
    24
 71
     3
 72
     8
 73
     4
 74
     0
 42
0.0000000001
 43
0.0000000001
 40
2.0
 40
2.0
 40
2.0
 40
2.0
 40
3.0
 40
3.0
 40
3.0
 40
3.0
 10
9586.627989149784
 20
-4991.775406997379
 30
-0.0000000000000061
 10
9586.627989149784
 20
-4991.775406997379
 30
-0.0000000000000061
 10
9584.159874960063
 20
-4992.021929240699
 30
-0.0000000000000061
 10
9584.159874960063
 20
-4992.021929240699
 30
-0.0000000000000061
  0
SPLINE
  5
12D0F1
330
18
100
AcDbEntity
  8
姿図
100
AcDbSpline
210
0.0
220
0.0
230
1.0
 70
     8
 71
     3
 72
     8
 73
     4
 74
     0
 42
0.0000000001
 43
0.0000000001
 40
3.0
 40
3.0
 40
3.0
 40
3.0
 40
4.0
 40
4.0
 40
4.0
 40
4.0
 10
9584.159874960063
 20
-4992.021929240699
 30
-0.0000000000000061
 10
9584.159874960063
 20
-4992.021929240699
 30
-0.0000000000000061
 10
9580.250943084319
 20
-4990.898481832726
 30
-0.0000000000000061
 10
9579.379078493575
 20
-4992.268451484018
 30
-0.0000000000000061
  0
SPLINE
  5
12D0F2
330
18
100
AcDbEntity
  8
姿図
100
AcDbSpline
210
0.0
220
0.0
230
1.0
 70
    24
 71
     3
 72
     8
 73
     4
 74
     0
 42
0.0000000001
 43
0.0000000001
 40
4.0
 40
4.0
 40
4.0
 40
4.0
 40
5.0
 40
5.0
 40
5.0
 40
5.0
 10
9579.379078493575
 20
-4992.268451484018
 30
-0.0000000000000061
 10
9579.162919693713
 20
-4992.608232875103
 30
-0.0000000000000061
 10
9579.162919693713
 20
-4992.608232875103
 30
-0.0000000000000061
 10
9579.162919693713
 20
-4992.608232875103
 30
-0.0000000000000061
  0
SPLINE
  5
12D0F3
330
18
100
AcDbEntity
  8
姿図
100
AcDbSpline
210
0.0
220
0.0
230
1.0
 70
    24
 71
     3
 72
     8
 73
     4
 74
     0
 42
0.0000000001
 43
0.0000000001
 40
5.0
 40
5.0
 40
5.0
 40
5.0
 40
6.0
 40
6.0
 40
6.0
 40
6.0
 10
9579.162919693713
 20
-4992.608232875103
 30
-0.0000000000000061
 10
9579.162919693713
 20
-4992.608232875103
 30
-0.0000000000000061
 10
9577.004223451623
 20
-4992.793305292376
 30
-0.0000000000000061
 10
9577.004223451623
 20
-4992.793305292376
 30
-0.0000000000000061
  0
LINE
  5
12D0F4
330
18
100
AcDbEntity
  8
姿図
100
AcDbLine
 10
9577.531567867177
 20
-4992.930643719438
 30
-0.0000000000000035
 11
9579.410915466658
 21
-4992.750239650529
 31
-0.000000000000004
  0
LINE
  5
12D0F5
330
18
100
AcDbEntity
  8
姿図
100
AcDbLine
 10
9583.946607911645
 20
-4992.31484527611
 30
-0.0000000000000053
 11
9586.673903279395
 21
-4992.0530442226
 31
-0.0000000000000061
  0
LINE
  5
12D0F6
330
18
100
AcDbEntity
  8
姿図
100
AcDbLine
 10
9578.969612331992
 20
-4993.193754393004
 30
-0.0000000000000035
 11
9579.966942153127
 21
-4993.118781938524
 31
-0.0000000000000038
  0
LINE
  5
12D0F7
330
18
100
AcDbEntity
  8
姿図
100
AcDbLine
 10
9584.222537622117
 20
-4992.798875292976
 30
-0.0000000000000052
 11
9586.765629717396
 21
-4992.607702972335
 31
-0.0000000000000061
  0
SPLINE
  5
12D0F8
330
18
100
AcDbEntity
  8
姿図
100
AcDbSpline
210
-0.0000000000000004
220
0.0000000000000061
230
1.0
 70
     8
 71
     3
 72
     9
 73
     5
 74
     3
 42
0.0000000001
 43
0.0000000001
 44
0.0000000001
 40
0.0
 40
0.0
 40
0.0
 40
0.0
 40
0.3120094600967688
 40
4.677314048172881
 40
4.677314048172881
 40
4.677314048172881
 40
4.677314048172881
 10
9579.410915466658
 20
-4992.750239650529
 30
-0.000000000000004
 10
9579.467367562296
 20
-4992.661160678264
 30
-0.0000000000000045
 10
9580.313637351324
 20
-4991.325783448869
 30
-0.0000000000000123
 10
9582.192799231519
 20
-4991.837377818283
 30
-0.0000000000000087
 10
9583.946607911645
 20
-4992.31484527611
 30
-0.0000000000000053
 11
9579.410915466658
 21
-4992.750239650529
 31
-0.000000000000004
 11
9579.584867937656
 21
-4992.491221425256
 31
-0.0000000000000055
 11
9583.946607911645
 21
-4992.31484527611
 31
-0.0000000000000053
  0
SPLINE
  5
12D0F9
330
18
100
AcDbEntity
  8
姿図
100
AcDbSpline
210
-0.0000000000000003
220
0.0000000000000047
230
1.0
 70
     8
 71
     3
 72
    10
 73
     6
 74
     4
 42
0.0000000001
 43
0.0000000001
 44
0.0000000001
 40
0.0
 40
0.0
 40
0.0
 40
0.0
 40
2.342755453418988
 40
4.062641454964476
 40
4.366769678698839
 40
4.366769678698839
 40
4.366769678698839
 40
4.366769678698839
 10
9579.966942153127
 20
-4993.118781938524
 30
-0.0000000000000038
 10
9580.733526825786
 20
-4993.24853443262
 30
-0.0000000000000036
 10
9582.06288395751
 20
-4993.473542066524
 30
-0.0000000000000033
 10
9583.589050775051
 20
-4993.250795782442
 30
-0.0000000000000022
 10
9584.139784425621
 20
-4992.857910244119
 30
-0.0000000000000048
 10
9584.222537622117
 20
-4992.798875292976
 30
-0.0000000000000052
 11
9579.966942153127
 21
-4993.118781938524
 31
-0.0000000000000038
 11
9582.296796612917
 21
-4993.364304464424
 31
-0.000000000000003
 11
9583.970741172231
 21
-4992.969440600987
 31
-0.0000000000000041
 11
9584.222537622117
 21
-4992.798875292976
 31
-0.0000000000000052
  0
ARC
  5
12D0FA
330
18
100
AcDbEntity
  8
姿図
100
AcDbCircle
 10
9577.580788754676
 20
-4993.233903046293
 30
-0.0000000000000035
 40
0.3072277902337326
100
AcDbArc
 50
91.74730622664805
 51
180.3462281534986
  0
ARC
  5
12D0FB
330
18
100
AcDbEntity
  8
姿図
100
AcDbCircle
 10
9578.990463442643
 20
-4993.370834032283
 30
-0.0000000000000035
 40
0.1783030214629486
100
AcDbArc
 50
91.882391472439
 51
176.8294030759228
  0
LINE
  5
12D0FC
330
18
100
AcDbEntity
  8
姿図
100
AcDbLine
 10
9584.91095428632
 20
-4989.256342426582
 30
-0.0000000000000077
 11
9584.821691631303
 21
-4988.490954466932
 31
-0.0000000000000034
  0
ELLIPSE
  5
12D0FD
330
18
100
AcDbEntity
  8
姿図
100
AcDbEllipse
 10
9581.805815888149
 20
-4988.978215733057
 30
-0.0000000000000034
 11
-3.602345901327196
 21
0.0000000000000277
 31
0.0000000000000004
210
0.0000000000000001
220
0.0
230
1.0
 40
0.258819045102515
 41
5.734445639859377
 42
6.80355156574371
  0
LINE
  5
12D0FE
330
18
100
AcDbEntity
  8
姿図
100
AcDbLine
 10
9578.680286811517
 20
-4990.035856177918
 30
-0.0000000000000034
 11
9578.680286811517
 21
-4988.494650019365
 31
-0.0000000000000034
  0
ELLIPSE
  5
12D0FF
330
18
100
AcDbEntity
  8
姿図
100
AcDbEllipse
 10
9581.805815888149
 20
-4988.978215733057
 30
-0.0000000000000034
 11
3.602345901327196
 21
0.0000000000000277
 31
0.0000000000000004
210
0.0000000000000001
220
0.0
230
-1.0
 40
0.258819045102515
 41
5.734445639860231
 42
6.555988579509472
  0
SPLINE
  5
12D100
330
18
100
AcDbEntity
  8
姿図
100
AcDbSpline
210
0.000000000000473
220
0.0000000000002594
230
1.0
 70
     8
 71
     3
 72
    26
 73
    22
 74
     0
 42
0.0000000001
 43
0.0000000001
 40
0.0
 40
0.0
 40
0.0
 40
0.0
 40
0.1264422350829495
 40
0.1264422350829495
 40
0.1588844121662647
 40
0.1588844121662647
 40
0.1751106177118944
 40
0.1751106177118944
 40
0.1858741810274541
 40
0.1858741810274541
 40
0.1957084812443391
 40
0.1957084812443391
 40
0.2081347559133095
 40
0.2081347559133095
 40
0.2307818527987925
 40
0.2307818527987925
 40
0.2883799021281352
 40
0.2883799021281352
 40
0.5072725936264543
 40
0.5072725936264543
 40
1.002470307424774
 40
1.002470307424774
 40
1.002470307424774
 40
1.002470307424774
 10
9600.550698825308
 20
-4986.236160086889
 30
0.0000000000000061
 10
9600.553427602068
 20
-4986.236407718795
 30
-0.000000000000002
 10
9600.556679554378
 20
-4986.236092886679
 30
0.0000000000000061
 10
9600.559299447121
 20
-4986.23291158696
 30
0.0000000000000141
 10
9600.559873786316
 20
-4986.231974724948
 30
0.0000000000000061
 10
9600.560495273818
 20
-4986.229930006086
 30
0.0000000000000061
 10
9600.560680624754
 20
-4986.229082838966
 30
0.0000000000000061
 10
9600.560859514677
 20
-4986.227338635175
 30
0.0000000000000061
 10
9600.560895471112
 20
-4986.226566174128
 30
0.0000000000000141
 10
9600.560874069696
 20
-4986.224922680182
 30
0.0000000000000222
 10
9600.560825183713
 20
-4986.22411832921
 30
0.0000000000000061
 10
9600.560641955304
 20
-4986.222272638565
 30
0.0000000000000222
 10
9600.560492436597
 20
-4986.221264795461
 30
0.0000000000000141
 10
9600.560014305692
 20
-4986.218597330552
 30
0.0000000000000141
 10
9600.559614764728
 20
-4986.216946699281
 30
0.0000000000000141
 10
9600.558237281054
 20
-4986.211885732093
 30
0.0000000000000141
 10
9600.556938906498
 20
-4986.208295551072
 30
0.0000000000000222
 10
9600.551000569964
 20
-4986.193455088142
 30
0.0000000000000141
 10
9600.544050849229
 20
-4986.181139559736
 30
-0.000000000000002
 10
9600.52698571985
 20
-4986.153006340703
 30
0.0000000000000061
 10
9600.510555535988
 20
-4986.130053025706
 30
-0.000000000000002
 10
9600.488754285199
 20
-4986.104067582664
 30
0.0000000000000141
  0
SPLINE
  5
12D101
330
18
100
AcDbEntity
  8
姿図
100
AcDbSpline
210
-0.0000000000002816
220
0.0000000000000967
230
1.0
 70
     8
 71
     3
 72
    16
 73
    12
 74
     0
 42
0.0000000001
 43
0.0000000001
 40
15.85860550385592
 40
15.85860550385592
 40
15.85860550385592
 40
15.85860550385592
 40
16.11243786898941
 40
16.11243786898941
 40
16.67677331177295
 40
16.67677331177295
 40
17.2411087545565
 40
17.2411087545565
 40
17.80544419734004
 40
17.80544419734004
 40
18.35651257010812
 40
18.35651257010812
 40
18.35651257010812
 40
18.35651257010812
 10
9597.917093140814
 20
-4982.191312298024
 30
0.0000000000000141
 10
9597.927449430327
 20
-4982.180093743801
 30
0.0000000000000141
 10
9597.937334311632
 20
-4982.168091943909
 30
0.0000000000000141
 10
9597.96750474941
 20
-4982.127250899761
 30
-0.000000000000002
 10
9597.987120677528
 20
-4982.093874070169
 30
0.0000000000000061
 10
9598.021964930767
 20
-4982.017938728731
 30
0.0000000000000061
 10
9598.037197351596
 20
-4981.975382813917
 30
0.0000000000000141
 10
9598.062101199014
 20
-4981.883679589717
 30
0.0000000000000141
 10
9598.071794531994
 20
-4981.834457231805
 30
-0.000000000000002
 10
9598.085095553409
 20
-4981.734035824528
 30
-0.000000000000002
 10
9598.088840880661
 20
-4981.682909402061
 30
0.0000000000000141
 10
9598.089978794542
 20
-4981.632287912733
 30
0.0000000000000061
  0
SPLINE
  5
12D102
330
18
100
AcDbEntity
  8
姿図
100
AcDbSpline
210
-0.0000000000002813
220
-0.0000000000002218
230
1.0
 70
     8
 71
     3
 72
    30
 73
    26
 74
     0
 42
0.0000000001
 43
0.0000000001
 40
5.468358937646049
 40
5.468358937646049
 40
5.468358937646049
 40
5.468358937646049
 40
5.554474529312383
 40
5.554474529312383
 40
5.597484804418003
 40
5.597484804418003
 40
5.640495079523625
 40
5.640495079523625
 40
5.653252350784877
 40
5.653252350784877
 40
5.659630986415502
 40
5.659630986415502
 40
5.666009622046128
 40
5.666009622046128
 40
5.672394292855955
 40
5.672394292855955
 40
5.678778963665781
 40
5.678778963665781
 40
5.691548305285434
 40
5.691548305285434
 40
5.734612320533792
 40
5.734612320533792
 40
5.77767633578215
 40
5.77767633578215
 40
5.877831414689103
 40
5.877831414689103
 40
5.877831414689103
 40
5.877831414689103
 10
9600.468723556423
 20
-4985.078894942889
 30
0.0000000000000141
 10
9600.470749861806
 20
-4985.079299201101
 30
0.0000000000000061
 10
9600.472730429373
 20
-4985.079487432229
 30
-0.000000000000002
 10
9600.475596849022
 20
-4985.079034264624
 30
0.0000000000000141
 10
9600.476631757368
 20
-4985.078743643946
 30
0.0000000000000061
 10
9600.478603155714
 20
-4985.077523388135
 30
0.0000000000000061
 10
9600.479549212714
 20
-4985.076676760716
 30
0.0000000000000222
 10
9600.480482268917
 20
-4985.074376443312
 30
0.0000000000000141
 10
9600.480695735104
 20
-4985.073698065622
 30
-0.000000000000002
 10
9600.48091860844
 20
-4985.072413842747
 30
0.0000000000000141
 10
9600.48097760662
 20
-4985.071943138168
 30
0.0000000000000141
 10
9600.481049871444
 20
-4985.070918786028
 30
-0.000000000000002
 10
9600.481063420458
 20
-4985.070365767609
 30
0.0000000000000141
 10
9600.481038885641
 20
-4985.069199193513
 30
0.0000000000000061
 10
9600.481000933344
 20
-4985.068593832206
 30
0.0000000000000141
 10
9600.480881473609
 20
-4985.067375298993
 30
-0.000000000000002
 10
9600.480799704271
 20
-4985.066762201043
 30
-0.000000000000002
 10
9600.480512099665
 20
-4985.064961680379
 30
0.0000000000000061
 10
9600.480260481297
 20
-4985.063812966085
 30
0.0000000000000303
 10
9600.479188923607
 20
-4985.059484413886
 30
-0.000000000000002
 10
9600.478165578609
 20
-4985.056644813987
 30
0.0000000000000222
 10
9600.476056359209
 20
-4985.051302450294
 30
0.0000000000000222
 10
9600.474964037644
 20
-4985.048866091014
 30
-0.000000000000002
 10
9600.471629250378
 20
-4985.041806342092
 30
0.0000000000000141
 10
9600.469228863973
 20
-4985.037372304794
 30
0.0000000000000141
 10
9600.466778292492
 20
-4985.033103579232
 30
0.0000000000000222
  0
SPLINE
  5
12D103
330
18
100
AcDbEntity
  8
姿図
100
AcDbSpline
 70
     4
 71
     2
 72
     6
 73
     3
 74
     0
 42
0.0000000001
 43
0.0000000001
 40
22.18928893771569
 40
22.18928893771569
 40
22.18928893771569
 40
29.25375354177516
 40
29.25375354177516
 40
29.25375354177516
 10
9599.67042088494
 20
-4985.929812898537
 30
0.0000000000000222
 41
0.9999999984713706
 10
9599.692581037711
 20
-4984.960084539102
 30
0.0000000000000141
 41
0.9999999989658332
 10
9599.714770664482
 20
-4983.989083159525
 30
0.0000000000000061
 41
0.9999999999300859
  0
SPLINE
  5
12D104
330
18
100
AcDbEntity
  8
姿図
100
AcDbSpline
210
0.0000000000000195
220
0.0000000000002169
230
1.0
 70
     8
 71
     3
 72
    26
 73
    22
 74
     0
 42
0.0000000001
 43
0.0000000001
 40
5.508613077618152
 40
5.508613077618152
 40
5.508613077618152
 40
5.508613077618152
 40
6.179005067686558
 40
6.179005067686558
 40
6.340002190112532
 40
6.340002190112532
 40
6.392156946112852
 40
6.392156946112852
 40
6.417035445654846
 40
6.417035445654846
 40
6.433276212519533
 40
6.433276212519533
 40
6.447901642471057
 40
6.447901642471057
 40
6.46599523881348
 40
6.46599523881348
 40
6.498353151737191
 40
6.498353151737191
 40
6.578911697646714
 40
6.578911697646714
 40
6.714781857145347
 40
6.714781857145347
 40
6.714781857145347
 40
6.714781857145347
 10
9599.367275140501
 20
-4985.30127201866
 30
0.0000000000000141
 10
9599.316511174114
 20
-4985.279374895018
 30
0.0000000000000061
 10
9599.281082875879
 20
-4985.269884770237
 30
0.0000000000000141
 10
9599.25647867336
 20
-4985.270124257269
 30
0.0000000000000061
 10
9599.250934232285
 20
-4985.270745352726
 30
-0.000000000000002
 10
9599.245856440996
 20
-4985.273899215989
 30
-0.000000000000002
 10
9599.244629704207
 20
-4985.274956442221
 30
0.0000000000000141
 10
9599.243327365991
 20
-4985.277138385763
 30
0.0000000000000141
 10
9599.24294150114
 20
-4985.278012374473
 30
0.0000000000000141
 10
9599.242546092725
 20
-4985.279790277228
 30
0.0000000000000303
 10
9599.242454222006
 20
-4985.280569803035
 30
0.0000000000000141
 10
9599.242448397788
 20
-4985.282215608711
 30
0.0000000000000141
 10
9599.242517836691
 20
-4985.283013907929
 30
0.0000000000000061
 10
9599.242810579431
 20
-4985.284825472366
 30
0.0000000000000061
 10
9599.24305963136
 20
-4985.285802302739
 30
0.0000000000000061
 10
9599.243864509906
 20
-4985.288358471133
 30
0.0000000000000061
 10
9599.244543894716
 20
-4985.289920351787
 30
0.0000000000000141
 10
9599.246876256483
 20
-4985.294644539853
 30
0.0000000000000141
 10
9599.249071381242
 20
-4985.297941493396
 30
-0.000000000000002
 10
9599.254727075013
 20
-4985.305579539675
 30
0.0000000000000222
 10
9599.258852637197
 20
-4985.310197975733
 30
0.0000000000000141
 10
9599.262510769408
 20
-4985.314028220451
 30
0.0000000000000222
  0
SPLINE
  5
12D105
330
18
100
AcDbEntity
  8
姿図
100
AcDbSpline
210
-0.0000000000393653
220
-0.0000000000157246
230
1.0
 70
     8
 71
     3
 72
    10
 73
     6
 74
     0
 42
0.0000000001
 43
0.0000000001
 40
0.505347474080478
 40
0.505347474080478
 40
0.505347474080478
 40
0.505347474080478
 40
0.5908081871204214
 40
0.5908081871204214
 40
0.6018930666040992
 40
0.6018930666040992
 40
0.6018930666040992
 40
0.6018930666040992
 10
9599.537759403299
 20
-4985.779919771323
 30
0.0000000000000061
 10
9599.536106948001
 20
-4985.772477830741
 30
-0.000000000000002
 10
9599.533420396571
 20
-4985.764275821336
 30
-0.000000000000002
 10
9599.528967501433
 20
-4985.755712040475
 30
0.0000000000000141
 10
9599.528435907528
 20
-4985.754738811547
 30
0.0000000000000141
 10
9599.527884350548
 20
-4985.753778373792
 30
0.0000000000000061
  0
SPLINE
  5
12D106
330
18
100
AcDbEntity
  8
姿図
100
AcDbSpline
210
-0.0000000000001503
220
-0.0000000000000756
230
1.0
 70
     8
 71
     3
 72
    26
 73
    22
 74
     0
 42
0.0000000001
 43
0.0000000001
 40
0.0
 40
0.0
 40
0.0
 40
0.0
 40
0.128245973690629
 40
0.128245973690629
 40
0.1709107023387558
 40
0.1709107023387558
 40
0.1890943956851749
 40
0.1890943956851749
 40
0.2007783270636655
 40
0.2007783270636655
 40
0.2111470640880597
 40
0.2111470640880597
 40
0.2237033505467542
 40
0.2237033505467542
 40
0.2457537947997618
 40
0.2457537947997618
 40
0.2995509632558
 40
0.2995509632558
 40
0.4920237835540287
 40
0.4920237835540287
 40
0.7934266447193981
 40
0.7934266447193981
 40
0.7934266447193981
 40
0.7934266447193981
 10
9600.511088794895
 20
-4985.658513653961
 30
0.0000000000000141
 10
9600.513943192382
 20
-4985.658926956265
 30
0.0000000000000141
 10
9600.517263124812
 20
-4985.658848166501
 30
0.0000000000000141
 10
9600.520292339588
 20
-4985.656146579111
 30
0.0000000000000141
 10
9600.521048135403
 20
-4985.655155293479
 30
0.0000000000000141
 10
9600.521790201776
 20
-4985.653006277576
 30
0.0000000000000061
 10
9600.521994137793
 20
-4985.652197759594
 30
-0.000000000000002
 10
9600.522197895047
 20
-4985.65053353381
 30
0.0000000000000141
 10
9600.52224409973
 20
-4985.649802818231
 30
0.0000000000000141
 10
9600.522241400302
 20
-4985.648252865185
 30
0.0000000000000141
 10
9600.522202702975
 20
-4985.647500566526
 30
0.0000000000000222
 10
9600.522045055944
 20
-4985.645798632468
 30
0.0000000000000222
 10
9600.521914829492
 20
-4985.644883527816
 30
-0.000000000000002
 10
9600.521499117402
 20
-4985.642499733771
 30
0.0000000000000222
 10
9600.52115425571
 20
-4985.641042601911
 30
-0.000000000000002
 10
9600.519983594772
 20
-4985.636665424351
 30
0.0000000000000061
 10
9600.518897602567
 20
-4985.633601334228
 30
0.0000000000000061
 10
9600.514089413668
 20
-4985.621375274886
 30
0.0000000000000141
 10
9600.508628006284
 20
-4985.611401162131
 30
0.0000000000000222
 10
9600.497441147711
 20
-4985.592467979995
 30
0.0000000000000061
 10
9600.488658192084
 20
-4985.579338815121
 30
0.0000000000000141
 10
9600.477686564609
 20
-4985.564698870052
 30
0.0000000000000141
  0
SPLINE
  5
12D107
330
18
100
AcDbEntity
  8
姿図
100
AcDbSpline
210
-0.0000000000001029
220
-0.0000000000001932
230
1.0
 70
     8
 71
     3
 72
    30
 73
    26
 74
     0
 42
0.0000000001
 43
0.0000000001
 40
16.78601875418834
 40
16.78601875418834
 40
16.78601875418834
 40
16.78601875418834
 40
16.8861738330952
 40
16.8861738330952
 40
16.92923784834355
 40
16.92923784834355
 40
16.97230186359191
 40
16.97230186359191
 40
16.98507120521156
 40
16.98507120521156
 40
16.99145587602139
 40
16.99145587602139
 40
16.99784054683122
 40
16.99784054683122
 40
17.00421918246185
 40
17.00421918246185
 40
17.01059781809247
 40
17.01059781809247
 40
17.02335508935372
 40
17.02335508935372
 40
17.06636536445934
 40
17.06636536445934
 40
17.10937563956496
 40
17.10937563956496
 40
17.1954912312313
 40
17.1954912312313
 40
17.1954912312313
 40
17.1954912312313
 10
9599.345299147872
 20
-4984.230308015298
 30
0.0000000000000141
 10
9599.341270919508
 20
-4984.22993898027
 30
-0.000000000000002
 10
9599.337319425368
 20
-4984.229826110432
 30
0.0000000000000061
 10
9599.33185545876
 20
-4984.230587391288
 30
0.0000000000000303
 10
9599.330069104864
 20
-4984.230963089968
 30
0.0000000000000141
 10
9599.326648322675
 20
-4984.232346877377
 30
0.0000000000000141
 10
9599.32499869375
 20
-4984.233273065315
 30
0.0000000000000141
 10
9599.323345933603
 20
-4984.235651451714
 30
-0.000000000000002
 10
9599.322965149466
 20
-4984.236347469297
 30
0.0000000000000141
 10
9599.322557520249
 20
-4984.237650316295
 30
-0.000000000000002
 10
9599.322447359638
 20
-4984.238126023809
 30
0.0000000000000061
 10
9599.322304796038
 20
-4984.239156991185
 30
0.0000000000000303
 10
9599.322271924135
 20
-4984.239711653957
 30
0.0000000000000141
 10
9599.322294822371
 20
-4984.240877056533
 30
0.0000000000000061
 10
9599.322350359257
 20
-4984.241479529146
 30
0.0000000000000061
 10
9599.322536905649
 20
-4984.24268914777
 30
0.0000000000000061
 10
9599.322668380386
 20
-4984.243296199795
 30
-0.000000000000002
 10
9599.323136816929
 20
-4984.245075287425
 30
-0.0000000000000101
 10
9599.32355395078
 20
-4984.246205071559
 30
-0.000000000000002
 10
9599.325338444179
 20
-4984.250450709812
 30
-0.000000000000002
 10
9599.327060847171
 20
-4984.25320751796
 30
-0.000000000000002
 10
9599.330610791637
 20
-4984.258380151785
 30
0.0000000000000141
 10
9599.33245056111
 20
-4984.26072857141
 30
0.0000000000000061
 10
9599.337516277159
 20
-4984.266859850264
 30
0.0000000000000061
 10
9599.34097466013
 20
-4984.270565017763
 30
0.0000000000000061
 10
9599.344486038292
 20
-4984.274124834862
 30
0.0000000000000061
  0
SPLINE
  5
12D108
330
18
100
AcDbEntity
  8
姿図
100
AcDbSpline
210
-0.0000000000118812
220
0.0000000000021336
230
1.0
 70
     8
 71
     3
 72
    12
 73
     8
 74
     0
 42
0.0000000001
 43
0.0000000001
 40
2.214246753416004
 40
2.214246753416004
 40
2.214246753416004
 40
2.214246753416004
 40
2.27333766920167
 40
2.27333766920167
 40
2.651501823638108
 40
2.651501823638108
 40
2.971189770913845
 40
2.971189770913845
 40
2.971189770913845
 40
2.971189770913845
 10
9599.714770664482
 20
-4983.989083159525
 30
0.0000000000000061
 10
9599.713315500657
 20
-4983.993769871624
 30
0.0000000000000061
 10
9599.711904363195
 20
-4983.998512277757
 30
-0.0000000000000101
 10
9599.701814778068
 20
-4984.033853017087
 30
-0.000000000000002
 10
9599.6939489835
 20
-4984.07010473297
 30
0.0000000000000141
 10
9599.683734698926
 20
-4984.139153834585
 30
0.0000000000000141
 10
9599.680697851274
 20
-4984.171635332567
 30
0.0000000000000061
 10
9599.679436491417
 20
-4984.201776359391
 30
0.0000000000000222
  0
SPLINE
  5
12D109
330
18
100
AcDbEntity
  8
姿図
100
AcDbSpline
210
-0.0000000000000143
220
-0.0000000000000082
230
1.0
 70
     8
 71
     3
 72
    12
 73
     8
 74
     0
 42
0.0000000001
 43
0.0000000001
 40
2.214246753415931
 40
2.214246753415931
 40
2.214246753415931
 40
2.214246753415931
 40
2.273337669201669
 40
2.273337669201669
 40
2.651501823638109
 40
2.651501823638109
 40
2.971189770913845
 40
2.971189770913845
 40
2.971189770913845
 40
2.971189770913845
 10
9579.680284601311
 20
-4978.082282693653
 30
0.0000000000000141
 10
9579.684499673113
 20
-4978.085732172847
 30
-0.000000000000002
 10
9579.688570143641
 20
-4978.089282432588
 30
0.0000000000000061
 10
9579.717554957104
 20
-4978.116152672783
 30
0.0000000000000061
 10
9579.739430094956
 20
-4978.146124171884
 30
0.0000000000000061
 10
9579.766363083541
 20
-4978.207678483524
 30
0.0000000000000061
 10
9579.773578482054
 20
-4978.2382867884
 30
0.0000000000000061
 10
9579.775519390041
 20
-4978.268123182133
 30
0.0000000000000061
  0
SPLINE
  5
12D10A
330
18
100
AcDbEntity
  8
姿図
100
AcDbSpline
210
-0.0000000000001331
220
-0.0000000000001663
230
1.0
 70
     8
 71
     3
 72
    14
 73
    10
 74
     0
 42
0.0000000001
 43
0.0000000001
 40
0.0518711334186413
 40
0.0518711334186413
 40
0.0518711334186413
 40
0.0518711334186413
 40
0.3761852694724612
 40
0.3761852694724612
 40
0.7523705389449225
 40
0.7523705389449225
 40
1.132719326167469
 40
1.132719326167469
 40
1.510190416961686
 40
1.510190416961686
 40
1.510190416961686
 40
1.510190416961686
 10
9579.661043517988
 20
-4978.18617718902
 30
0.0000000000000141
 10
9579.659547432298
 20
-4978.156285214172
 30
0.0000000000000141
 10
9579.652643600441
 20
-4978.125534096642
 30
-0.000000000000002
 10
9579.626212867429
 20
-4978.064468656724
 30
0.0000000000000141
 10
9579.604741923914
 20
-4978.035021924853
 30
0.0000000000000061
 10
9579.555010540529
 20
-4977.989169039097
 30
0.0000000000000141
 10
9579.523341727663
 20
-4977.969819921264
 30
0.0000000000000061
 10
9579.454291357187
 20
-4977.945860138579
 30
0.0000000000000222
 10
9579.416956851675
 20
-4977.941132907067
 30
0.0000000000000222
 10
9579.381933527873
 20
-4977.943067809194
 30
0.0000000000000141
  0
SPLINE
  5
12D10B
330
18
100
AcDbEntity
  8
姿図
100
AcDbSpline
210
0.0000000000001193
220
-0.0000000000001088
230
1.0
 70
     8
 71
     3
 72
    14
 73
    10
 74
     0
 42
0.0000000001
 43
0.0000000001
 40
0.0516007629148517
 40
0.0516007629148517
 40
0.0516007629148517
 40
0.0516007629148517
 40
0.3775999287975693
 40
0.3775999287975693
 40
0.7551998575951387
 40
0.7551998575951387
 40
1.136339040160537
 40
1.136339040160537
 40
1.513620557812545
 40
1.513620557812545
 40
1.513620557812545
 40
1.513620557812545
 10
9574.294043011455
 20
-4983.09773683918
 30
0.0000000000000061
 10
9574.292277552705
 20
-4983.128089356954
 30
0.0000000000000141
 10
9574.28563533978
 20
-4983.16028535994
 30
0.0000000000000141
 10
9574.26104685148
 20
-4983.226446739649
 30
0.0000000000000141
 10
9574.241387701054
 20
-4983.259895212014
 30
0.0000000000000222
 10
9574.196282548381
 20
-4983.314888988122
 30
0.0000000000000141
 10
9574.167777675127
 20
-4983.340003584086
 30
0.0000000000000141
 10
9574.106117286408
 20
-4983.376596414984
 30
0.0000000000000061
 10
9574.07301610892
 20
-4983.388223423233
 30
0.0000000000000061
 10
9574.04210559182
 20
-4983.392901460703
 30
0.0000000000000061
  0
SPLINE
  5
12D10C
330
18
100
AcDbEntity
  8
姿図
100
AcDbSpline
210
-0.000000000000042
220
-0.0000000000000526
230
-1.0
 70
     8
 71
     3
 72
    14
 73
    10
 74
     0
 42
0.0000000001
 43
0.0000000001
 40
1.526591127950938
 40
1.526591127950938
 40
1.526591127950938
 40
1.526591127950938
 40
1.903872645602956
 40
1.903872645602956
 40
2.285011828168356
 40
2.285011828168356
 40
2.662611756965921
 40
2.662611756965921
 40
2.988610922850348
 40
2.988610922850348
 40
2.988610922850348
 40
2.988610922850348
 10
9580.163268923035
 20
-4982.820088723094
 30
0.0000000000000061
 10
9580.127946678366
 20
-4982.8216086855
 30
0.0000000000000141
 10
9580.090316003509
 20
-4982.81660069782
 30
0.0000000000000061
 10
9580.020617097977
 20
-4982.792300346773
 30
0.0000000000000061
 10
9579.988610601345
 20
-4982.772848348193
 30
0.0000000000000061
 10
9579.93827940462
 20
-4982.726785416374
 30
0.0000000000000061
 10
9579.916537293701
 20
-4982.697211235311
 30
0.0000000000000061
 10
9579.889751955727
 20
-4982.635857370198
 30
0.0000000000000061
 10
9579.882754093365
 20
-4982.604937792699
 30
0.0000000000000061
 10
9579.881242850737
 20
-4982.574891905571
 30
0.0000000000000061
  0
SPLINE
  5
12D10D
330
18
100
AcDbEntity
  8
姿図
100
AcDbSpline
210
0.0000000000012597
220
-0.0000000000001006
230
1.0
 70
     8
 71
     3
 72
    16
 73
    12
 74
     0
 42
0.0000000001
 43
0.0000000001
 40
7.430778314876192
 40
7.430778314876192
 40
7.430778314876192
 40
7.430778314876192
 40
7.48439642458809
 40
7.48439642458809
 40
8.051682043090178
 40
8.051682043090178
 40
8.618967661592268
 40
8.618967661592268
 40
9.186253280094355
 40
9.186253280094355
 40
9.198233509684795
 40
9.198233509684795
 40
9.198233509684795
 40
9.198233509684795
 10
9565.401545432216
 20
-4985.123910789022
 30
0.0000000000000061
 10
9565.402085593897
 20
-4985.120533226787
 30
0.0000000000000061
 10
9565.402622126509
 20
-4985.117113309697
 30
-0.000000000000002
 10
9565.408788143363
 20
-4985.077008959027
 30
0.0000000000000061
 10
9565.41396416685
 20
-4985.035525148646
 30
0.0000000000000141
 10
9565.42284970755
 20
-4984.945428544552
 30
0.0000000000000061
 10
9565.426564851298
 20
-4984.896740255223
 30
0.0000000000000141
 10
9565.432245658593
 20
-4984.795696003267
 30
-0.000000000000002
 10
9565.434210154592
 20
-4984.743337996961
 30
0.0000000000000061
 10
9565.435346142043
 20
-4984.690272650694
 30
0.0000000000000141
 10
9565.435369296521
 20
-4984.689173794475
 30
0.0000000000000061
 10
9565.435392109364
 20
-4984.688073583291
 30
0.0000000000000061
  0
SPLINE
  5
12D10E
330
18
100
AcDbEntity
  8
姿図
100
AcDbSpline
210
0.000000000042772
220
-0.0000000000090255
230
1.0
 70
     8
 71
     1
 72
     9
 73
     7
 74
     0
 42
0.0000000001
 43
0.0000000001
 40
8.843010394358767
 40
8.843010394358767
 40
8.844295783825991
 40
8.845581173293211
 40
8.846866562760435
 40
8.848151952227658
 40
8.84943734169488
 40
8.850046236987632
 40
8.850046236987632
 10
9567.525139158659
 20
-4983.688345220589
 30
0.0000000000000141
 10
9567.462089562909
 20
-4983.971704032313
 30
0.0000000000000141
 10
9567.400257168694
 20
-4984.255957531299
 30
0.0000000000000061
 10
9567.339654063086
 20
-4984.541089827767
 30
0.0000000000000141
 10
9567.280292154235
 20
-4984.827084763558
 30
0.0000000000000061
 10
9567.222183165526
 20
-4985.113925915266
 30
0.0000000000000141
 10
9567.195255630217
 20
-4985.250196927896
 30
0.0000000000000061
  0
SPLINE
  5
12D10F
330
18
100
AcDbEntity
  8
姿図
100
AcDbSpline
 70
     4
 71
     2
 72
     6
 73
     3
 74
     0
 42
0.0000000001
 43
0.0000000001
 40
3.438957747159618
 40
3.438957747159618
 40
3.438957747159618
 40
27.9798144579688
 40
27.9798144579688
 40
27.9798144579688
 10
9598.603024678643
 20
-4988.32519081241
 30
0.0000000000000061
 41
1.000002949620377
 10
9598.532728321639
 20
-4984.947083485607
 30
0.0000000000000222
 41
1.000012270378905
 10
9598.463001764015
 20
-4981.597380772256
 30
0.0000000000000222
 41
1.000004411873194
  0
ELLIPSE
  5
12D110
330
18
100
AcDbEntity
  8
姿図
100
AcDbEllipse
 10
9599.162517918564
 20
-4976.328386301013
 30
0.0
 11
0.0512185402514136
 21
-0.5092439049548339
 31
0.0000000000000001
210
0.0
220
0.0000000000000002
230
0.9999999999999996
 40
0.3266547503873757
 41
1.290961286430821
 42
2.861757613225796
  0
LINE
  5
12D111
330
18
100
AcDbEntity
  8
姿図
100
AcDbLine
 10
9600.581200647035
 20
-4976.8710448253
 30
0.0
 11
9599.897029943484
 21
-4976.93506887963
 31
0.0
  0
ELLIPSE
  5
12D112
330
18
100
AcDbEntity
  8
姿図
100
AcDbEllipse
 10
9599.394394760929
 20
-4978.754571039079
 30
0.0
 11
0.0331006796266313
 21
0.0462405667664172
 31
0.0
210
0.0
220
0.0
230
0.9999999999999998
 40
0.9083744652357184
 41
0.6674062465666986
 42
2.67181090378285
  0
ELLIPSE
  5
12D113
330
18
100
AcDbEntity
  8
姿図
100
AcDbEllipse
 10
9599.394394760929
 20
-4978.205278906684
 30
0.0
 11
0.0331006796266407
 21
0.0462405667664304
 31
0.0
210
0.0
220
0.0
230
1.0
 40
0.9083744652357184
 41
0.66740624656714
 42
2.671810903783259
  0
LINE
  5
12D114
330
18
100
AcDbEntity
  8
姿図
100
AcDbLine
 10
9599.523142328086
 20
-4978.060294008072
 30
0.0
 11
9599.345865224995
 21
-4977.683606518105
 31
0.0
  0
LINE
  5
12D115
330
18
100
AcDbEntity
  8
姿図
100
AcDbLine
 10
9599.523142328086
 20
-4977.511001875677
 30
0.0
 11
9599.345865224995
 21
-4977.13431438571
 31
0.0
  0
LINE
  5
12D116
330
18
100
AcDbEntity
  8
姿図
100
AcDbLine
 10
9599.523142328086
 20
-4976.961709743278
 30
0.0
 11
9599.337296816349
 21
-4976.566815658716
 31
0.0
  0
ELLIPSE
  5
12D117
330
18
100
AcDbEntity
  8
姿図
100
AcDbEllipse
 10
9599.394394760929
 20
-4977.655986774285
 30
0.0
 11
0.0331006796266407
 21
0.0462405667664304
 31
0.0
210
0.0
220
0.0
230
1.0
 40
0.9083744652357184
 41
0.6674062465669842
 42
2.671810903783383
  0
ELLIPSE
  5
12D118
330
18
100
AcDbEntity
  8
姿図
100
AcDbEllipse
 10
9599.394394760929
 20
-4977.106694641889
 30
0.0
 11
0.0331006796266407
 21
0.0462405667664304
 31
0.0
210
0.0
220
0.0
230
1.0
 40
0.9083744652357184
 41
0.6674062465673602
 42
2.671810903782923
  0
LINE
  5
12D119
330
18
100
AcDbEntity
  8
姿図
100
AcDbLine
 10
9599.523142328086
 20
-4978.609586140467
 30
0.0
 11
9599.345865224995
 21
-4978.232898650504
 31
0.0
  0
LINE
  5
12D11A
330
18
100
AcDbEntity
  8
姿図
100
AcDbLine
 10
9599.337296816349
 20
-4976.566815658716
 30
0.0
 11
9599.33654054447
 21
-4976.452958026463
 31
0.0
  0
LINE
  5
12D11B
330
18
100
AcDbEntity
  8
姿図
100
AcDbLine
 10
9599.394394760929
 20
-4978.69964182584
 30
0.0
 11
9599.474612792155
 21
-4978.692135097531
 31
0.0
  0
ELLIPSE
  5
12D11C
330
18
100
AcDbEntity
  8
姿図
100
AcDbEllipse
 10
9599.474612792151
 20
-4978.637205884288
 30
0.0
 11
0.0331006796266265
 21
0.0462405667664197
 31
0.0
210
0.0000000000000001
220
0.0000000000000001
230
1.0
 40
0.9083744652357179
 41
3.808998900157019
 42
5.813403557372652
  0
LINE
  5
12D11D
330
18
100
AcDbEntity
  8
姿図
100
AcDbLine
 10
9599.394394760929
 20
-4977.601057561049
 30
0.0
 11
9599.474612792155
 21
-4977.593550832736
 31
0.0
  0
LINE
  5
12D11E
330
18
100
AcDbEntity
  8
姿図
100
AcDbLine
 10
9599.394394760929
 20
-4978.150349693445
 30
0.0
 11
9599.474612792155
 21
-4978.142842965131
 31
0.0
  0
LINE
  5
12D11F
330
18
100
AcDbEntity
  8
姿図
100
AcDbLine
 10
9599.394394760929
 20
-4977.051765428649
 30
0.0
 11
9599.474612792155
 21
-4977.044258700337
 31
0.0
  0
ELLIPSE
  5
12D120
330
18
100
AcDbEntity
  8
姿図
100
AcDbEllipse
 10
9599.474612792151
 20
-4977.538621619498
 30
0.0
 11
0.0331006796266265
 21
0.0462405667664197
 31
0.0
210
0.0000000000000001
220
0.0000000000000001
230
1.0
 40
0.9083744652357179
 41
3.808998900156833
 42
5.813403557372843
  0
ELLIPSE
  5
12D121
330
18
100
AcDbEntity
  8
姿図
100
AcDbEllipse
 10
9599.474612792151
 20
-4978.087913751892
 30
0.0
 11
0.0331006796266265
 21
0.0462405667664197
 31
0.0
210
0.0000000000000001
220
0.0000000000000001
230
1.0
 40
0.9083744652357179
 41
3.808998900156709
 42
5.813403557372572
  0
ELLIPSE
  5
12D122
330
18
100
AcDbEntity
  8
姿図
100
AcDbEllipse
 10
9599.941559534205
 20
-4977.444940048546
 30
0.0
 11
0.0441432783734348
 21
-0.5099059656834993
 31
0.0
210
0.0
220
0.0
230
1.0
 40
0.3301839125655894
 41
3.14388787013195
 42
4.437113948144848
  0
ELLIPSE
  5
12D123
330
18
100
AcDbEntity
  8
姿図
100
AcDbEllipse
 10
9599.474612792151
 20
-4976.989329487102
 30
0.0
 11
0.0331006796266265
 21
0.0462405667664197
 31
0.0
210
0.0000000000000001
220
0.0000000000000001
230
1.0
 40
0.9083744652357179
 41
3.808998900157019
 42
5.813403557372702
  0
LINE
  5
12D124
330
18
100
AcDbEntity
  8
姿図
100
AcDbLine
 10
9600.467344369722
 20
-4977.937109949721
 30
0.0
 11
9600.64462147281
 21
-4978.313797439687
 31
0.0
  0
LINE
  5
12D125
330
18
100
AcDbEntity
  8
姿図
100
AcDbLine
 10
9601.244032739817
 20
-4978.193585694949
 30
0.0
 11
9601.058187228076
 21
-4977.798691610388
 31
0.0
  0
LINE
  5
12D126
330
18
100
AcDbEntity
  8
姿図
100
AcDbLine
 10
9601.115285172657
 20
-4978.283641380318
 30
0.0
 11
9601.195503203884
 21
-4978.276134652008
 31
0.0
  0
ELLIPSE
  5
12D127
330
18
100
AcDbEntity
  8
姿図
100
AcDbEllipse
 10
9601.115285172657
 20
-4978.33857059356
 30
0.0
 11
0.0331006796266407
 21
0.0462405667664304
 31
0.0
210
0.0
220
0.0
230
1.0
 40
0.9083744652357184
 41
0.66740624656764
 42
2.671810903783141
  0
LINE
  5
12D128
330
18
100
AcDbEntity
  8
姿図
100
AcDbLine
 10
9600.596091936877
 20
-4978.396346396749
 30
0.0
 11
9600.515873905651
 21
-4978.403853125055
 31
0.0
  0
ELLIPSE
  5
12D129
330
18
100
AcDbEntity
  8
姿図
100
AcDbEllipse
 10
9600.515873905651
 20
-4978.458782338299
 30
0.0
 11
0.0331006796266366
 21
0.0462405667664333
 31
0.0
210
0.0
220
0.0
230
0.9999999999999998
 40
0.908374465235718
 41
0.6674062465667575
 42
2.671810903783106
  0
ELLIPSE
  5
12D12A
330
18
100
AcDbEntity
  8
姿図
100
AcDbEllipse
 10
9600.596091936877
 20
-4978.341417183511
 30
0.0
 11
0.0331006796266311
 21
0.0462405667664164
 31
0.0
210
0.0
220
0.0
230
1.0
 40
0.908374465235718
 41
3.808998900156756
 42
5.813403557372717
  0
ELLIPSE
  5
12D12B
330
18
100
AcDbEntity
  8
姿図
100
AcDbEllipse
 10
9601.195503203879
 20
-4978.221205438773
 30
0.0
 11
0.0331006796266265
 21
0.0462405667664197
 31
0.0
210
0.0000000000000001
220
0.0000000000000001
230
1.0
 40
0.9083744652357179
 41
3.808998900156673
 42
5.813403557372901
  0
LINE
  5
12D12C
330
18
100
AcDbEntity
  8
姿図
100
AcDbLine
 10
9601.058187228076
 20
-4977.798691610388
 30
0.0
 11
9601.057430956199
 21
-4977.68483397813
 31
0.0
  0
LINE
  5
12D12D
330
18
100
AcDbEntity
  8
姿図
100
AcDbLine
 10
9600.458775961067
 20
-4977.36961122273
 30
0.0
 11
9600.64462147281
 21
-4977.764505307288
 31
0.0
  0
LINE
  5
12D12E
330
18
100
AcDbEntity
  8
姿図
100
AcDbLine
 10
9600.596091936877
 20
-4977.847054264351
 30
0.0
 11
9600.515873905651
 21
-4977.85456099266
 31
0.0
  0
LINE
  5
12D12F
330
18
100
AcDbEntity
  8
姿図
100
AcDbLine
 10
9600.458019689192
 20
-4977.255753590474
 30
0.0
 11
9600.458775961067
 21
-4977.36961122273
 31
0.0
  0
LINE
  5
12D130
330
18
100
AcDbEntity
  8
姿図
100
AcDbLine
 10
9600.880126683563
 20
-4977.066206426954
 30
0.0
 11
9600.628760668364
 21
-4976.886269490197
 31
0.0
  0
LINE
  5
12D131
330
18
100
AcDbEntity
  8
姿図
100
AcDbLine
 10
9601.058187228076
 20
-4977.798691610388
 30
0.0
 11
9600.458775961067
 21
-4977.36961122273
 31
0.0
  0
ELLIPSE
  5
12D132
330
18
100
AcDbEntity
  8
姿図
100
AcDbEllipse
 10
9600.883408330295
 20
-4977.560262252681
 30
0.0
 11
0.0512185402514136
 21
-0.5092439049548339
 31
0.0000000000000001
210
0.0
220
0.0000000000000002
230
0.9999999999999996
 40
0.3266547503873757
 41
1.290961286430829
 42
2.861757613225647
  0
ELLIPSE
  5
12D133
330
18
100
AcDbEntity
  8
姿図
100
AcDbEllipse
 10
9600.515873905651
 20
-4977.909490205902
 30
0.0
 11
0.0331006796266366
 21
0.0462405667664333
 31
0.0
210
0.0
220
0.0
230
0.9999999999999998
 40
0.908374465235718
 41
0.6674062465679878
 42
2.671810903783201
  0
ELLIPSE
  5
12D134
330
18
100
AcDbEntity
  8
姿図
100
AcDbEllipse
 10
9600.596091936877
 20
-4977.792125051112
 30
0.0
 11
0.0331006796266311
 21
0.0462405667664164
 31
0.0
210
0.0
220
0.0
230
1.0
 40
0.908374465235718
 41
3.808998900156947
 42
5.813403557372958
  0
ELLIPSE
  5
12D135
330
18
100
AcDbEntity
  8
姿図
100
AcDbEllipse
 10
9600.632042315096
 20
-4977.380325315921
 30
0.0
 11
0.0512185402514136
 21
-0.5092439049548339
 31
0.0000000000000001
210
0.0
220
0.0000000000000002
230
0.9999999999999996
 40
0.3266547503873757
 41
2.861757613225714
 42
4.432553940020625
  0
LINE
  5
12D136
330
18
100
AcDbEntity
  8
姿図
100
AcDbLine
 10
9601.244032739817
 20
-4978.742877827348
 30
0.0
 11
9601.066755636727
 21
-4978.366190337381
 31
0.0
  0
LINE
  5
12D137
330
18
100
AcDbEntity
  8
姿図
100
AcDbLine
 10
9599.159236271834
 20
-4975.834330475287
 30
0.0
 11
9598.907870256635
 21
-4975.654393538526
 31
0.0
  0
ELLIPSE
  5
12D138
330
18
100
AcDbEntity
  8
姿図
100
AcDbEllipse
 10
9598.220669122476
 20
-4976.213064096874
 30
0.0
 11
0.0441432783734348
 21
-0.5099059656834993
 31
0.0
210
0.0
220
0.0
230
1.0
 40
0.3301839125655894
 41
3.143887870131957
 42
4.437113948144826
  0
ELLIPSE
  5
12D139
330
18
100
AcDbEntity
  8
姿図
100
AcDbEllipse
 10
9598.794983493922
 20
-4978.325490651418
 30
0.0
 11
0.0331006796266269
 21
0.0462405667664204
 31
0.0
210
0.0
220
0.0
230
1.0
 40
0.9083744652357191
 41
0.6674062465669472
 42
2.671810903782859
  0
LINE
  5
12D13A
330
18
100
AcDbEntity
  8
姿図
100
AcDbLine
 10
9598.875201525149
 20
-4978.26305470987
 30
0.0
 11
9598.794983493924
 21
-4978.270561438183
 31
0.0
  0
LINE
  5
12D13B
330
18
100
AcDbEntity
  8
姿図
100
AcDbLine
 10
9598.875201525149
 20
-4976.61517831268
 30
0.0
 11
9598.794983493924
 21
-4976.622685040989
 31
0.0
  0
LINE
  5
12D13C
330
18
100
AcDbEntity
  8
姿図
100
AcDbLine
 10
9598.737129277465
 20
-4976.023877638802
 30
0.0
 11
9598.737885549345
 21
-4976.137735271058
 31
0.0
  0
LINE
  5
12D13D
330
18
100
AcDbEntity
  8
姿図
100
AcDbLine
 10
9598.875201525149
 20
-4977.713762577471
 30
0.0
 11
9598.794983493924
 21
-4977.721269305785
 31
0.0
  0
LINE
  5
12D13E
330
18
100
AcDbEntity
  8
姿図
100
AcDbLine
 10
9598.875201525149
 20
-4977.164470445075
 30
0.0
 11
9598.794983493924
 21
-4977.171977173384
 31
0.0
  0
ELLIPSE
  5
12D13F
330
18
100
AcDbEntity
  8
姿図
100
AcDbEllipse
 10
9598.794983493922
 20
-4977.776198519023
 30
0.0
 11
0.0331006796266364
 21
0.0462405667664335
 31
0.0
210
0.0
220
0.0
230
1.0
 40
0.9083744652357191
 41
0.6674062465670007
 42
2.671810903783069
  0
ELLIPSE
  5
12D140
330
18
100
AcDbEntity
  8
姿図
100
AcDbEllipse
 10
9598.794983493922
 20
-4977.226906386628
 30
0.0
 11
0.0331006796266364
 21
0.0462405667664335
 31
0.0
210
0.0
220
0.0
230
1.0
 40
0.9083744652357191
 41
0.6674062465671249
 42
2.671810903782978
  0
ELLIPSE
  5
12D141
330
18
100
AcDbEntity
  8
姿図
100
AcDbEllipse
 10
9598.794983493922
 20
-4976.677614254231
 30
0.0
 11
0.0331006796266364
 21
0.0462405667664335
 31
0.0
210
0.0
220
0.0
230
1.0
 40
0.9083744652357191
 41
0.6674062465673205
 42
2.671810903783248
  0
LINE
  5
12D142
330
18
100
AcDbEntity
  8
姿図
100
AcDbLine
 10
9598.860310235306
 20
-4975.639168873628
 30
0.0
 11
9598.176139531753
 21
-4975.703192927959
 31
0.0
  0
ELLIPSE
  5
12D143
330
18
100
AcDbEntity
  8
姿図
100
AcDbEllipse
 10
9598.911151903369
 20
-4976.148449364252
 30
0.0
 11
0.0512185402514136
 21
-0.5092439049548339
 31
0.0000000000000001
210
0.0
220
0.0000000000000002
230
0.9999999999999996
 40
0.3266547503873757
 41
2.861757613225733
 42
4.432553940020583
  0
LINE
  5
12D144
330
18
100
AcDbEntity
  8
姿図
100
AcDbLine
 10
9598.746453957991
 20
-4977.803818262843
 30
0.0
 11
9598.923731061079
 21
-4978.18050575281
 31
0.0
  0
ELLIPSE
  5
12D145
330
18
100
AcDbEntity
  8
姿図
100
AcDbEllipse
 10
9598.875201525149
 20
-4978.208125496631
 30
0.0
 11
0.0331006796266308
 21
0.0462405667664166
 31
0.0
210
0.0
220
0.0
230
1.0
 40
0.9083744652357193
 41
3.808998900156817
 42
5.813403557372728
  0
LINE
  5
12D146
330
18
100
AcDbEntity
  8
姿図
100
AcDbLine
 10
9599.337296816349
 20
-4976.566815658716
 30
0.0
 11
9598.737885549345
 21
-4976.137735271058
 31
0.0
  0
LINE
  5
12D147
330
18
100
AcDbEntity
  8
姿図
100
AcDbLine
 10
9598.737885549345
 20
-4976.137735271058
 30
0.0
 11
9598.923731061079
 21
-4976.532629355616
 31
0.0
  0
LINE
  5
12D148
330
18
100
AcDbEntity
  8
姿図
100
AcDbLine
 10
9598.746453957991
 20
-4977.254526130447
 30
0.0
 11
9598.923731061079
 21
-4977.63121362041
 31
0.0
  0
LINE
  5
12D149
330
18
100
AcDbEntity
  8
姿図
100
AcDbLine
 10
9598.746453957991
 20
-4976.70523399805
 30
0.0
 11
9598.923731061079
 21
-4977.081921488014
 31
0.0
  0
ELLIPSE
  5
12D14A
330
18
100
AcDbEntity
  8
姿図
100
AcDbEllipse
 10
9598.875201525149
 20
-4977.658833364235
 30
0.0
 11
0.0331006796266308
 21
0.0462405667664166
 31
0.0
210
0.0
220
0.0
230
1.0
 40
0.9083744652357193
 41
3.808998900156848
 42
5.813403557372544
  0
ELLIPSE
  5
12D14B
330
18
100
AcDbEntity
  8
姿図
100
AcDbEllipse
 10
9598.875201525149
 20
-4977.109541231834
 30
0.0
 11
0.0331006796266308
 21
0.0462405667664166
 31
0.0
210
0.0
220
0.0
230
1.0
 40
0.9083744652357193
 41
3.808998900156623
 42
5.813403557372816
  0
ELLIPSE
  5
12D14C
330
18
100
AcDbEntity
  8
姿図
100
AcDbEllipse
 10
9598.875201525149
 20
-4976.560249099439
 30
0.0
 11
0.0331006796266308
 21
0.0462405667664166
 31
0.0
210
0.0
220
0.0
230
1.0
 40
0.9083744652357193
 41
3.808998900157183
 42
5.813403557372865
  0
LINE
  5
12D14D
330
18
100
AcDbEntity
  8
姿図
100
AcDbLine
 10
9598.746453957991
 20
-4978.353110395239
 30
0.0
 11
9598.923731061079
 21
-4978.729797885207
 31
0.0
  0
LINE
  5
12D14E
330
18
100
AcDbEntity
  8
姿図
100
AcDbLine
 10
9599.394394760929
 20
-4979.248933958235
 30
0.0
 11
9599.474612792155
 21
-4979.241427229927
 31
0.0
  0
LINE
  5
12D14F
330
18
100
AcDbEntity
  8
姿図
100
AcDbLine
 10
9601.244032739817
 20
-4979.292169959744
 30
0.0
 11
9601.066755636727
 21
-4978.915482469777
 31
0.0
  0
LINE
  5
12D150
330
18
100
AcDbEntity
  8
姿図
100
AcDbLine
 10
9600.467344369722
 20
-4979.035694214514
 30
0.0
 11
9600.64462147281
 21
-4979.412381704481
 31
0.0
  0
LINE
  5
12D151
330
18
100
AcDbEntity
  8
姿図
100
AcDbLine
 10
9598.746453957991
 20
-4978.902402527637
 30
0.0
 11
9598.923731061079
 21
-4979.279090017601
 31
0.0
  0
LINE
  5
12D152
330
18
100
AcDbEntity
  8
姿図
100
AcDbLine
 10
9599.523142328086
 20
-4985.201091729235
 30
0.0
 11
9599.358019889804
 21
-4984.850231095064
 31
0.0
  0
LINE
  5
12D153
330
18
100
AcDbEntity
  8
姿図
100
AcDbLine
 10
9601.244032739817
 20
-4985.334383416108
 30
0.0
 11
9601.066755636727
 21
-4984.957695926144
 31
0.0
  0
LINE
  5
12D154
330
18
100
AcDbEntity
  8
姿図
100
AcDbLine
 10
9600.467713776247
 20
-4985.078692604838
 30
0.0
 11
9600.64462147281
 21
-4985.454595160844
 31
0.0
  0
ELLIPSE
  5
12D155
330
18
100
AcDbEntity
  8
姿図
100
AcDbEllipse
 10
9584.715285604584
 20
-4774.29149979973
 30
0.0
 11
-3.894316824764186
 21
-394.6539087303105
 31
-0.0000000000000219
210
0.0
220
-0.0000000000000001
230
1.0
 40
0.0509529088182855
 41
1.005428428192962
 42
1.010474847289325
  0
LINE
  5
12D156
330
18
100
AcDbEntity
  8
姿図
100
AcDbLine
 10
9600.601231006052
 20
-4986.596120640091
 30
0.0
 11
9599.576431097945
 21
-4985.86253159022
 31
0.0
  0
ELLIPSE
  5
12D157
330
18
100
AcDbEntity
  8
姿図
100
AcDbEllipse
 10
9583.840672309333
 20
-4951.63737598605
 30
0.0
 11
-16.90397109709704
 21
34.56738476522219
 31
-0.0000000000000011
210
0.0
220
0.0
230
1.0
 40
0.0898112888334005
 41
2.866072935780158
 42
2.880426324101852
  0
ELLIPSE
  5
12D158
330
18
100
AcDbEntity
  8
姿図
100
AcDbEllipse
 10
9598.875201525149
 20
-4985.348923217792
 30
0.0
 11
0.0331006796266308
 21
0.0462405667664166
 31
0.0
210
0.0
220
0.0
230
1.0
 40
0.9083744652357193
 41
5.379795226951903
 42
5.813403557372927
  0
ELLIPSE
  5
12D159
330
18
100
AcDbEntity
  8
姿図
100
AcDbEllipse
 10
9599.474612792151
 20
-4985.228711473054
 30
0.0
 11
0.0331006796266243
 21
0.0462405667664167
 31
0.0
210
0.0
220
0.0
230
1.0
 40
0.9083744652357186
 41
3.808998900156732
 42
5.813403557372703
  0
LINE
  5
12D15A
330
18
100
AcDbEntity
  8
姿図
100
AcDbLine
 10
9599.394394760929
 20
-4985.291147414603
 30
0.0
 11
9599.474612792155
 21
-4985.28364068629
 31
0.0
  0
LINE
  5
12D15B
330
18
100
AcDbEntity
  8
姿図
100
AcDbLine
 10
9599.369805072738
 20
-4985.424564994329
 30
0.0
 11
9599.367275140242
 21
-4985.301272018681
 31
0.0
  0
LINE
  5
12D15C
330
18
100
AcDbEntity
  8
姿図
100
AcDbLine
 10
9599.496404764222
 20
-4985.693570513232
 30
0.0
 11
9599.369805075026
 21
-4985.424564994065
 31
0.0
  0
ELLIPSE
  5
12D15D
330
18
100
AcDbEntity
  8
姿図
100
AcDbEllipse
 10
9599.576431097945
 20
-4985.725208557123
 30
0.0
 11
-0.0132460081649078
 21
0.1415488416028186
 31
0.0
210
0.0
220
0.0000000000000001
230
1.0
 40
0.3284334526200731
 41
1.936727186806236
 42
2.864022404808019
  0
ELLIPSE
  5
12D15E
330
18
100
AcDbEntity
  8
姿図
100
AcDbEllipse
 10
9599.394394760929
 20
-4985.346076627843
 30
0.0
 11
0.0331006796266313
 21
0.0462405667664172
 31
0.0
210
0.0
220
0.0
230
0.9999999999999998
 40
0.9083744652357184
 41
0.6674062465667716
 42
1.199235524511625
  0
ELLIPSE
  5
12D15F
330
18
100
AcDbEntity
  8
姿図
100
AcDbEllipse
 10
9599.544744382528
 20
-4985.728173770302
 30
0.0
 11
0.074828589979252
 21
-0.1353651220991864
 31
0.0
210
0.0
220
0.0
230
1.0
 40
0.1762382375576921
 41
4.358020013766092
 42
4.804663612440179
  0
LINE
  5
12D160
330
18
100
AcDbEntity
  8
姿図
100
AcDbLine
 10
9601.244032739817
 20
-4985.883675548507
 30
0.0
 11
9601.066755636727
 21
-4985.506988058543
 31
0.0
  0
LINE
  5
12D161
330
18
100
AcDbEntity
  8
姿図
100
AcDbLine
 10
9601.244032739817
 20
-4986.9822598133
 30
0.0
 11
9601.066755636727
 21
-4986.605572323335
 31
0.0
  0
LINE
  5
12D162
330
18
100
AcDbEntity
  8
姿図
100
AcDbLine
 10
9601.244032739817
 20
-4986.432967680905
 30
0.0
 11
9601.066755636727
 21
-4986.05628019094
 31
0.0
  0
ELLIPSE
  5
12D163
330
18
100
AcDbEntity
  8
姿図
100
AcDbEllipse
 10
9601.115285172657
 20
-4986.028660447118
 30
0.0
 11
0.0331006796266313
 21
0.0462405667664172
 31
0.0
210
0.0
220
0.0
230
0.9999999999999998
 40
0.9083744652357184
 41
0.6674062465671117
 42
2.671810903782998
  0
ELLIPSE
  5
12D164
330
18
100
AcDbEntity
  8
姿図
100
AcDbEllipse
 10
9601.115285172657
 20
-4986.577952579514
 30
0.0
 11
0.0331006796266313
 21
0.0462405667664172
 31
0.0
210
0.0
220
0.0
230
0.9999999999999998
 40
0.9083744652357184
 41
0.6674062465671139
 42
2.671810903782835
  0
ELLIPSE
  5
12D165
330
18
100
AcDbEntity
  8
姿図
100
AcDbEllipse
 10
9601.115285172657
 20
-4985.47936831472
 30
0.0
 11
0.0331006796266313
 21
0.0462405667664172
 31
0.0
210
0.0
220
0.0
230
0.9999999999999998
 40
0.9083744652357184
 41
0.6674062465672714
 42
2.671810903782923
  0
LINE
  5
12D166
330
18
100
AcDbEntity
  8
姿図
100
AcDbLine
 10
9600.479499034527
 20
-4985.653026659079
 30
0.0
 11
9600.64462147281
 21
-4986.003887293241
 31
0.0
  0
LINE
  5
12D167
330
18
100
AcDbEntity
  8
姿図
100
AcDbLine
 10
9600.488754284965
 20
-4986.104067582694
 30
0.0
 11
9600.491284217461
 21
-4986.22736055834
 31
0.0
  0
LINE
  5
12D168
330
18
100
AcDbEntity
  8
姿図
100
AcDbLine
 10
9600.596091936877
 20
-4986.086436250304
 30
0.0
 11
9600.515873905651
 21
-4986.093942978614
 31
0.0
  0
LINE
  5
12D169
330
18
100
AcDbEntity
  8
姿図
100
AcDbLine
 10
9600.47768656417
 20
-4985.564698870105
 30
0.0
 11
9600.479499032694
 21
-4985.653026659289
 31
0.0
  0
LINE
  5
12D16A
330
18
100
AcDbEntity
  8
姿図
100
AcDbLine
 10
9600.596091936877
 20
-4985.537144117909
 30
0.0
 11
9600.515873905651
 21
-4985.544650846218
 31
0.0
  0
LINE
  5
12D16B
330
18
100
AcDbEntity
  8
姿図
100
AcDbLine
 10
9600.491284219749
 20
-4986.227360558075
 30
0.0
 11
9600.617883908945
 21
-4986.496366077247
 31
0.0
  0
ELLIPSE
  5
12D16C
330
18
100
AcDbEntity
  8
姿図
100
AcDbEllipse
 10
9600.515873905651
 20
-4986.148872191858
 30
0.0
 11
0.0331006796266273
 21
0.0462405667664202
 31
0.0
210
0.0
220
0.0
230
1.0
 40
0.9083744652357179
 41
0.6674062465669202
 42
1.199235524648299
  0
ELLIPSE
  5
12D16D
330
18
100
AcDbEntity
  8
姿図
100
AcDbEllipse
 10
9600.596091936877
 20
-4986.031507037065
 30
0.0
 11
0.033100679626629
 21
0.0462405667664134
 31
0.0
210
-0.0000000000000001
220
-0.0000000000000001
230
1.0
 40
0.9083744652357175
 41
3.808998900156815
 42
5.813403557372784
  0
ELLIPSE
  5
12D16E
330
18
100
AcDbEntity
  8
姿図
100
AcDbEllipse
 10
9600.601231006052
 20
-4986.458797606992
 30
0.0
 11
-0.0132460081649078
 21
0.1415488416028186
 31
0.0
210
0.0
220
0.0000000000000001
230
1.0
 40
0.3284334526200731
 41
2.864022404808038
 42
3.791317622809779
  0
ELLIPSE
  5
12D16F
330
18
100
AcDbEntity
  8
姿図
100
AcDbEllipse
 10
9600.569544290635
 20
-4986.461762820173
 30
0.0
 11
0.074828589979252
 21
-0.1353651220991864
 31
0.0
210
0.0
220
0.0
230
1.0
 40
0.1762382375576921
 41
0.7697837615025533
 42
1.216427360176594
  0
ELLIPSE
  5
12D170
330
18
100
AcDbEntity
  8
姿図
100
AcDbEllipse
 10
9583.840672309333
 20
-4951.63737598605
 30
0.0
 11
-16.90397109709704
 21
34.56738476522219
 31
-0.0000000000000011
210
0.0
220
0.0
230
1.0
 40
0.0898112888334005
 41
3.072805797846053
 42
3.087159186167752
  0
ELLIPSE
  5
12D171
330
18
100
AcDbEntity
  8
姿図
100
AcDbEllipse
 10
9600.515873905651
 20
-4985.599580059454
 30
0.0
 11
0.0331006796266273
 21
0.0462405667664202
 31
0.0
210
0.0
220
0.0
230
1.0
 40
0.9083744652357179
 41
0.6674062465669227
 42
1.462696070731774
  0
ELLIPSE
  5
12D172
330
18
100
AcDbEntity
  8
姿図
100
AcDbEllipse
 10
9600.596091936877
 20
-4985.482214904666
 30
0.0
 11
0.033100679626629
 21
0.0462405667664134
 31
0.0
210
-0.0000000000000001
220
-0.0000000000000001
230
1.0
 40
0.9083744652357175
 41
3.808998900157096
 42
5.813403557372832
  0
ELLIPSE
  5
12D173
330
18
100
AcDbEntity
  8
姿図
100
AcDbEllipse
 10
9583.840164456352
 20
-4951.087004741559
 30
0.0
 11
-16.89223248890911
 21
34.54338016988132
 31
0.0000000000000021
210
0.0
220
0.0
230
0.9999999999999998
 40
0.0898112888334004
 41
3.072872848347417
 42
3.080408125087991
  0
LINE
  5
12D174
330
18
100
AcDbEntity
  8
姿図
100
AcDbLine
 10
9601.115285172657
 20
-4985.973731233876
 30
0.0
 11
9601.195503203884
 21
-4985.966224505567
 31
0.0
  0
LINE
  5
12D175
330
18
100
AcDbEntity
  8
姿図
100
AcDbLine
 10
9601.115285172657
 20
-4985.424439101478
 30
0.0
 11
9601.195503203884
 21
-4985.416932373171
 31
0.0
  0
LINE
  5
12D176
330
18
100
AcDbEntity
  8
姿図
100
AcDbLine
 10
9601.115285172657
 20
-4986.52302336627
 30
0.0
 11
9601.195503203884
 21
-4986.515516637962
 31
0.0
  0
ELLIPSE
  5
12D177
330
18
100
AcDbEntity
  8
姿図
100
AcDbEllipse
 10
9601.195503203879
 20
-4985.91129529233
 30
0.0
 11
0.0331006796266243
 21
0.0462405667664167
 31
0.0
210
0.0
220
0.0
230
1.0
 40
0.9083744652357186
 41
3.808998900156633
 42
5.813403557372652
  0
ELLIPSE
  5
12D178
330
18
100
AcDbEntity
  8
姿図
100
AcDbEllipse
 10
9601.195503203879
 20
-4986.460587424724
 30
0.0
 11
0.0331006796266243
 21
0.0462405667664167
 31
0.0
210
0.0
220
0.0
230
1.0
 40
0.9083744652357186
 41
3.808998900156506
 42
5.813403557372812
  0
ELLIPSE
  5
12D179
330
18
100
AcDbEntity
  8
姿図
100
AcDbEllipse
 10
9601.195503203879
 20
-4987.00987955712
 30
0.0
 11
0.0331006796266265
 21
0.0462405667664197
 31
0.0
210
0.0000000000000001
220
0.0000000000000001
230
1.0
 40
0.9083744652357179
 41
5.379795226951761
 42
5.813403557372784
  0
ELLIPSE
  5
12D17A
330
18
100
AcDbEntity
  8
姿図
100
AcDbEllipse
 10
9601.195503203879
 20
-4985.362003159935
 30
0.0
 11
0.0331006796266243
 21
0.0462405667664167
 31
0.0
210
0.0
220
0.0
230
1.0
 40
0.9083744652357186
 41
3.808998900156413
 42
5.813403557372718
  0
LINE
  5
12D17B
330
18
100
AcDbEntity
  8
姿図
100
AcDbLine
 10
9599.523142328086
 20
-4981.356046802452
 30
0.0
 11
9599.345865224995
 21
-4980.979359312488
 31
0.0
  0
LINE
  5
12D17C
330
18
100
AcDbEntity
  8
姿図
100
AcDbLine
 10
9599.523142328086
 20
-4979.708170405265
 30
0.0
 11
9599.345865224995
 21
-4979.331482915299
 31
0.0
  0
LINE
  5
12D17D
330
18
100
AcDbEntity
  8
姿図
100
AcDbLine
 10
9599.523142328086
 20
-4980.257462537661
 30
0.0
 11
9599.345865224995
 21
-4979.880775047694
 31
0.0
  0
LINE
  5
12D17E
330
18
100
AcDbEntity
  8
姿図
100
AcDbLine
 10
9599.523142328086
 20
-4980.806754670057
 30
0.0
 11
9599.345865224995
 21
-4980.43006718009
 31
0.0
  0
LINE
  5
12D17F
330
18
100
AcDbEntity
  8
姿図
100
AcDbLine
 10
9599.523142328086
 20
-4984.651799596834
 30
0.0
 11
9599.346234631523
 21
-4984.275897040826
 31
0.0
  0
LINE
  5
12D180
330
18
100
AcDbEntity
  8
姿図
100
AcDbLine
 10
9599.523142328086
 20
-4983.003923199645
 30
0.0
 11
9599.345865224995
 21
-4982.627235709679
 31
0.0
  0
LINE
  5
12D181
330
18
100
AcDbEntity
  8
姿図
100
AcDbLine
 10
9599.523142328086
 20
-4983.55321533204
 30
0.0
 11
9599.345865224995
 21
-4983.176527842078
 31
0.0
  0
LINE
  5
12D182
330
18
100
AcDbEntity
  8
姿図
100
AcDbLine
 10
9599.523142328086
 20
-4984.102507464439
 30
0.0
 11
9599.345865224995
 21
-4983.725819974473
 31
0.0
  0
LINE
  5
12D183
330
18
100
AcDbEntity
  8
姿図
100
AcDbLine
 10
9599.523142328086
 20
-4982.454631067249
 30
0.0
 11
9599.345865224995
 21
-4982.077943577284
 31
0.0
  0
LINE
  5
12D184
330
18
100
AcDbEntity
  8
姿図
100
AcDbLine
 10
9599.523142328086
 20
-4981.905338934851
 30
0.0
 11
9599.345865224995
 21
-4981.528651444888
 31
0.0
  0
ELLIPSE
  5
12D185
330
18
100
AcDbEntity
  8
姿図
100
AcDbEllipse
 10
9599.394394760929
 20
-4984.247492363052
 30
0.0
 11
0.0331006796266313
 21
0.0462405667664172
 31
0.0
210
0.0
220
0.0
230
0.9999999999999998
 40
0.9083744652357184
 41
0.6674062465669874
 42
1.830516517602441
  0
ELLIPSE
  5
12D186
330
18
100
AcDbEntity
  8
姿図
100
AcDbEllipse
 10
9599.394394760929
 20
-4984.796784495447
 30
0.0
 11
0.0331006796266313
 21
0.0462405667664172
 31
0.0
210
0.0
220
0.0
230
0.9999999999999998
 40
0.9083744652357184
 41
0.6674062465667716
 42
1.462696070646689
  0
ELLIPSE
  5
12D187
330
18
100
AcDbEntity
  8
姿図
100
AcDbEllipse
 10
9599.394394760929
 20
-4980.951739568672
 30
0.0
 11
0.0331006796266313
 21
0.0462405667664172
 31
0.0
210
0.0
220
0.0
230
0.9999999999999998
 40
0.9083744652357184
 41
0.6674062465669874
 42
2.671810903782851
  0
ELLIPSE
  5
12D188
330
18
100
AcDbEntity
  8
姿図
100
AcDbEllipse
 10
9599.394394760929
 20
-4982.599615965859
 30
0.0
 11
0.0331006796266313
 21
0.0462405667664172
 31
0.0
210
0.0
220
0.0
230
0.9999999999999998
 40
0.9083744652357184
 41
0.6674062465668904
 42
2.671810903783141
  0
ELLIPSE
  5
12D189
330
18
100
AcDbEntity
  8
姿図
100
AcDbEllipse
 10
9599.394394760929
 20
-4983.148908098254
 30
0.0
 11
0.0331006796266313
 21
0.0462405667664172
 31
0.0
210
0.0
220
0.0
230
0.9999999999999998
 40
0.9083744652357184
 41
0.6674062465668275
 42
2.671810903782998
  0
ELLIPSE
  5
12D18A
330
18
100
AcDbEntity
  8
姿図
100
AcDbEllipse
 10
9599.394394760929
 20
-4983.698200230657
 30
0.0
 11
0.0331006796266313
 21
0.0462405667664172
 31
0.0
210
0.0
220
0.0
230
0.9999999999999998
 40
0.9083744652357184
 41
0.6674062465667716
 42
2.671810903782775
  0
ELLIPSE
  5
12D18B
330
18
100
AcDbEntity
  8
姿図
100
AcDbEllipse
 10
9599.394394760929
 20
-4981.501031701067
 30
0.0
 11
0.0331006796266313
 21
0.0462405667664172
 31
0.0
210
0.0
220
0.0
230
0.9999999999999998
 40
0.9083744652357184
 41
0.6674062465671117
 42
2.671810903783074
  0
ELLIPSE
  5
12D18C
330
18
100
AcDbEntity
  8
姿図
100
AcDbEllipse
 10
9599.394394760929
 20
-4982.050323833463
 30
0.0
 11
0.0331006796266313
 21
0.0462405667664172
 31
0.0
210
0.0
220
0.0
230
0.9999999999999998
 40
0.9083744652357184
 41
0.6674062465663877
 42
2.671810903782819
  0
ELLIPSE
  5
12D18D
330
18
100
AcDbEntity
  8
姿図
100
AcDbEllipse
 10
9599.394394760929
 20
-4979.303863171479
 30
0.0
 11
0.0331006796266313
 21
0.0462405667664172
 31
0.0
210
0.0
220
0.0
230
0.9999999999999998
 40
0.9083744652357184
 41
0.6674062465670556
 42
2.671810903782918
  0
ELLIPSE
  5
12D18E
330
18
100
AcDbEntity
  8
姿図
100
AcDbEllipse
 10
9599.394394760929
 20
-4979.853155303876
 30
0.0
 11
0.0331006796266313
 21
0.0462405667664172
 31
0.0
210
0.0
220
0.0
230
0.9999999999999998
 40
0.9083744652357184
 41
0.6674062465668229
 42
2.671810903782974
  0
ELLIPSE
  5
12D18F
330
18
100
AcDbEntity
  8
姿図
100
AcDbEllipse
 10
9599.394394760929
 20
-4980.402447436273
 30
0.0
 11
0.0331006796266313
 21
0.0462405667664172
 31
0.0
210
0.0
220
0.0
230
0.9999999999999998
 40
0.9083744652357184
 41
0.6674062465671117
 42
2.671810903783023
  0
LINE
  5
12D190
330
18
100
AcDbEntity
  8
姿図
100
AcDbLine
 10
9599.346234630143
 20
-4984.275897040986
 30
0.0
 11
9599.345299147051
 21
-4984.230308015349
 31
0.0
  0
LINE
  5
12D191
330
18
100
AcDbEntity
  8
姿図
100
AcDbLine
 10
9599.35801988797
 20
-4984.850231095279
 30
0.0
 11
9599.356207419448
 21
-4984.761903306092
 31
0.0
  0
ELLIPSE
  5
12D192
330
18
100
AcDbEntity
  8
姿図
100
AcDbEllipse
 10
9583.839656603368
 20
-4950.536633497072
 30
0.0
 11
-16.88049388072118
 21
34.51937557454037
 31
-0.0000000000000021
210
0.0
220
0.0
230
1.0
 40
0.0898112888334005
 41
2.880054474313593
 42
2.880292129410968
  0
ELLIPSE
  5
12D193
330
18
100
AcDbEntity
  8
姿図
100
AcDbEllipse
 10
9583.840164456352
 20
-4951.087004741559
 30
0.0
 11
-16.89223248890911
 21
34.54338016988132
 31
0.0000000000000021
210
0.0
220
0.0
230
0.9999999999999998
 40
0.0898112888334004
 41
2.872823996859903
 42
2.880359273600473
  0
LINE
  5
12D194
330
18
100
AcDbEntity
  8
姿図
100
AcDbLine
 10
9599.394394760929
 20
-4980.896810355428
 30
0.0
 11
9599.474612792155
 21
-4980.88930362712
 31
0.0
  0
LINE
  5
12D195
330
18
100
AcDbEntity
  8
姿図
100
AcDbLine
 10
9599.394394760929
 20
-4981.446102487825
 30
0.0
 11
9599.474612792155
 21
-4981.438595759515
 31
0.0
  0
LINE
  5
12D196
330
18
100
AcDbEntity
  8
姿図
100
AcDbLine
 10
9599.394394760929
 20
-4979.798226090634
 30
0.0
 11
9599.474612792155
 21
-4979.790719362322
 31
0.0
  0
LINE
  5
12D197
330
18
100
AcDbEntity
  8
姿図
100
AcDbLine
 10
9599.394394760929
 20
-4980.347518223033
 30
0.0
 11
9599.474612792155
 21
-4980.340011494721
 31
0.0
  0
LINE
  5
12D198
330
18
100
AcDbEntity
  8
姿図
100
AcDbLine
 10
9599.394394760929
 20
-4984.192563149809
 30
0.0
 11
9599.474612792155
 21
-4984.185056421499
 31
0.0
  0
LINE
  5
12D199
330
18
100
AcDbEntity
  8
姿図
100
AcDbLine
 10
9599.394394760929
 20
-4984.741855282205
 30
0.0
 11
9599.474612792155
 21
-4984.734348553895
 31
0.0
  0
LINE
  5
12D19A
330
18
100
AcDbEntity
  8
姿図
100
AcDbLine
 10
9599.394394760929
 20
-4982.544686752622
 30
0.0
 11
9599.474612792155
 21
-4982.537180024308
 31
0.0
  0
LINE
  5
12D19B
330
18
100
AcDbEntity
  8
姿図
100
AcDbLine
 10
9599.394394760929
 20
-4983.093978885017
 30
0.0
 11
9599.474612792155
 21
-4983.086472156705
 31
0.0
  0
LINE
  5
12D19C
330
18
100
AcDbEntity
  8
姿図
100
AcDbLine
 10
9599.394394760929
 20
-4983.643271017413
 30
0.0
 11
9599.474612792155
 21
-4983.635764289104
 31
0.0
  0
LINE
  5
12D19D
330
18
100
AcDbEntity
  8
姿図
100
AcDbLine
 10
9599.449900290883
 20
-4983.088784729453
 30
0.0
 11
9599.458180821434
 21
-4983.394222955406
 31
0.0
  0
LINE
  5
12D19E
330
18
100
AcDbEntity
  8
姿図
100
AcDbLine
 10
9599.394394760929
 20
-4981.995394620224
 30
0.0
 11
9599.474612792155
 21
-4981.987887891911
 31
0.0
  0
ELLIPSE
  5
12D19F
330
18
100
AcDbEntity
  8
姿図
100
AcDbEllipse
 10
9599.474612792151
 20
-4984.130127208263
 30
0.0
 11
0.0331006796266243
 21
0.0462405667664167
 31
0.0
210
0.0
220
0.0
230
1.0
 40
0.9083744652357186
 41
3.808998900156663
 42
5.813403557372634
  0
ELLIPSE
  5
12D1A0
330
18
100
AcDbEntity
  8
姿図
100
AcDbEllipse
 10
9599.474612792151
 20
-4984.679419340659
 30
0.0
 11
0.0331006796266243
 21
0.0462405667664167
 31
0.0
210
0.0
220
0.0
230
1.0
 40
0.9083744652357186
 41
3.808998900156701
 42
5.813403557372721
  0
ELLIPSE
  5
12D1A1
330
18
100
AcDbEntity
  8
姿図
100
AcDbEllipse
 10
9599.474612792151
 20
-4980.83437441388
 30
0.0
 11
0.0331006796266254
 21
0.0462405667664183
 31
0.0
210
0.0
220
0.0
230
1.0
 40
0.9083744652357184
 41
3.808998900156943
 42
5.813403557372684
  0
ELLIPSE
  5
12D1A2
330
18
100
AcDbEntity
  8
姿図
100
AcDbEllipse
 10
9599.474612792151
 20
-4982.48225081107
 30
0.0
 11
0.0331006796266254
 21
0.0462405667664183
 31
0.0
210
0.0
220
0.0
230
1.0
 40
0.9083744652357184
 41
3.808998900156664
 42
5.813403557372684
  0
ELLIPSE
  5
12D1A3
330
18
100
AcDbEntity
  8
姿図
100
AcDbEllipse
 10
9583.109347776055
 20
-4982.957014902499
 30
0.0
 11
-16.33657804185923
 21
-0.0000000000003097
 31
-0.0000000000000009
210
-0.0000000000000001
220
0.0
230
1.0
 40
0.258819045102515
 41
3.173482583937681
 42
3.237425862011138
  0
ELLIPSE
  5
12D1A4
330
18
100
AcDbEntity
  8
姿図
100
AcDbEllipse
 10
9583.109347776055
 20
-4983.423913215036
 30
0.0
 11
-16.34923549676945
 21
-0.0000000000003113
 31
-0.0000000000000009
210
-0.0000000000000001
220
0.0
230
1.0
 40
0.258819045102515
 41
3.048817195001321
 42
3.090682397459626
  0
ELLIPSE
  5
12D1A5
330
18
100
AcDbEntity
  8
姿図
100
AcDbEllipse
 10
9583.109347776055
 20
-4983.423913215036
 30
0.0
 11
-16.34923549676945
 21
-0.0000000000003113
 31
-0.0000000000000009
210
-0.0000000000000001
220
0.0
230
1.0
 40
0.258819045102515
 41
3.143468445217584
 42
3.219953961483734
  0
ELLIPSE
  5
12D1A6
330
18
100
AcDbEntity
  8
姿図
100
AcDbEllipse
 10
9599.743341130025
 20
-4984.145324112516
 30
0.0
 11
-0.0194216626500112
 21
-0.2837386263060998
 31
0.0
210
0.0
220
0.0000000000000001
230
1.0
 40
0.163803715364946
 41
3.940366134145706
 42
4.140498290499586
  0
ELLIPSE
  5
12D1A7
330
18
100
AcDbEntity
  8
姿図
100
AcDbEllipse
 10
9599.474612792151
 20
-4983.031542943471
 30
0.0
 11
0.0331006796266254
 21
0.0462405667664183
 31
0.0
210
0.0
220
0.0
230
1.0
 40
0.9083744652357184
 41
3.808998900156953
 42
5.813403557372612
  0
ELLIPSE
  5
12D1A8
330
18
100
AcDbEntity
  8
姿図
100
AcDbEllipse
 10
9599.474612792151
 20
-4983.580835075865
 30
0.0
 11
0.0331006796266254
 21
0.0462405667664183
 31
0.0
210
0.0
220
0.0
230
1.0
 40
0.9083744652357184
 41
3.808998900157146
 42
5.813403557372802
  0
ELLIPSE
  5
12D1A9
330
18
100
AcDbEntity
  8
姿図
100
AcDbEllipse
 10
9599.474612792151
 20
-4981.383666546276
 30
0.0
 11
0.0331006796266254
 21
0.0462405667664183
 31
0.0
210
0.0
220
0.0
230
1.0
 40
0.9083744652357184
 41
3.808998900156943
 42
5.813403557372684
  0
ELLIPSE
  5
12D1AA
330
18
100
AcDbEntity
  8
姿図
100
AcDbEllipse
 10
9599.474612792151
 20
-4981.932958678672
 30
0.0
 11
0.0331006796266254
 21
0.0462405667664183
 31
0.0
210
0.0
220
0.0
230
1.0
 40
0.9083744652357184
 41
3.808998900157136
 42
5.813403557372877
  0
ELLIPSE
  5
12D1AB
330
18
100
AcDbEntity
  8
姿図
100
AcDbEllipse
 10
9599.474612792151
 20
-4979.735790149086
 30
0.0
 11
0.0331006796266254
 21
0.0462405667664183
 31
0.0
210
0.0
220
0.0
230
1.0
 40
0.9083744652357184
 41
3.808998900156943
 42
5.813403557372634
  0
ELLIPSE
  5
12D1AC
330
18
100
AcDbEntity
  8
姿図
100
AcDbEllipse
 10
9599.474612792151
 20
-4980.285082281482
 30
0.0
 11
0.0331006796266254
 21
0.0462405667664183
 31
0.0
210
0.0
220
0.0
230
1.0
 40
0.9083744652357184
 41
3.808998900157068
 42
5.813403557372807
  0
LINE
  5
12D1AD
330
18
100
AcDbEntity
  8
姿図
100
AcDbLine
 10
9601.244032739817
 20
-4980.940046356934
 30
0.0
 11
9601.066755636727
 21
-4980.563358866969
 31
0.0
  0
LINE
  5
12D1AE
330
18
100
AcDbEntity
  8
姿図
100
AcDbLine
 10
9601.244032739817
 20
-4981.489338489332
 30
0.0
 11
9601.066755636727
 21
-4981.112650999365
 31
0.0
  0
LINE
  5
12D1AF
330
18
100
AcDbEntity
  8
姿図
100
AcDbLine
 10
9601.244032739817
 20
-4979.841462092139
 30
0.0
 11
9601.066755636727
 21
-4979.464774602176
 31
0.0
  0
LINE
  5
12D1B0
330
18
100
AcDbEntity
  8
姿図
100
AcDbLine
 10
9601.244032739817
 20
-4980.390754224534
 30
0.0
 11
9601.066755636727
 21
-4980.014066734572
 31
0.0
  0
LINE
  5
12D1B1
330
18
100
AcDbEntity
  8
姿図
100
AcDbLine
 10
9601.244032739817
 20
-4984.235799151316
 30
0.0
 11
9601.066755636727
 21
-4983.85911166135
 31
0.0
  0
LINE
  5
12D1B2
330
18
100
AcDbEntity
  8
姿図
100
AcDbLine
 10
9601.244032739817
 20
-4984.785091283712
 30
0.0
 11
9601.066755636727
 21
-4984.408403793746
 31
0.0
  0
LINE
  5
12D1B3
330
18
100
AcDbEntity
  8
姿図
100
AcDbLine
 10
9601.244032739817
 20
-4982.587922754123
 30
0.0
 11
9601.066755636727
 21
-4982.211235264156
 31
0.0
  0
LINE
  5
12D1B4
330
18
100
AcDbEntity
  8
姿図
100
AcDbLine
 10
9601.244032739817
 20
-4983.137214886518
 30
0.0
 11
9601.066755636727
 21
-4982.760527396556
 31
0.0
  0
LINE
  5
12D1B5
330
18
100
AcDbEntity
  8
姿図
100
AcDbLine
 10
9601.244032739817
 20
-4983.686507018918
 30
0.0
 11
9601.066755636727
 21
-4983.309819528955
 31
0.0
  0
LINE
  5
12D1B6
330
18
100
AcDbEntity
  8
姿図
100
AcDbLine
 10
9601.244032739817
 20
-4982.038630621728
 30
0.0
 11
9601.066755636727
 21
-4981.661943131761
 31
0.0
  0
ELLIPSE
  5
12D1B7
330
18
100
AcDbEntity
  8
姿図
100
AcDbEllipse
 10
9601.115285172657
 20
-4984.380784049925
 30
0.0
 11
0.0331006796266313
 21
0.0462405667664172
 31
0.0
210
0.0
220
0.0
230
0.9999999999999998
 40
0.9083744652357184
 41
0.6674062465674321
 42
2.671810903783085
  0
ELLIPSE
  5
12D1B8
330
18
100
AcDbEntity
  8
姿図
100
AcDbEllipse
 10
9601.115285172657
 20
-4984.930076182324
 30
0.0
 11
0.0331006796266313
 21
0.0462405667664172
 31
0.0
210
0.0
220
0.0
230
0.9999999999999998
 40
0.9083744652357184
 41
0.6674062465669874
 42
2.671810903782875
  0
ELLIPSE
  5
12D1B9
330
18
100
AcDbEntity
  8
姿図
100
AcDbEllipse
 10
9601.115285172657
 20
-4982.73290765274
 30
0.0
 11
0.0331006796266313
 21
0.0462405667664172
 31
0.0
210
0.0
220
0.0
230
0.9999999999999998
 40
0.9083744652357184
 41
0.6674062465671117
 42
2.671810903782998
  0
ELLIPSE
  5
12D1BA
330
18
100
AcDbEntity
  8
姿図
100
AcDbEllipse
 10
9601.115285172657
 20
-4983.282199785134
 30
0.0
 11
0.0331006796266313
 21
0.0462405667664172
 31
0.0
210
0.0
220
0.0
230
0.9999999999999998
 40
0.9083744652357184
 41
0.6674062465669561
 42
2.671810903782844
  0
ELLIPSE
  5
12D1BB
330
18
100
AcDbEntity
  8
姿図
100
AcDbEllipse
 10
9601.115285172657
 20
-4983.831491917531
 30
0.0
 11
0.0331006796266313
 21
0.0462405667664172
 31
0.0
210
0.0
220
0.0
230
0.9999999999999998
 40
0.9083744652357184
 41
0.6674062465670799
 42
2.671810903782968
  0
ELLIPSE
  5
12D1BC
330
18
100
AcDbEntity
  8
姿図
100
AcDbEllipse
 10
9601.115285172657
 20
-4981.085031255545
 30
0.0
 11
0.0331006796266313
 21
0.0462405667664172
 31
0.0
210
0.0
220
0.0
230
0.9999999999999998
 40
0.9083744652357184
 41
0.6674062465670799
 42
2.671810903783017
  0
ELLIPSE
  5
12D1BD
330
18
100
AcDbEntity
  8
姿図
100
AcDbEllipse
 10
9601.115285172657
 20
-4981.634323387941
 30
0.0
 11
0.0331006796266313
 21
0.0462405667664172
 31
0.0
210
0.0
220
0.0
230
0.9999999999999998
 40
0.9083744652357184
 41
0.667406246567148
 42
2.671810903783085
  0
ELLIPSE
  5
12D1BE
330
18
100
AcDbEntity
  8
姿図
100
AcDbEllipse
 10
9601.115285172657
 20
-4982.18361552034
 30
0.0
 11
0.0331006796266313
 21
0.0462405667664172
 31
0.0
210
0.0
220
0.0
230
0.9999999999999998
 40
0.9083744652357184
 41
0.6674062465669874
 42
2.671810903782923
  0
ELLIPSE
  5
12D1BF
330
18
100
AcDbEntity
  8
姿図
100
AcDbEllipse
 10
9601.115285172657
 20
-4979.437154858351
 30
0.0
 11
0.0331006796266407
 21
0.0462405667664304
 31
0.0
210
0.0
220
0.0
230
1.0
 40
0.9083744652357184
 41
0.6674062465670405
 42
2.671810903783109
  0
ELLIPSE
  5
12D1C0
330
18
100
AcDbEntity
  8
姿図
100
AcDbEllipse
 10
9601.115285172657
 20
-4979.986446990746
 30
0.0
 11
0.0331006796266313
 21
0.0462405667664172
 31
0.0
210
0.0
220
0.0
230
0.9999999999999998
 40
0.9083744652357184
 41
0.667406246567148
 42
2.671810903783036
  0
ELLIPSE
  5
12D1C1
330
18
100
AcDbEntity
  8
姿図
100
AcDbEllipse
 10
9601.115285172657
 20
-4980.53573912315
 30
0.0
 11
0.0331006796266313
 21
0.0462405667664172
 31
0.0
210
0.0
220
0.0
230
0.9999999999999998
 40
0.9083744652357184
 41
0.6674062465670242
 42
2.671810903782961
  0
LINE
  5
12D1C2
330
18
100
AcDbEntity
  8
姿図
100
AcDbLine
 10
9600.467344369722
 20
-4980.683570611708
 30
0.0
 11
9600.64462147281
 21
-4981.060258101667
 31
0.0
  0
LINE
  5
12D1C3
330
18
100
AcDbEntity
  8
姿図
100
AcDbLine
 10
9600.596091936877
 20
-4981.142807058731
 30
0.0
 11
9600.515873905651
 21
-4981.15031378704
 31
0.0
  0
LINE
  5
12D1C4
330
18
100
AcDbEntity
  8
姿図
100
AcDbLine
 10
9600.596091936877
 20
-4980.593514926336
 30
0.0
 11
9600.515873905651
 21
-4980.601021654645
 31
0.0
  0
LINE
  5
12D1C5
330
18
100
AcDbEntity
  8
姿図
100
AcDbLine
 10
9600.467344369722
 20
-4980.134278479308
 30
0.0
 11
9600.64462147281
 21
-4980.510965969273
 31
0.0
  0
LINE
  5
12D1C6
330
18
100
AcDbEntity
  8
姿図
100
AcDbLine
 10
9600.596091936877
 20
-4980.044222793936
 30
0.0
 11
9600.515873905651
 21
-4980.051729522249
 31
0.0
  0
LINE
  5
12D1C7
330
18
100
AcDbEntity
  8
姿図
100
AcDbLine
 10
9600.467344369722
 20
-4979.58498634691
 30
0.0
 11
9600.64462147281
 21
-4979.961673836877
 31
0.0
  0
LINE
  5
12D1C8
330
18
100
AcDbEntity
  8
姿図
100
AcDbLine
 10
9600.596091936877
 20
-4979.494930661541
 30
0.0
 11
9600.515873905651
 21
-4979.50243738985
 31
0.0
  0
LINE
  5
12D1C9
330
18
100
AcDbEntity
  8
姿図
100
AcDbLine
 10
9600.467344369722
 20
-4983.979323406089
 30
0.0
 11
9600.64462147281
 21
-4984.356010896051
 31
0.0
  0
LINE
  5
12D1CA
330
18
100
AcDbEntity
  8
姿図
100
AcDbLine
 10
9600.466778291774
 20
-4985.033103579358
 30
0.0
 11
9600.467713774865
 21
-4985.078692604997
 31
0.0
  0
LINE
  5
12D1CB
330
18
100
AcDbEntity
  8
姿図
100
AcDbLine
 10
9600.596091936877
 20
-4984.987851985505
 30
0.0
 11
9600.515873905651
 21
-4984.995358713821
 31
0.0
  0
LINE
  5
12D1CC
330
18
100
AcDbEntity
  8
姿図
100
AcDbLine
 10
9600.467344369722
 20
-4984.528615538484
 30
0.0
 11
9600.64462147281
 21
-4984.905303028449
 31
0.0
  0
LINE
  5
12D1CD
330
18
100
AcDbEntity
  8
姿図
100
AcDbLine
 10
9600.596091936877
 20
-4984.438559853111
 30
0.0
 11
9600.515873905651
 21
-4984.446066581424
 31
0.0
  0
LINE
  5
12D1CE
330
18
100
AcDbEntity
  8
姿図
100
AcDbLine
 10
9600.467344369722
 20
-4982.331447008895
 30
0.0
 11
9600.64462147281
 21
-4982.708134498861
 31
0.0
  0
LINE
  5
12D1CF
330
18
100
AcDbEntity
  8
姿図
100
AcDbLine
 10
9600.596091936877
 20
-4983.889267720715
 30
0.0
 11
9600.515873905651
 21
-4983.896774449025
 31
0.0
  0
LINE
  5
12D1D0
330
18
100
AcDbEntity
  8
姿図
100
AcDbLine
 10
9600.467344369722
 20
-4983.430031273688
 30
0.0
 11
9600.64462147281
 21
-4983.806718763652
 31
0.0
  0
LINE
  5
12D1D1
330
18
100
AcDbEntity
  8
姿図
100
AcDbLine
 10
9600.596091936877
 20
-4983.33997558832
 30
0.0
 11
9600.515873905651
 21
-4983.347482316629
 31
0.0
  0
LINE
  5
12D1D2
330
18
100
AcDbEntity
  8
姿図
100
AcDbLine
 10
9600.467344369722
 20
-4982.880739141293
 30
0.0
 11
9600.64462147281
 21
-4983.257426631257
 31
0.0
  0
LINE
  5
12D1D3
330
18
100
AcDbEntity
  8
姿図
100
AcDbLine
 10
9600.596091936877
 20
-4982.790683455924
 30
0.0
 11
9600.515873905651
 21
-4982.798190184233
 31
0.0
  0
LINE
  5
12D1D4
330
18
100
AcDbEntity
  8
姿図
100
AcDbLine
 10
9600.596091936877
 20
-4982.241391323525
 30
0.0
 11
9600.515873905651
 21
-4982.248898051835
 31
0.0
  0
LINE
  5
12D1D5
330
18
100
AcDbEntity
  8
姿図
100
AcDbLine
 10
9600.467344369722
 20
-4981.782154876499
 30
0.0
 11
9600.64462147281
 21
-4982.158842366465
 31
0.0
  0
LINE
  5
12D1D6
330
18
100
AcDbEntity
  8
姿図
100
AcDbLine
 10
9600.596091936877
 20
-4981.692099191127
 30
0.0
 11
9600.515873905651
 21
-4981.699605919438
 31
0.0
  0
LINE
  5
12D1D7
330
18
100
AcDbEntity
  8
姿図
100
AcDbLine
 10
9600.467344369722
 20
-4981.232862744104
 30
0.0
 11
9600.64462147281
 21
-4981.609550234066
 31
0.0
  0
ELLIPSE
  5
12D1D8
330
18
100
AcDbEntity
  8
姿図
100
AcDbEllipse
 10
9600.515873905651
 20
-4985.050287927059
 30
0.0
 11
0.0331006796266273
 21
0.0462405667664202
 31
0.0
210
0.0
220
0.0
230
1.0
 40
0.9083744652357179
 41
0.6674062465666387
 42
1.830516517601721
  0
ELLIPSE
  5
12D1D9
330
18
100
AcDbEntity
  8
姿図
100
AcDbEllipse
 10
9600.596091936877
 20
-4984.93292277227
 30
0.0
 11
0.033100679626629
 21
0.0462405667664134
 31
0.0
210
-0.0000000000000001
220
-0.0000000000000001
230
1.0
 40
0.9083744652357175
 41
3.808998900156778
 42
5.813403557372748
  0
ELLIPSE
  5
12D1DA
330
18
100
AcDbEntity
  8
姿図
100
AcDbEllipse
 10
9600.515873905651
 20
-4984.500995794663
 30
0.0
 11
0.0331006796266273
 21
0.0462405667664202
 31
0.0
210
0.0
220
0.0
230
1.0
 40
0.9083744652357179
 41
0.6674062465669787
 42
2.671810903782914
  0
ELLIPSE
  5
12D1DB
330
18
100
AcDbEntity
  8
姿図
100
AcDbEllipse
 10
9600.596091936877
 20
-4984.383630639872
 30
0.0
 11
0.03310067962663
 21
0.0462405667664149
 31
0.0
210
0.0
220
0.0
230
0.9999999999999998
 40
0.9083744652357172
 41
3.80899890015719
 42
5.813403557373379
  0
ELLIPSE
  5
12D1DC
330
18
100
AcDbEntity
  8
姿図
100
AcDbEllipse
 10
9583.839656603368
 20
-4950.536633497072
 30
0.0
 11
-16.88049388072118
 21
34.51937557454037
 31
-0.0000000000000021
210
0.0
220
0.0
230
1.0
 40
0.0898112888334005
 41
3.072939992536941
 42
3.073177647634316
  0
ELLIPSE
  5
12D1DD
330
18
100
AcDbEntity
  8
姿図
100
AcDbEllipse
 10
9600.515873905651
 20
-4983.951703662267
 30
0.0
 11
0.0331006796266273
 21
0.0462405667664202
 31
0.0
210
0.0
220
0.0
230
1.0
 40
0.9083744652357179
 41
0.6674062465666699
 42
2.67181090378284
  0
ELLIPSE
  5
12D1DE
330
18
100
AcDbEntity
  8
姿図
100
AcDbEllipse
 10
9600.596091936877
 20
-4983.834338507476
 30
0.0
 11
0.03310067962663
 21
0.0462405667664149
 31
0.0
210
0.0
220
0.0
230
0.9999999999999998
 40
0.9083744652357172
 41
3.808998900156781
 42
5.813403557372797
  0
ELLIPSE
  5
12D1DF
330
18
100
AcDbEntity
  8
姿図
100
AcDbEllipse
 10
9600.515873905651
 20
-4983.402411529872
 30
0.0
 11
0.0331006796266273
 21
0.0462405667664202
 31
0.0
210
0.0
220
0.0
230
1.0
 40
0.9083744652357179
 41
0.6674062465669538
 42
2.67181090378289
  0
ELLIPSE
  5
12D1E0
330
18
100
AcDbEntity
  8
姿図
100
AcDbEllipse
 10
9600.596091936877
 20
-4983.28504637508
 30
0.0
 11
0.03310067962663
 21
0.0462405667664149
 31
0.0
210
0.0
220
0.0
230
0.9999999999999998
 40
0.9083744652357172
 41
3.808998900157066
 42
5.813403557373013
  0
ELLIPSE
  5
12D1E1
330
18
100
AcDbEntity
  8
姿図
100
AcDbEllipse
 10
9600.515873905651
 20
-4982.853119397473
 30
0.0
 11
0.0331006796266273
 21
0.0462405667664202
 31
0.0
210
0.0
220
0.0
230
1.0
 40
0.9083744652357179
 41
0.6674062465669787
 42
2.671810903782914
  0
ELLIPSE
  5
12D1E2
330
18
100
AcDbEntity
  8
姿図
100
AcDbEllipse
 10
9600.596091936877
 20
-4982.735754242682
 30
0.0
 11
0.03310067962663
 21
0.0462405667664149
 31
0.0
210
0.0
220
0.0
230
0.9999999999999998
 40
0.9083744652357172
 41
3.808998900156781
 42
5.813403557372797
  0
ELLIPSE
  5
12D1E3
330
18
100
AcDbEntity
  8
姿図
100
AcDbEllipse
 10
9600.515873905651
 20
-4982.303827265076
 30
0.0
 11
0.0331006796266273
 21
0.0462405667664202
 31
0.0
210
0.0
220
0.0
230
1.0
 40
0.9083744652357179
 41
0.6674062465668865
 42
2.671810903783139
  0
ELLIPSE
  5
12D1E4
330
18
100
AcDbEntity
  8
姿図
100
AcDbEllipse
 10
9600.596091936877
 20
-4982.186462110286
 30
0.0
 11
0.03310067962663
 21
0.0462405667664149
 31
0.0
210
0.0
220
0.0
230
0.9999999999999998
 40
0.9083744652357172
 41
3.808998900157258
 42
5.813403557372989
  0
ELLIPSE
  5
12D1E5
330
18
100
AcDbEntity
  8
姿図
100
AcDbEllipse
 10
9600.515873905651
 20
-4981.754535132679
 30
0.0
 11
0.0331006796266273
 21
0.0462405667664202
 31
0.0
210
0.0
220
0.0
230
1.0
 40
0.9083744652357179
 41
0.6674062465670783
 42
2.671810903783331
  0
ELLIPSE
  5
12D1E6
330
18
100
AcDbEntity
  8
姿図
100
AcDbEllipse
 10
9600.596091936877
 20
-4981.63716997789
 30
0.0
 11
0.03310067962663
 21
0.0462405667664149
 31
0.0
210
0.0
220
0.0
230
0.9999999999999998
 40
0.9083744652357172
 41
3.808998900157066
 42
5.813403557372797
  0
ELLIPSE
  5
12D1E7
330
18
100
AcDbEntity
  8
姿図
100
AcDbEllipse
 10
9600.515873905651
 20
-4981.205243000283
 30
0.0
 11
0.0331006796266273
 21
0.0462405667664202
 31
0.0
210
0.0
220
0.0
230
1.0
 40
0.9083744652357179
 41
0.6674062465670099
 42
2.671810903783261
  0
ELLIPSE
  5
12D1E8
330
18
100
AcDbEntity
  8
姿図
100
AcDbEllipse
 10
9600.596091936877
 20
-4981.087877845493
 30
0.0
 11
0.03310067962663
 21
0.0462405667664149
 31
0.0
210
0.0
220
0.0
230
0.9999999999999998
 40
0.9083744652357172
 41
3.808998900156622
 42
5.81340355737292
  0
ELLIPSE
  5
12D1E9
330
18
100
AcDbEntity
  8
姿図
100
AcDbEllipse
 10
9600.515873905651
 20
-4980.655950867884
 30
0.0
 11
0.0331006796266273
 21
0.0462405667664202
 31
0.0
210
0.0
220
0.0
230
1.0
 40
0.9083744652357179
 41
0.6674062465666947
 42
2.671810903783231
  0
ELLIPSE
  5
12D1EA
330
18
100
AcDbEntity
  8
姿図
100
AcDbEllipse
 10
9600.596091936877
 20
-4980.538585713092
 30
0.0
 11
0.03310067962663
 21
0.0462405667664149
 31
0.0
210
0.0
220
0.0
230
0.9999999999999998
 40
0.9083744652357172
 41
3.808998900156781
 42
5.813403557372797
  0
ELLIPSE
  5
12D1EB
330
18
100
AcDbEntity
  8
姿図
100
AcDbEllipse
 10
9600.515873905651
 20
-4980.106658735489
 30
0.0
 11
0.0331006796266273
 21
0.0462405667664202
 31
0.0
210
0.0
220
0.0
230
1.0
 40
0.9083744652357179
 41
0.6674062465668554
 42
2.671810903783082
  0
ELLIPSE
  5
12D1EC
330
18
100
AcDbEntity
  8
姿図
100
AcDbEllipse
 10
9600.596091936877
 20
-4979.989293580697
 30
0.0
 11
0.03310067962663
 21
0.0462405667664149
 31
0.0
210
0.0
220
0.0
230
0.9999999999999998
 40
0.9083744652357172
 41
3.808998900156776
 42
5.813403557372797
  0
ELLIPSE
  5
12D1ED
330
18
100
AcDbEntity
  8
姿図
100
AcDbEllipse
 10
9600.515873905651
 20
-4979.557366603089
 30
0.0
 11
0.0331006796266273
 21
0.0462405667664202
 31
0.0
210
0.0
220
0.0
230
1.0
 40
0.9083744652357179
 41
0.6674062465666902
 42
2.67181090378289
  0
ELLIPSE
  5
12D1EE
330
18
100
AcDbEntity
  8
姿図
100
AcDbEllipse
 10
9600.596091936877
 20
-4979.440001448302
 30
0.0
 11
0.0331006796266311
 21
0.0462405667664164
 31
0.0
210
0.0
220
0.0
230
1.0
 40
0.908374465235718
 41
3.808998900156911
 42
5.813403557372871
  0
LINE
  5
12D1EF
330
18
100
AcDbEntity
  8
姿図
100
AcDbLine
 10
9601.115285172657
 20
-4981.030102042306
 30
0.0
 11
9601.195503203884
 21
-4981.022595313993
 31
0.0
  0
LINE
  5
12D1F0
330
18
100
AcDbEntity
  8
姿図
100
AcDbLine
 10
9601.115285172657
 20
-4979.382225645116
 30
0.0
 11
9601.195503203884
 21
-4979.374718916804
 31
0.0
  0
LINE
  5
12D1F1
330
18
100
AcDbEntity
  8
姿図
100
AcDbLine
 10
9601.115285172657
 20
-4979.931517777512
 30
0.0
 11
9601.195503203884
 21
-4979.924011049202
 31
0.0
  0
LINE
  5
12D1F2
330
18
100
AcDbEntity
  8
姿図
100
AcDbLine
 10
9601.115285172657
 20
-4980.480809909908
 30
0.0
 11
9601.195503203884
 21
-4980.473303181597
 31
0.0
  0
LINE
  5
12D1F3
330
18
100
AcDbEntity
  8
姿図
100
AcDbLine
 10
9601.115285172657
 20
-4984.325854836688
 30
0.0
 11
9601.195503203884
 21
-4984.318348108376
 31
0.0
  0
LINE
  5
12D1F4
330
18
100
AcDbEntity
  8
姿図
100
AcDbLine
 10
9601.115285172657
 20
-4984.875146969085
 30
0.0
 11
9601.195503203884
 21
-4984.867640240775
 31
0.0
  0
LINE
  5
12D1F5
330
18
100
AcDbEntity
  8
姿図
100
AcDbLine
 10
9601.115285172657
 20
-4982.677978439496
 30
0.0
 11
9601.195503203884
 21
-4982.670471711186
 31
0.0
  0
LINE
  5
12D1F6
330
18
100
AcDbEntity
  8
姿図
100
AcDbLine
 10
9601.115285172657
 20
-4983.227270571891
 30
0.0
 11
9601.195503203884
 21
-4983.219763843582
 31
0.0
  0
LINE
  5
12D1F7
330
18
100
AcDbEntity
  8
姿図
100
AcDbLine
 10
9601.115285172657
 20
-4983.77656270429
 30
0.0
 11
9601.195503203884
 21
-4983.769055975979
 31
0.0
  0
LINE
  5
12D1F8
330
18
100
AcDbEntity
  8
姿図
100
AcDbLine
 10
9601.115285172657
 20
-4981.579394174702
 30
0.0
 11
9601.195503203884
 21
-4981.571887446392
 31
0.0
  0
LINE
  5
12D1F9
330
18
100
AcDbEntity
  8
姿図
100
AcDbLine
 10
9601.115285172657
 20
-4982.1286863071
 30
0.0
 11
9601.195503203884
 21
-4982.121179578792
 31
0.0
  0
ELLIPSE
  5
12D1FA
330
18
100
AcDbEntity
  8
姿図
100
AcDbEllipse
 10
9601.195503203879
 20
-4984.263418895137
 30
0.0
 11
0.0331006796266254
 21
0.0462405667664183
 31
0.0
210
0.0
220
0.0
230
1.0
 40
0.9083744652357184
 41
3.808998900157078
 42
5.813403557373098
  0
ELLIPSE
  5
12D1FB
330
18
100
AcDbEntity
  8
姿図
100
AcDbEllipse
 10
9601.195503203879
 20
-4984.812711027533
 30
0.0
 11
0.0331006796266254
 21
0.0462405667664183
 31
0.0
210
0.0
220
0.0
230
1.0
 40
0.9083744652357184
 41
3.808998900156705
 42
5.813403557372962
  0
ELLIPSE
  5
12D1FC
330
18
100
AcDbEntity
  8
姿図
100
AcDbEllipse
 10
9601.195503203879
 20
-4982.615542497943
 30
0.0
 11
0.0331006796266254
 21
0.0462405667664183
 31
0.0
210
0.0
220
0.0
230
1.0
 40
0.9083744652357184
 41
3.808998900156737
 42
5.813403557372994
  0
ELLIPSE
  5
12D1FD
330
18
100
AcDbEntity
  8
姿図
100
AcDbEllipse
 10
9601.195503203879
 20
-4983.16483463034
 30
0.0
 11
0.0331006796266254
 21
0.0462405667664183
 31
0.0
210
0.0
220
0.0
230
1.0
 40
0.9083744652357184
 41
3.808998900157021
 42
5.813403557372752
  0
ELLIPSE
  5
12D1FE
330
18
100
AcDbEntity
  8
姿図
100
AcDbEllipse
 10
9601.195503203879
 20
-4983.714126762741
 30
0.0
 11
0.0331006796266254
 21
0.0462405667664183
 31
0.0
210
0.0
220
0.0
230
1.0
 40
0.9083744652357184
 41
3.808998900156638
 42
5.813403557372579
  0
ELLIPSE
  5
12D1FF
330
18
100
AcDbEntity
  8
姿図
100
AcDbEllipse
 10
9601.195503203879
 20
-4980.967666100757
 30
0.0
 11
0.0331006796266254
 21
0.0462405667664183
 31
0.0
210
0.0
220
0.0
230
1.0
 40
0.9083744652357184
 41
3.808998900156421
 42
5.813403557372647
  0
ELLIPSE
  5
12D200
330
18
100
AcDbEntity
  8
姿図
100
AcDbEllipse
 10
9601.195503203879
 20
-4981.516958233153
 30
0.0
 11
0.0331006796266254
 21
0.0462405667664183
 31
0.0
210
0.0
220
0.0
230
1.0
 40
0.9083744652357184
 41
3.808998900156578
 42
5.813403557372802
  0
ELLIPSE
  5
12D201
330
18
100
AcDbEntity
  8
姿図
100
AcDbEllipse
 10
9601.195503203879
 20
-4982.066250365548
 30
0.0
 11
0.0331006796266254
 21
0.0462405667664183
 31
0.0
210
0.0
220
0.0
230
1.0
 40
0.9083744652357184
 41
3.808998900157021
 42
5.813403557373044
  0
ELLIPSE
  5
12D202
330
18
100
AcDbEntity
  8
姿図
100
AcDbEllipse
 10
9601.195503203879
 20
-4979.319789703563
 30
0.0
 11
0.0331006796266265
 21
0.0462405667664197
 31
0.0
210
0.0000000000000001
220
0.0000000000000001
230
1.0
 40
0.9083744652357179
 41
3.808998900156863
 42
5.813403557372727
  0
ELLIPSE
  5
12D203
330
18
100
AcDbEntity
  8
姿図
100
AcDbEllipse
 10
9601.195503203879
 20
-4979.869081835963
 30
0.0
 11
0.0331006796266265
 21
0.0462405667664197
 31
0.0
210
0.0000000000000001
220
0.0000000000000001
230
1.0
 40
0.9083744652357179
 41
3.808998900156511
 42
5.813403557373049
  0
ELLIPSE
  5
12D204
330
18
100
AcDbEntity
  8
姿図
100
AcDbEllipse
 10
9601.195503203879
 20
-4980.418373968358
 30
0.0
 11
0.0331006796266254
 21
0.0462405667664183
 31
0.0
210
0.0
220
0.0
230
1.0
 40
0.9083744652357184
 41
3.808998900156478
 42
5.813403557372703
  0
LINE
  5
12D205
330
18
100
AcDbEntity
  8
姿図
100
AcDbLine
 10
9597.680115184989
 20
-4982.103312431198
 30
0.0
 11
9597.263225398956
 21
-4982.142324587335
 31
0.0
  0
ELLIPSE
  5
12D206
330
18
100
AcDbEntity
  8
姿図
100
AcDbEllipse
 10
9582.869252506482
 20
-4977.050124241333
 30
0.0
 11
9.833408526597631
 21
27.80045877641116
 31
0.0
210
0.0
220
0.0
230
0.9999999999999998
 40
0.5306663220532383
 41
4.635006625735985
 42
4.718323401449882
  0
ELLIPSE
  5
12D207
330
18
100
AcDbEntity
  8
姿図
100
AcDbEllipse
 10
9583.36915261761
 20
-4974.709753113659
 30
0.0
 11
9.820493799237434
 21
27.76810889032503
 31
0.0000000000000033
210
0.0
220
-0.0000000000000001
230
1.0
 40
0.5306015190202693
 41
4.552834753258026
 42
4.631677754451532
  0
LINE
  5
12D208
330
18
100
AcDbEntity
  8
姿図
100
AcDbLine
 10
9598.875201525149
 20
-4981.009515371858
 30
0.0
 11
9598.794983493924
 21
-4981.017022100167
 31
0.0
  0
LINE
  5
12D209
330
18
100
AcDbEntity
  8
姿図
100
AcDbLine
 10
9598.875201525149
 20
-4980.460223239454
 30
0.0
 11
9598.794983493924
 21
-4980.467729967767
 31
0.0
  0
LINE
  5
12D20A
330
18
100
AcDbEntity
  8
姿図
100
AcDbLine
 10
9598.875201525149
 20
-4979.91093110706
 30
0.0
 11
9598.794983493924
 21
-4979.918437835369
 31
0.0
  0
LINE
  5
12D20B
330
18
100
AcDbEntity
  8
姿図
100
AcDbLine
 10
9598.875201525149
 20
-4979.361638974664
 30
0.0
 11
9598.794983493924
 21
-4979.369145702975
 31
0.0
  0
LINE
  5
12D20C
330
18
100
AcDbEntity
  8
姿図
100
AcDbLine
 10
9598.875201525149
 20
-4984.854560298633
 30
0.0
 11
9598.794983493924
 21
-4984.862067026941
 31
0.0
  0
LINE
  5
12D20D
330
18
100
AcDbEntity
  8
姿図
100
AcDbLine
 10
9598.875201525149
 20
-4984.305268166238
 30
0.0
 11
9598.794983493924
 21
-4984.312774894547
 31
0.0
  0
LINE
  5
12D20E
330
18
100
AcDbEntity
  8
姿図
100
AcDbLine
 10
9598.875201525149
 20
-4983.755976033838
 30
0.0
 11
9598.794983493924
 21
-4983.76348276215
 31
0.0
  0
LINE
  5
12D20F
330
18
100
AcDbEntity
  8
姿図
100
AcDbLine
 10
9598.875201525149
 20
-4983.206683901439
 30
0.0
 11
9598.794983493924
 21
-4983.214190629752
 31
0.0
  0
LINE
  5
12D210
330
18
100
AcDbEntity
  8
姿図
100
AcDbLine
 10
9598.875201525149
 20
-4982.657391769044
 30
0.0
 11
9598.794983493924
 21
-4982.664898497357
 31
0.0
  0
LINE
  5
12D211
330
18
100
AcDbEntity
  8
姿図
100
AcDbLine
 10
9598.875201525149
 20
-4982.108099636649
 30
0.0
 11
9598.794983493924
 21
-4982.115606364958
 31
0.0
  0
LINE
  5
12D212
330
18
100
AcDbEntity
  8
姿図
100
AcDbLine
 10
9598.875201525149
 20
-4981.558807504253
 30
0.0
 11
9598.794983493924
 21
-4981.566314232562
 31
0.0
  0
ELLIPSE
  5
12D213
330
18
100
AcDbEntity
  8
姿図
100
AcDbEllipse
 10
9598.794983493922
 20
-4984.916996240184
 30
0.0
 11
0.0331006796266269
 21
0.0462405667664204
 31
0.0
210
0.0
220
0.0
230
1.0
 40
0.9083744652357191
 41
0.6674062465669472
 42
2.671810903782884
  0
ELLIPSE
  5
12D214
330
18
100
AcDbEntity
  8
姿図
100
AcDbEllipse
 10
9598.794983493922
 20
-4984.367704107789
 30
0.0
 11
0.0331006796266269
 21
0.0462405667664204
 31
0.0
210
0.0
220
0.0
230
1.0
 40
0.9083744652357191
 41
0.6674062465665955
 42
2.671810903782767
  0
ELLIPSE
  5
12D215
330
18
100
AcDbEntity
  8
姿図
100
AcDbEllipse
 10
9598.794983493922
 20
-4983.818411975391
 30
0.0
 11
0.0331006796266269
 21
0.0462405667664204
 31
0.0
210
0.0
220
0.0
230
1.0
 40
0.9083744652357191
 41
0.6674062465671594
 42
2.671810903782743
  0
ELLIPSE
  5
12D216
330
18
100
AcDbEntity
  8
姿図
100
AcDbEllipse
 10
9598.794983493922
 20
-4983.269119842992
 30
0.0
 11
0.0331006796266269
 21
0.0462405667664204
 31
0.0
210
0.0
220
0.0
230
1.0
 40
0.9083744652357191
 41
0.6674062465669472
 42
2.67181090378281
  0
ELLIPSE
  5
12D217
330
18
100
AcDbEntity
  8
姿図
100
AcDbEllipse
 10
9598.794983493922
 20
-4982.719827710596
 30
0.0
 11
0.0331006796266269
 21
0.0462405667664204
 31
0.0
210
0.0
220
0.0
230
1.0
 40
0.9083744652357191
 41
0.6674062465673514
 42
2.671810903782982
  0
ELLIPSE
  5
12D218
330
18
100
AcDbEntity
  8
姿図
100
AcDbEllipse
 10
9598.794983493922
 20
-4982.170535578198
 30
0.0
 11
0.0331006796266269
 21
0.0462405667664204
 31
0.0
210
0.0
220
0.0
230
1.0
 40
0.9083744652357191
 41
0.6674062465669721
 42
2.671810903782982
  0
ELLIPSE
  5
12D219
330
18
100
AcDbEntity
  8
姿図
100
AcDbEllipse
 10
9598.794983493922
 20
-4981.621243445802
 30
0.0
 11
0.0331006796266269
 21
0.0462405667664204
 31
0.0
210
0.0
220
0.0
230
1.0
 40
0.9083744652357191
 41
0.667406246567283
 42
2.671810903782914
  0
ELLIPSE
  5
12D21A
330
18
100
AcDbEntity
  8
姿図
100
AcDbEllipse
 10
9598.794983493922
 20
-4981.071951313405
 30
0.0
 11
0.0331006796266269
 21
0.0462405667664204
 31
0.0
210
0.0
220
0.0
230
1.0
 40
0.9083744652357191
 41
0.6674062465668797
 42
2.671810903782743
  0
ELLIPSE
  5
12D21B
330
18
100
AcDbEntity
  8
姿図
100
AcDbEllipse
 10
9598.794983493922
 20
-4980.522659181007
 30
0.0
 11
0.0331006796266269
 21
0.0462405667664204
 31
0.0
210
0.0
220
0.0
230
1.0
 40
0.9083744652357191
 41
0.6674062465670032
 42
2.671810903782914
  0
ELLIPSE
  5
12D21C
330
18
100
AcDbEntity
  8
姿図
100
AcDbEllipse
 10
9598.794983493922
 20
-4979.973367048612
 30
0.0
 11
0.0331006796266269
 21
0.0462405667664204
 31
0.0
210
0.0
220
0.0
230
1.0
 40
0.9083744652357191
 41
0.6674062465670032
 42
2.671810903782865
  0
ELLIPSE
  5
12D21D
330
18
100
AcDbEntity
  8
姿図
100
AcDbEllipse
 10
9598.794983493922
 20
-4979.424074916216
 30
0.0
 11
0.0331006796266269
 21
0.0462405667664204
 31
0.0
210
0.0
220
0.0
230
1.0
 40
0.9083744652357191
 41
0.6674062465668797
 42
2.671810903783108
  0
ELLIPSE
  5
12D21E
330
18
100
AcDbEntity
  8
姿図
100
AcDbEllipse
 10
9583.109347776055
 20
-4984.797143546032
 30
0.0
 11
-17.90634369497014
 21
-0.0000000000005139
 31
0.000000000000001
210
0.0000000000000001
220
0.0
230
1.0
 40
0.2588190451025202
 41
3.729026483883834
 42
3.761863642495803
  0
LINE
  5
12D21F
330
18
100
AcDbEntity
  8
姿図
100
AcDbLine
 10
9598.746453957991
 20
-4984.944615984005
 30
0.0
 11
9598.923731061079
 21
-4985.321303473968
 31
0.0
  0
LINE
  5
12D220
330
18
100
AcDbEntity
  8
姿図
100
AcDbLine
 10
9598.746453957991
 20
-4980.550278924828
 30
0.0
 11
9598.923731061079
 21
-4980.926966414794
 31
0.0
  0
LINE
  5
12D221
330
18
100
AcDbEntity
  8
姿図
100
AcDbLine
 10
9598.746453957991
 20
-4981.099571057224
 30
0.0
 11
9598.923731061079
 21
-4981.476258547189
 31
0.0
  0
LINE
  5
12D222
330
18
100
AcDbEntity
  8
姿図
100
AcDbLine
 10
9598.746453957991
 20
-4980.000986792432
 30
0.0
 11
9598.923731061079
 21
-4980.377674282398
 31
0.0
  0
LINE
  5
12D223
330
18
100
AcDbEntity
  8
姿図
100
AcDbLine
 10
9598.746453957991
 20
-4979.451694660037
 30
0.0
 11
9598.923731061079
 21
-4979.82838215
 31
0.0
  0
LINE
  5
12D224
330
18
100
AcDbEntity
  8
姿図
100
AcDbLine
 10
9598.746453957991
 20
-4983.846031719211
 30
0.0
 11
9598.923731061079
 21
-4984.222719209174
 31
0.0
  0
LINE
  5
12D225
330
18
100
AcDbEntity
  8
姿図
100
AcDbLine
 10
9598.746453957991
 20
-4984.395323851607
 30
0.0
 11
9598.923731061079
 21
-4984.772011341572
 31
0.0
  0
LINE
  5
12D226
330
18
100
AcDbEntity
  8
姿図
100
AcDbLine
 10
9598.746453957991
 20
-4982.19815532202
 30
0.0
 11
9598.923731061079
 21
-4982.574842811985
 31
0.0
  0
LINE
  5
12D227
330
18
100
AcDbEntity
  8
姿図
100
AcDbLine
 10
9598.746453957991
 20
-4983.296739586813
 30
0.0
 11
9598.923731061079
 21
-4983.673427076778
 31
0.0
  0
LINE
  5
12D228
330
18
100
AcDbEntity
  8
姿図
100
AcDbLine
 10
9598.746453957991
 20
-4982.747447454417
 30
0.0
 11
9598.923731061079
 21
-4983.124134944384
 31
0.0
  0
LINE
  5
12D229
330
18
100
AcDbEntity
  8
姿図
100
AcDbLine
 10
9598.746453957991
 20
-4981.648863189622
 30
0.0
 11
9598.923731061079
 21
-4982.025550679587
 31
0.0
  0
ELLIPSE
  5
12D22A
330
18
100
AcDbEntity
  8
姿図
100
AcDbEllipse
 10
9598.875201525149
 20
-4984.799631085397
 30
0.0
 11
0.0331006796266287
 21
0.0462405667664136
 31
0.0
210
0.0
220
0.0
230
1.0
 40
0.9083744652357188
 41
3.80899890015658
 42
5.813403557372884
  0
ELLIPSE
  5
12D22B
330
18
100
AcDbEntity
  8
姿図
100
AcDbEllipse
 10
9598.875201525149
 20
-4984.250338952999
 30
0.0
 11
0.0331006796266287
 21
0.0462405667664136
 31
0.0
210
0.0
220
0.0
230
1.0
 40
0.9083744652357188
 41
3.808998900156896
 42
5.813403557372915
  0
ELLIPSE
  5
12D22C
330
18
100
AcDbEntity
  8
姿図
100
AcDbEllipse
 10
9598.875201525149
 20
-4983.701046820598
 30
0.0
 11
0.0331006796266287
 21
0.0462405667664136
 31
0.0
210
0.0
220
0.0
230
1.0
 40
0.9083744652357188
 41
3.808998900156772
 42
5.813403557372793
  0
ELLIPSE
  5
12D22D
330
18
100
AcDbEntity
  8
姿図
100
AcDbEllipse
 10
9598.875201525149
 20
-4983.151754688203
 30
0.0
 11
0.0331006796266298
 21
0.0462405667664151
 31
0.0
210
0.0
220
0.0
230
1.0
 40
0.9083744652357182
 41
3.808998900156933
 42
5.813403557373268
  0
ELLIPSE
  5
12D22E
330
18
100
AcDbEntity
  8
姿図
100
AcDbEllipse
 10
9598.875201525149
 20
-4982.602462555808
 30
0.0
 11
0.0331006796266298
 21
0.0462405667664151
 31
0.0
210
0.0
220
0.0
230
1.0
 40
0.9083744652357182
 41
3.808998900156451
 42
5.813403557372759
  0
ELLIPSE
  5
12D22F
330
18
100
AcDbEntity
  8
姿図
100
AcDbEllipse
 10
9598.875201525149
 20
-4982.053170423405
 30
0.0
 11
0.0331006796266298
 21
0.0462405667664151
 31
0.0
210
0.0
220
0.0
230
1.0
 40
0.9083744652357182
 41
3.808998900156964
 42
5.813403557372934
  0
ELLIPSE
  5
12D230
330
18
100
AcDbEntity
  8
姿図
100
AcDbEllipse
 10
9598.875201525149
 20
-4981.503878291011
 30
0.0
 11
0.0331006796266298
 21
0.0462405667664151
 31
0.0
210
0.0
220
0.0
230
1.0
 40
0.9083744652357182
 41
3.808998900157051
 42
5.813403557372793
  0
ELLIPSE
  5
12D231
330
18
100
AcDbEntity
  8
姿図
100
AcDbEllipse
 10
9598.875201525149
 20
-4980.954586158615
 30
0.0
 11
0.0331006796266298
 21
0.0462405667664151
 31
0.0
210
0.0
220
0.0
230
1.0
 40
0.9083744652357182
 41
3.808998900156896
 42
5.813403557372867
  0
ELLIPSE
  5
12D232
330
18
100
AcDbEntity
  8
姿図
100
AcDbEllipse
 10
9598.875201525149
 20
-4980.405294026219
 30
0.0
 11
0.0331006796266298
 21
0.0462405667664151
 31
0.0
210
0.0
220
0.0
230
1.0
 40
0.9083744652357182
 41
3.808998900157176
 42
5.813403557372915
  0
ELLIPSE
  5
12D233
330
18
100
AcDbEntity
  8
姿図
100
AcDbEllipse
 10
9598.875201525149
 20
-4979.856001893823
 30
0.0
 11
0.0331006796266298
 21
0.0462405667664151
 31
0.0
210
0.0
220
0.0
230
1.0
 40
0.9083744652357182
 41
3.808998900156741
 42
5.813403557372713
  0
ELLIPSE
  5
12D234
330
18
100
AcDbEntity
  8
姿図
100
AcDbEllipse
 10
9598.875201525149
 20
-4979.306709761424
 30
0.0
 11
0.0331006796266298
 21
0.0462405667664151
 31
0.0
210
0.0
220
0.0
230
1.0
 40
0.9083744652357182
 41
3.808998900156483
 42
5.813403557372793
  0
ELLIPSE
  5
12D235
330
18
100
AcDbEntity
  8
姿図
100
AcDbEllipse
 10
9599.474612792151
 20
-4979.186498016691
 30
0.0
 11
0.0331006796266254
 21
0.0462405667664183
 31
0.0
210
0.0
220
0.0
230
1.0
 40
0.9083744652357184
 41
3.808998900156912
 42
5.813403557372653
  0
ELLIPSE
  5
12D236
330
18
100
AcDbEntity
  8
姿図
100
AcDbEllipse
 10
9601.115285172657
 20
-4978.887862725955
 30
0.0
 11
0.0331006796266407
 21
0.0462405667664304
 31
0.0
210
0.0
220
0.0
230
1.0
 40
0.9083744652357184
 41
0.667406246567264
 42
2.671810903783431
  0
LINE
  5
12D237
330
18
100
AcDbEntity
  8
姿図
100
AcDbLine
 10
9600.596091936877
 20
-4978.945638529141
 30
0.0
 11
9600.515873905651
 21
-4978.953145257452
 31
0.0
  0
ELLIPSE
  5
12D238
330
18
100
AcDbEntity
  8
姿図
100
AcDbEllipse
 10
9600.515873905651
 20
-4979.008074470694
 30
0.0
 11
0.0331006796266366
 21
0.0462405667664333
 31
0.0
210
0.0
220
0.0
230
0.9999999999999998
 40
0.908374465235718
 41
0.6674062465670622
 42
2.67181090378318
  0
ELLIPSE
  5
12D239
330
18
100
AcDbEntity
  8
姿図
100
AcDbEllipse
 10
9600.596091936877
 20
-4978.890709315906
 30
0.0
 11
0.0331006796266311
 21
0.0462405667664164
 31
0.0
210
0.0
220
0.0
230
1.0
 40
0.908374465235718
 41
3.80899890015716
 42
5.813403557372793
  0
LINE
  5
12D23A
330
18
100
AcDbEntity
  8
姿図
100
AcDbLine
 10
9601.115285172657
 20
-4978.832933512716
 30
0.0
 11
9601.195503203884
 21
-4978.825426784405
 31
0.0
  0
LINE
  5
12D23B
330
18
100
AcDbEntity
  8
姿図
100
AcDbLine
 10
9598.875201525149
 20
-4978.812346842268
 30
0.0
 11
9598.794983493924
 21
-4978.819853570578
 31
0.0
  0
ELLIPSE
  5
12D23C
330
18
100
AcDbEntity
  8
姿図
100
AcDbEllipse
 10
9598.794983493922
 20
-4978.874782783814
 30
0.0
 11
0.0331006796266269
 21
0.0462405667664204
 31
0.0
210
0.0
220
0.0
230
1.0
 40
0.9083744652357191
 41
0.6674062465669472
 42
2.671810903782859
  0
ELLIPSE
  5
12D23D
330
18
100
AcDbEntity
  8
姿図
100
AcDbEllipse
 10
9594.379996399226
 20
-4985.318085222706
 30
0.0
 11
-0.108519203279578
 21
0.3533461957478259
 31
0.0
210
0.0
220
-0.0000000000000001
230
1.0
 40
0.7386189460394769
 41
4.318335530375433
 42
5.623669093019633
  0
ELLIPSE
  5
12D23E
330
18
100
AcDbEntity
  8
姿図
100
AcDbEllipse
 10
9594.379996399226
 20
-4985.318085222706
 30
0.0
 11
-0.108519203279578
 21
0.3533461957478259
 31
0.0
210
0.0
220
-0.0000000000000001
230
1.0
 40
0.7386189460394769
 41
3.822881783457571
 42
4.318335530375472
  0
LINE
  5
12D23F
330
18
100
AcDbEntity
  8
姿図
100
AcDbLine
 10
9599.710232689885
 20
-4985.958311636575
 30
0.0
 11
9599.7675369083
 21
-4977.320368323093
 31
0.0
  0
LINE
  5
12D240
330
18
100
AcDbEntity
  8
姿図
100
AcDbLine
 10
9598.007095957516
 20
-4982.050275357593
 30
0.0
 11
9598.04664649657
 21
-4976.088492371426
 31
0.0
  0
LINE
  5
12D241
330
18
100
AcDbEntity
  8
姿図
100
AcDbLine
 10
9599.523142328086
 20
-4979.158878272866
 30
0.0
 11
9599.345865224995
 21
-4978.782190782903
 31
0.0
  0
ELLIPSE
  5
12D242
330
18
100
AcDbEntity
  8
姿図
100
AcDbEllipse
 10
9601.195503203879
 20
-4978.770497571169
 30
0.0
 11
0.0331006796266265
 21
0.0462405667664197
 31
0.0
210
0.0000000000000001
220
0.0000000000000001
230
1.0
 40
0.9083744652357179
 41
3.808998900156461
 42
5.813403557372752
  0
LINE
  5
12D243
330
18
100
AcDbEntity
  8
姿図
100
AcDbLine
 10
9600.467344369722
 20
-4978.486402082118
 30
0.0
 11
9600.64462147281
 21
-4978.863089572083
 31
0.0
  0
ELLIPSE
  5
12D244
330
18
100
AcDbEntity
  8
姿図
100
AcDbEllipse
 10
9598.875201525149
 20
-4978.757417629026
 30
0.0
 11
0.0331006796266298
 21
0.0462405667664151
 31
0.0
210
0.0
220
0.0
230
1.0
 40
0.9083744652357182
 41
3.80899890015655
 42
5.813403557372809
  0
LINE
  5
12D245
330
18
100
AcDbEntity
  8
姿図
100
AcDbLine
 10
9575.526049986539
 20
-4978.27873775738
 30
0.0
 11
9575.676704823475
 21
-4978.386581969516
 31
0.0
  0
ELLIPSE
  5
12D246
330
18
100
AcDbEntity
  8
姿図
100
AcDbEllipse
 10
9583.109347776055
 20
-4982.46265198334
 30
0.0
 11
-17.85571804038605
 21
-0.0000000000000342
 31
0.000000000000002
210
0.0000000000000001
220
0.0
230
1.0
 40
0.2588190451025204
 41
5.151017883384803
 42
5.195965363531555
  0
LINE
  5
12D247
330
18
100
AcDbEntity
  8
姿図
100
AcDbLine
 10
9579.667478327845
 20
-4978.072441043334
 30
0.0
 11
9579.555529100556
 21
-4977.992303714443
 31
0.0
  0
ELLIPSE
  5
12D248
330
18
100
AcDbEntity
  8
姿図
100
AcDbEllipse
 10
9583.109347776055
 20
-4982.46265198334
 30
0.0
 11
-17.85571804038605
 21
-0.0000000000000342
 31
0.000000000000002
210
0.0000000000000001
220
0.0
230
1.0
 40
0.2588190451025204
 41
4.922687502237706
 42
4.96763498238446
  0
ELLIPSE
  5
12D249
330
18
100
AcDbEntity
  8
姿図
100
AcDbEllipse
 10
9579.503698130137
 20
-4978.304877406707
 30
0.0
 11
-0.1548909050590665
 21
-0.2384999891190348
 31
0.0
210
-0.0000000000000001
220
-0.0000000000000001
230
0.9999999999999998
 40
0.9139391364489759
 41
3.038071040901396
 42
3.100190541308246
  0
LINE
  5
12D24A
330
18
100
AcDbEntity
  8
姿図
100
AcDbLine
 10
9565.974928334648
 20
-4978.716552144515
 30
0.0
 11
9565.2907576311
 21
-4978.780576198849
 31
0.0
  0
ELLIPSE
  5
12D24B
330
18
100
AcDbEntity
  8
姿図
100
AcDbEllipse
 10
9583.109347776055
 20
-4984.385174446733
 30
0.0
 11
-17.89740975592589
 21
-0.0000000000005131
 31
0.000000000000001
210
0.0000000000000001
220
0.0
230
1.0
 40
0.2588190451025204
 41
4.967849174573729
 42
5.150803691193217
  0
ELLIPSE
  5
12D24C
330
18
100
AcDbEntity
  8
姿図
100
AcDbEllipse
 10
9577.173483801283
 20
-4984.530404164102
 30
0.0
 11
0.2013581765767474
 21
0.3100499858547712
 31
0.0
210
-0.0000000000000001
220
-0.0000000000000001
230
1.0
 40
0.9139391364489743
 41
0.6260041342852542
 42
2.752838026093648
  0
ELLIPSE
  5
12D24D
330
18
100
AcDbEntity
  8
姿図
100
AcDbEllipse
 10
9583.109347776055
 20
-4983.423913215036
 30
0.0
 11
-16.34923549676945
 21
-0.0000000000003113
 31
-0.0000000000000009
210
-0.0000000000000001
220
0.0
230
1.0
 40
0.258819045102515
 41
4.992404269734823
 42
5.183640316118966
  0
ELLIPSE
  5
12D24E
330
18
100
AcDbEntity
  8
姿図
100
AcDbEllipse
 10
9577.173483801283
 20
-4984.530404164102
 30
0.0
 11
0.2013581765767474
 21
0.3100499858547712
 31
0.0
210
-0.0000000000000001
220
-0.0000000000000001
230
1.0
 40
0.9139391364489743
 41
0.2886548266583326
 42
0.6260041342852678
  0
ELLIPSE
  5
12D24F
330
18
100
AcDbEntity
  8
姿図
100
AcDbEllipse
 10
9583.109347776055
 20
-4982.957014902499
 30
0.0
 11
-16.33657804185923
 21
-0.0000000000003097
 31
-0.0000000000000009
210
-0.0000000000000001
220
0.0
230
1.0
 40
0.258819045102515
 41
4.992407196796088
 42
5.184287718027582
  0
LINE
  5
12D250
330
18
100
AcDbEntity
  8
姿図
100
AcDbLine
 10
9565.851747376809
 20
-4979.101260909692
 30
0.0
 11
9565.898071888193
 21
-4986.075471296462
 31
0.0
  0
ELLIPSE
  5
12D251
330
18
100
AcDbEntity
  8
姿図
100
AcDbEllipse
 10
9566.277136017909
 20
-4979.405769571901
 30
0.0
 11
0.0512185402514115
 21
-0.5092439049548339
 31
0.0
210
0.0
220
0.0
230
0.9999999999999996
 40
0.3266547503873699
 41
1.290961286430747
 42
2.861757613225721
  0
LINE
  5
12D252
330
18
100
AcDbEntity
  8
姿図
100
AcDbLine
 10
9565.160508324035
 20
-4979.279874817001
 30
0.0
 11
9565.161264595916
 21
-4979.165875642316
 31
0.0
  0
LINE
  5
12D253
330
18
100
AcDbEntity
  8
姿図
100
AcDbLine
 10
9566.695553224027
 20
-4985.335764410631
 30
0.0
 11
9566.872830327119
 21
-4984.925898069771
 31
0.0
  0
LINE
  5
12D254
330
18
100
AcDbEntity
  8
姿図
100
AcDbLine
 10
9566.824300791187
 20
-4985.401723942247
 30
0.0
 11
9566.74408275996
 21
-4985.409230670556
 31
0.0
  0
LINE
  5
12D255
330
18
100
AcDbEntity
  8
姿図
100
AcDbLine
 10
9566.710982080333
 20
-4985.400542024083
 30
0.0
 11
9566.794995190983
 21
-4985.460681664547
 31
0.0
  0
LINE
  5
12D256
330
18
100
AcDbEntity
  8
姿図
100
AcDbLine
 10
9566.695553224027
 20
-4980.941427351456
 30
0.0
 11
9566.881398735768
 21
-4980.51175076867
 31
0.0
  0
LINE
  5
12D257
330
18
100
AcDbEntity
  8
姿図
100
AcDbLine
 10
9566.824300791187
 20
-4981.007386883071
 30
0.0
 11
9566.74408275996
 21
-4981.014893611378
 31
0.0
  0
LINE
  5
12D258
330
18
100
AcDbEntity
  8
姿図
100
AcDbLine
 10
9566.695553224027
 20
-4981.490719483855
 30
0.0
 11
9566.872830327119
 21
-4981.080853142994
 31
0.0
  0
LINE
  5
12D259
330
18
100
AcDbEntity
  8
姿図
100
AcDbLine
 10
9566.710982080333
 20
-4981.006204964909
 30
0.0
 11
9566.85922042552
 21
-4981.112319364354
 31
0.0
  0
LINE
  5
12D25A
330
18
100
AcDbEntity
  8
姿図
100
AcDbLine
 10
9566.695553224027
 20
-4984.237180145839
 30
0.0
 11
9566.852751580134
 21
-4983.873736058111
 31
0.0
  0
LINE
  5
12D25B
330
18
100
AcDbEntity
  8
姿図
100
AcDbLine
 10
9566.824300791187
 20
-4984.303139677452
 30
0.0
 11
9566.74408275996
 21
-4984.310646405762
 31
0.0
  0
LINE
  5
12D25C
330
18
100
AcDbEntity
  8
姿図
100
AcDbLine
 10
9566.695553224027
 20
-4984.786472278235
 30
0.0
 11
9566.872830327119
 21
-4984.376605937374
 31
0.0
  0
LINE
  5
12D25D
330
18
100
AcDbEntity
  8
姿図
100
AcDbLine
 10
9566.824300791187
 20
-4984.852431809848
 30
0.0
 11
9566.74408275996
 21
-4984.859938538161
 31
0.0
  0
LINE
  5
12D25E
330
18
100
AcDbEntity
  8
姿図
100
AcDbLine
 10
9566.710982080333
 20
-4984.301957759289
 30
0.0
 11
9566.85922042552
 21
-4984.408072158732
 31
0.0
  0
LINE
  5
12D25F
330
18
100
AcDbEntity
  8
姿図
100
AcDbLine
 10
9566.710982080333
 20
-4984.851249891685
 30
0.0
 11
9566.85922042552
 21
-4984.957364291128
 31
0.0
  0
LINE
  5
12D260
330
18
100
AcDbEntity
  8
姿図
100
AcDbLine
 10
9566.695553224027
 20
-4982.589303748646
 30
0.0
 11
9566.872830327119
 21
-4982.179437407789
 31
0.0
  0
LINE
  5
12D261
330
18
100
AcDbEntity
  8
姿図
100
AcDbLine
 10
9566.814163142653
 20
-4982.656211951929
 30
0.0
 11
9566.74408275996
 21
-4982.662770008572
 31
0.0
  0
LINE
  5
12D262
330
18
100
AcDbEntity
  8
姿図
100
AcDbLine
 10
9566.695553224027
 20
-4983.138595881045
 30
0.0
 11
9566.772252312455
 21
-4982.961266862385
 31
0.0
  0
LINE
  5
12D263
330
18
100
AcDbEntity
  8
姿図
100
AcDbLine
 10
9566.810282794694
 20
-4983.755159336054
 30
0.0
 11
9566.74408275996
 21
-4983.761354273362
 31
0.0
  0
LINE
  5
12D264
330
18
100
AcDbEntity
  8
姿図
100
AcDbLine
 10
9566.773171874013
 20
-4982.927347628844
 30
0.0
 11
9566.760514730678
 21
-4983.394222955406
 31
0.0
  0
LINE
  5
12D265
330
18
100
AcDbEntity
  8
姿図
100
AcDbLine
 10
9566.710982080333
 20
-4982.654081362095
 30
0.0
 11
9566.79907960097
 21
-4982.717144771791
 31
0.0
  0
LINE
  5
12D266
330
18
100
AcDbEntity
  8
姿図
100
AcDbLine
 10
9566.710982080333
 20
-4983.752665626893
 30
0.0
 11
9566.841761000278
 21
-4983.846281934685
 31
0.0
  0
LINE
  5
12D267
330
18
100
AcDbEntity
  8
姿図
100
AcDbLine
 10
9566.695553224027
 20
-4982.040011616251
 30
0.0
 11
9566.872830327119
 21
-4981.630145275389
 31
0.0
  0
LINE
  5
12D268
330
18
100
AcDbEntity
  8
姿図
100
AcDbLine
 10
9566.824300791187
 20
-4982.105971147863
 30
0.0
 11
9566.74408275996
 21
-4982.113477876175
 31
0.0
  0
LINE
  5
12D269
330
18
100
AcDbEntity
  8
姿図
100
AcDbLine
 10
9566.710982080333
 20
-4982.1047892297
 30
0.0
 11
9566.85922042552
 21
-4982.210903629143
 31
0.0
  0
LINE
  5
12D26A
330
18
100
AcDbEntity
  8
姿図
100
AcDbLine
 10
9566.824300791187
 20
-4981.556679015465
 30
0.0
 11
9566.74408275996
 21
-4981.56418574378
 31
0.0
  0
LINE
  5
12D26B
330
18
100
AcDbEntity
  8
姿図
100
AcDbLine
 10
9566.710982080333
 20
-4981.555497097304
 30
0.0
 11
9566.85922042552
 21
-4981.661611496747
 31
0.0
  0
LINE
  5
12D26C
330
18
100
AcDbEntity
  8
姿図
100
AcDbLine
 10
9566.491746906613
 20
-4985.640952624456
 30
0.0
 11
9566.451158643817
 21
-4979.530341297352
 31
0.0
  0
ELLIPSE
  5
12D26D
330
18
100
AcDbEntity
  8
姿図
100
AcDbEllipse
 10
9583.36915261761
 20
-4974.709753113659
 30
0.0
 11
9.820493799237434
 21
27.76810889032503
 31
0.0000000000000033
210
0.0
220
-0.0000000000000001
230
1.0
 40
0.5306015190202693
 41
2.132850903174913
 42
2.178852095897545
  0
LINE
  5
12D26E
330
18
100
AcDbEntity
  8
姿図
100
AcDbLine
 10
9565.668376108282
 20
-4985.098941023998
 30
0.0
 11
9565.251486322251
 21
-4985.137953180137
 31
0.0
  0
LINE
  5
12D26F
330
18
100
AcDbEntity
  8
姿図
100
AcDbLine
 10
9564.9746628123
 20
-4985.202472723758
 30
0.0
 11
9565.151939915391
 21
-4984.792606382896
 31
0.0
  0
ELLIPSE
  5
12D270
330
18
100
AcDbEntity
  8
姿図
100
AcDbEllipse
 10
9583.109347776055
 20
-4984.797143546032
 30
0.0
 11
-17.4799078689977
 21
-0.0000000000000354
 31
-0.000000000000001
210
-0.0000000000000001
220
0.0
230
1.0
 40
0.2588190451025201
 41
0.0667579305343701
 42
0.1004537543484347
  0
LINE
  5
12D271
330
18
100
AcDbEntity
  8
姿図
100
AcDbLine
 10
9564.990091668606
 20
-4985.816542469602
 30
0.0
 11
9565.138330013793
 21
-4985.922656869046
 31
0.0
  0
LINE
  5
12D272
330
18
100
AcDbEntity
  8
姿図
100
AcDbLine
 10
9564.9746628123
 20
-4986.301056988548
 30
0.0
 11
9565.151939915391
 21
-4985.891190647688
 31
0.0
  0
LINE
  5
12D273
330
18
100
AcDbEntity
  8
姿図
100
AcDbLine
 10
9565.103410379455
 20
-4986.367016520165
 30
0.0
 11
9565.023192348233
 21
-4986.374523248472
 31
0.0
  0
LINE
  5
12D274
330
18
100
AcDbEntity
  8
姿図
100
AcDbLine
 10
9565.103410379455
 20
-4985.268432255367
 30
0.0
 11
9565.023192348233
 21
-4985.275938983679
 31
0.0
  0
LINE
  5
12D275
330
18
100
AcDbEntity
  8
姿図
100
AcDbLine
 10
9564.9746628123
 20
-4985.751764856154
 30
0.0
 11
9565.151939915391
 21
-4985.341898515292
 31
0.0
  0
LINE
  5
12D276
330
18
100
AcDbEntity
  8
姿図
100
AcDbLine
 10
9565.103410379455
 20
-4985.817724387769
 30
0.0
 11
9565.023192348233
 21
-4985.82523111608
 31
0.0
  0
LINE
  5
12D277
330
18
100
AcDbEntity
  8
姿図
100
AcDbLine
 10
9564.990091668606
 20
-4985.267250337206
 30
0.0
 11
9565.138330013793
 21
-4985.373364736649
 31
0.0
  0
LINE
  5
12D278
330
18
100
AcDbEntity
  8
姿図
100
AcDbLine
 10
9564.9746628123
 20
-4986.850349120944
 30
0.0
 11
9565.151939915391
 21
-4986.440482780086
 31
0.0
  0
LINE
  5
12D279
330
18
100
AcDbEntity
  8
姿図
100
AcDbLine
 10
9565.103410379455
 20
-4986.91630865256
 30
0.0
 11
9565.023192348233
 21
-4986.923815380869
 31
0.0
  0
LINE
  5
12D27A
330
18
100
AcDbEntity
  8
姿図
100
AcDbLine
 10
9564.990091668606
 20
-4986.915126734396
 30
0.0
 11
9565.138330013793
 21
-4987.021241133843
 31
0.0
  0
LINE
  5
12D27B
330
18
100
AcDbEntity
  8
姿図
100
AcDbLine
 10
9564.990091668606
 20
-4986.365834601997
 30
0.0
 11
9565.138330013793
 21
-4986.471949001444
 31
0.0
  0
LINE
  5
12D27C
330
18
100
AcDbEntity
  8
姿図
100
AcDbLine
 10
9565.103410379455
 20
-4987.465600784954
 30
0.0
 11
9565.023192348233
 21
-4987.473107513269
 31
0.0
  0
LINE
  5
12D27D
330
18
100
AcDbEntity
  8
姿図
100
AcDbLine
 10
9564.9746628123
 20
-4987.399641253342
 30
0.0
 11
9565.151939915391
 21
-4986.989774912486
 31
0.0
  0
ELLIPSE
  5
12D27E
330
18
100
AcDbEntity
  8
姿図
100
AcDbEllipse
 10
9565.023192348229
 20
-4985.22100977044
 30
0.0
 11
0.0331006796266303
 21
0.0462405667664148
 31
0.0
210
0.0
220
0.0
230
0.9999999999999998
 40
0.9083744652357207
 41
1.804594242940602
 42
3.808998900156939
  0
ELLIPSE
  5
12D27F
330
18
100
AcDbEntity
  8
姿図
100
AcDbEllipse
 10
9565.023192348229
 20
-4985.770301902835
 30
0.0
 11
0.0331006796266303
 21
0.0462405667664148
 31
0.0
210
0.0
220
0.0
230
0.9999999999999998
 40
0.9083744652357207
 41
1.804594242940675
 42
3.808998900157249
  0
ELLIPSE
  5
12D280
330
18
100
AcDbEntity
  8
姿図
100
AcDbEllipse
 10
9565.023192348229
 20
-4986.319594035236
 30
0.0
 11
0.0331006796266303
 21
0.0462405667664148
 31
0.0
210
0.0
220
0.0
230
0.9999999999999998
 40
0.9083744652357207
 41
1.804594242940915
 42
3.808998900157248
  0
ELLIPSE
  5
12D281
330
18
100
AcDbEntity
  8
姿図
100
AcDbEllipse
 10
9565.023192348229
 20
-4986.868886167633
 30
0.0
 11
0.0331006796266292
 21
0.0462405667664132
 31
0.0
210
0.0
220
0.0
230
1.0
 40
0.9083744652357207
 41
1.804594242940485
 42
3.808998900156776
  0
ELLIPSE
  5
12D282
330
18
100
AcDbEntity
  8
姿図
100
AcDbEllipse
 10
9565.023192348229
 20
-4987.418178300029
 30
0.0
 11
0.0331006796266292
 21
0.0462405667664132
 31
0.0
210
0.0
220
0.0
230
1.0
 40
0.9083744652357207
 41
1.804594242940883
 42
3.808998900157217
  0
ELLIPSE
  5
12D283
330
18
100
AcDbEntity
  8
姿図
100
AcDbEllipse
 10
9566.74408275996
 20
-4985.35430145732
 30
0.0
 11
0.03310067962663
 21
0.0462405667664149
 31
0.0
210
0.0
220
0.0
230
0.9999999999999998
 40
0.9083744652357172
 41
1.804594242940764
 42
3.808998900157056
  0
ELLIPSE
  5
12D284
330
18
100
AcDbEntity
  8
姿図
100
AcDbEllipse
 10
9565.103410379455
 20
-4985.872653601005
 30
0.0
 11
0.0331006796266275
 21
0.04624056676642
 31
0.0
210
0.0
220
0.0
230
1.0
 40
0.9083744652357211
 41
4.946186896530126
 42
6.950591553746752
  0
ELLIPSE
  5
12D285
330
18
100
AcDbEntity
  8
姿図
100
AcDbEllipse
 10
9565.103410379455
 20
-4986.4219457334
 30
0.0
 11
0.0331006796266275
 21
0.04624056676642
 31
0.0
210
0.0
220
0.0
230
1.0
 40
0.9083744652357211
 41
4.946186896530643
 42
6.950591553746943
  0
ELLIPSE
  5
12D286
330
18
100
AcDbEntity
  8
姿図
100
AcDbEllipse
 10
9565.103410379455
 20
-4986.971237865803
 30
0.0
 11
0.0331006796266275
 21
0.04624056676642
 31
0.0
210
0.0
220
0.0
230
1.0
 40
0.9083744652357211
 41
4.946186896530488
 42
6.950591553746788
  0
ELLIPSE
  5
12D287
330
18
100
AcDbEntity
  8
姿図
100
AcDbEllipse
 10
9565.103410379455
 20
-4985.32336146861
 30
0.0
 11
0.0331006796266275
 21
0.04624056676642
 31
0.0
210
0.0
220
0.0
230
1.0
 40
0.9083744652357211
 41
4.94618689653045
 42
6.950591553746752
  0
ELLIPSE
  5
12D288
330
18
100
AcDbEntity
  8
姿図
100
AcDbEllipse
 10
9565.103410379455
 20
-4987.520529998199
 30
0.0
 11
0.0331006796266275
 21
0.04624056676642
 31
0.0
210
0.0
220
0.0
230
1.0
 40
0.9083744652357211
 41
6.074134062573671
 42
6.950591553746821
  0
ELLIPSE
  5
12D289
330
18
100
AcDbEntity
  8
姿図
100
AcDbEllipse
 10
9582.869252506482
 20
-4977.050124241333
 30
0.0
 11
9.833408526597631
 21
27.80045877641116
 31
0.0
210
0.0
220
0.0
230
0.9999999999999998
 40
0.5306663220532383
 41
2.046319060003439
 42
2.129635835717336
  0
LINE
  5
12D28A
330
18
100
AcDbEntity
  8
姿図
100
AcDbLine
 10
9564.990091668606
 20
-4980.872913278028
 30
0.0
 11
9565.138330013793
 21
-4980.979027677472
 31
0.0
  0
LINE
  5
12D28B
330
18
100
AcDbEntity
  8
姿図
100
AcDbLine
 10
9564.9746628123
 20
-4981.357427796975
 30
0.0
 11
9565.151939915391
 21
-4980.947561456114
 31
0.0
  0
LINE
  5
12D28C
330
18
100
AcDbEntity
  8
姿図
100
AcDbLine
 10
9565.103410379455
 20
-4981.42338732859
 30
0.0
 11
9565.023192348233
 21
-4981.4308940569
 31
0.0
  0
LINE
  5
12D28D
330
18
100
AcDbEntity
  8
姿図
100
AcDbLine
 10
9564.990091668606
 20
-4981.422205410428
 30
0.0
 11
9565.138330013793
 21
-4981.528319809871
 31
0.0
  0
LINE
  5
12D28E
330
18
100
AcDbEntity
  8
姿図
100
AcDbLine
 10
9564.9746628123
 20
-4979.709551399788
 30
0.0
 11
9565.160508324035
 21
-4979.279874817001
 31
0.0
  0
LINE
  5
12D28F
330
18
100
AcDbEntity
  8
姿図
100
AcDbLine
 10
9565.103410379455
 20
-4979.775510931397
 30
0.0
 11
9565.023192348233
 21
-4979.783017659712
 31
0.0
  0
LINE
  5
12D290
330
18
100
AcDbEntity
  8
姿図
100
AcDbLine
 10
9564.9746628123
 20
-4980.258843532184
 30
0.0
 11
9565.151939915391
 21
-4979.848977191323
 31
0.0
  0
LINE
  5
12D291
330
18
100
AcDbEntity
  8
姿図
100
AcDbLine
 10
9565.103410379455
 20
-4980.324803063798
 30
0.0
 11
9565.023192348233
 21
-4980.332309792109
 31
0.0
  0
LINE
  5
12D292
330
18
100
AcDbEntity
  8
姿図
100
AcDbLine
 10
9564.9746628123
 20
-4980.80813566458
 30
0.0
 11
9565.151939915391
 21
-4980.398269323718
 31
0.0
  0
LINE
  5
12D293
330
18
100
AcDbEntity
  8
姿図
100
AcDbLine
 10
9565.103410379455
 20
-4980.874095196195
 30
0.0
 11
9565.023192348233
 21
-4980.881601924505
 31
0.0
  0
LINE
  5
12D294
330
18
100
AcDbEntity
  8
姿図
100
AcDbLine
 10
9564.990091668606
 20
-4979.774329013237
 30
0.0
 11
9565.138330013793
 21
-4979.880443412682
 31
0.0
  0
LINE
  5
12D295
330
18
100
AcDbEntity
  8
姿図
100
AcDbLine
 10
9564.990091668606
 20
-4980.323621145633
 30
0.0
 11
9565.138330013793
 21
-4980.429735545076
 31
0.0
  0
LINE
  5
12D296
330
18
100
AcDbEntity
  8
姿図
100
AcDbLine
 10
9564.990091668606
 20
-4984.168666072412
 30
0.0
 11
9565.138330013793
 21
-4984.274780471859
 31
0.0
  0
LINE
  5
12D297
330
18
100
AcDbEntity
  8
姿図
100
AcDbLine
 10
9564.9746628123
 20
-4984.653180591358
 30
0.0
 11
9565.151939915391
 21
-4984.243314250502
 31
0.0
  0
LINE
  5
12D298
330
18
100
AcDbEntity
  8
姿図
100
AcDbLine
 10
9565.103410379455
 20
-4984.719140122972
 30
0.0
 11
9565.023192348233
 21
-4984.726646851281
 31
0.0
  0
LINE
  5
12D299
330
18
100
AcDbEntity
  8
姿図
100
AcDbLine
 10
9564.990091668606
 20
-4984.717958204811
 30
0.0
 11
9565.138330013793
 21
-4984.824072604254
 31
0.0
  0
LINE
  5
12D29A
330
18
100
AcDbEntity
  8
姿図
100
AcDbLine
 10
9564.990091668606
 20
-4982.520789675222
 30
0.0
 11
9565.138330013793
 21
-4982.626904074667
 31
0.0
  0
LINE
  5
12D29B
330
18
100
AcDbEntity
  8
姿図
100
AcDbLine
 10
9564.9746628123
 20
-4983.005304194168
 30
0.0
 11
9565.151939915391
 21
-4982.595437853309
 31
0.0
  0
LINE
  5
12D29C
330
18
100
AcDbEntity
  8
姿図
100
AcDbLine
 10
9565.103410379455
 20
-4983.071263725777
 30
0.0
 11
9565.023192348233
 21
-4983.078770454095
 31
0.0
  0
LINE
  5
12D29D
330
18
100
AcDbEntity
  8
姿図
100
AcDbLine
 10
9564.9746628123
 20
-4983.554596326564
 30
0.0
 11
9565.151939915391
 21
-4983.144729985703
 31
0.0
  0
LINE
  5
12D29E
330
18
100
AcDbEntity
  8
姿図
100
AcDbLine
 10
9565.103410379455
 20
-4983.620555858181
 30
0.0
 11
9565.023192348233
 21
-4983.62806258649
 31
0.0
  0
LINE
  5
12D29F
330
18
100
AcDbEntity
  8
姿図
100
AcDbLine
 10
9564.9746628123
 20
-4984.10388845896
 30
0.0
 11
9565.151939915391
 21
-4983.694022118102
 31
0.0
  0
LINE
  5
12D2A0
330
18
100
AcDbEntity
  8
姿図
100
AcDbLine
 10
9565.103410379455
 20
-4984.169847990575
 30
0.0
 11
9565.023192348233
 21
-4984.177354718885
 31
0.0
  0
LINE
  5
12D2A1
330
18
100
AcDbEntity
  8
姿図
100
AcDbLine
 10
9564.990091668606
 20
-4983.070081807618
 30
0.0
 11
9565.138330013793
 21
-4983.176196207061
 31
0.0
  0
LINE
  5
12D2A2
330
18
100
AcDbEntity
  8
姿図
100
AcDbLine
 10
9564.990091668606
 20
-4983.619373940017
 30
0.0
 11
9565.138330013793
 21
-4983.725488339461
 31
0.0
  0
LINE
  5
12D2A3
330
18
100
AcDbEntity
  8
姿図
100
AcDbLine
 10
9565.103410379455
 20
-4981.972679460987
 30
0.0
 11
9565.023192348233
 21
-4981.980186189296
 31
0.0
  0
LINE
  5
12D2A4
330
18
100
AcDbEntity
  8
姿図
100
AcDbLine
 10
9564.9746628123
 20
-4982.456012061773
 30
0.0
 11
9565.151939915391
 21
-4982.046145720912
 31
0.0
  0
LINE
  5
12D2A5
330
18
100
AcDbEntity
  8
姿図
100
AcDbLine
 10
9565.103410379455
 20
-4982.521971593383
 30
0.0
 11
9565.023192348233
 21
-4982.529478321695
 31
0.0
  0
LINE
  5
12D2A6
330
18
100
AcDbEntity
  8
姿図
100
AcDbLine
 10
9564.990091668606
 20
-4981.971497542827
 30
0.0
 11
9565.138330013793
 21
-4982.077611942271
 31
0.0
  0
LINE
  5
12D2A7
330
18
100
AcDbEntity
  8
姿図
100
AcDbLine
 10
9564.9746628123
 20
-4981.906719929377
 30
0.0
 11
9565.151939915391
 21
-4981.496853588513
 31
0.0
  0
ELLIPSE
  5
12D2A8
330
18
100
AcDbEntity
  8
姿図
100
AcDbEllipse
 10
9565.023192348229
 20
-4984.122425505649
 30
0.0
 11
0.0331006796266303
 21
0.0462405667664148
 31
0.0
210
0.0
220
0.0
230
0.9999999999999998
 40
0.9083744652357207
 41
1.804594242940693
 42
3.808998900156747
  0
ELLIPSE
  5
12D2A9
330
18
100
AcDbEntity
  8
姿図
100
AcDbEllipse
 10
9565.023192348229
 20
-4984.671717638043
 30
0.0
 11
0.0331006796266303
 21
0.0462405667664148
 31
0.0
210
0.0
220
0.0
230
0.9999999999999998
 40
0.9083744652357207
 41
1.80459424294052
 42
3.808998900156813
  0
ELLIPSE
  5
12D2AA
330
18
100
AcDbEntity
  8
姿図
100
AcDbEllipse
 10
9565.023192348229
 20
-4980.826672711266
 30
0.0
 11
0.0331006796266313
 21
0.0462405667664162
 31
0.0
210
0.0
220
0.0
230
1.0
 40
0.9083744652357207
 41
1.804594242940521
 42
3.808998900156824
  0
ELLIPSE
  5
12D2AB
330
18
100
AcDbEntity
  8
姿図
100
AcDbEllipse
 10
9565.023192348229
 20
-4982.474549108458
 30
0.0
 11
0.0331006796266303
 21
0.0462405667664148
 31
0.0
210
0.0
220
0.0
230
0.9999999999999998
 40
0.9083744652357207
 41
1.804594242940334
 42
3.808998900156869
  0
ELLIPSE
  5
12D2AC
330
18
100
AcDbEntity
  8
姿図
100
AcDbEllipse
 10
9565.023192348229
 20
-4983.023841240854
 30
0.0
 11
0.0331006796266303
 21
0.0462405667664148
 31
0.0
210
0.0
220
0.0
230
0.9999999999999998
 40
0.9083744652357207
 41
1.804594242940608
 42
3.808998900156902
  0
ELLIPSE
  5
12D2AD
330
18
100
AcDbEntity
  8
姿図
100
AcDbEllipse
 10
9565.023192348229
 20
-4983.573133373254
 30
0.0
 11
0.0331006796266303
 21
0.0462405667664148
 31
0.0
210
0.0
220
0.0
230
0.9999999999999998
 40
0.9083744652357207
 41
1.804594242940608
 42
3.808998900156902
  0
ELLIPSE
  5
12D2AE
330
18
100
AcDbEntity
  8
姿図
100
AcDbEllipse
 10
9565.023192348229
 20
-4981.37596484366
 30
0.0
 11
0.0331006796266313
 21
0.0462405667664162
 31
0.0
210
0.0
220
0.0
230
1.0
 40
0.9083744652357207
 41
1.804594242940521
 42
3.808998900156824
  0
ELLIPSE
  5
12D2AF
330
18
100
AcDbEntity
  8
姿図
100
AcDbEllipse
 10
9565.023192348229
 20
-4981.92525697606
 30
0.0
 11
0.0331006796266303
 21
0.0462405667664148
 31
0.0
210
0.0
220
0.0
230
0.9999999999999998
 40
0.9083744652357207
 41
1.804594242940452
 42
3.808998900157026
  0
ELLIPSE
  5
12D2B0
330
18
100
AcDbEntity
  8
姿図
100
AcDbEllipse
 10
9565.023192348229
 20
-4979.728088446471
 30
0.0
 11
0.0331006796266313
 21
0.0462405667664162
 31
0.0
210
0.0
220
0.0
230
1.0
 40
0.9083744652357207
 41
1.804594242940791
 42
3.808998900157134
  0
ELLIPSE
  5
12D2B1
330
18
100
AcDbEntity
  8
姿図
100
AcDbEllipse
 10
9565.023192348229
 20
-4980.27738057887
 30
0.0
 11
0.0331006796266313
 21
0.0462405667664162
 31
0.0
210
0.0
220
0.0
230
1.0
 40
0.9083744652357207
 41
1.804594242940609
 42
3.808998900156911
  0
LINE
  5
12D2B2
330
18
100
AcDbEntity
  8
姿図
100
AcDbLine
 10
9566.765507523891
 20
-4983.210057231604
 30
0.0
 11
9566.74408275996
 21
-4983.212062140967
 31
0.0
  0
LINE
  5
12D2B3
330
18
100
AcDbEntity
  8
姿図
100
AcDbLine
 10
9566.695553224027
 20
-4983.687888013445
 30
0.0
 11
9566.764996219022
 21
-4983.5273351515
 31
0.0
  0
LINE
  5
12D2B4
330
18
100
AcDbEntity
  8
姿図
100
AcDbLine
 10
9566.710982080333
 20
-4983.203373494494
 30
0.0
 11
9566.764647265614
 21
-4983.241788986116
 31
0.0
  0
ELLIPSE
  5
12D2B5
330
18
100
AcDbEntity
  8
姿図
100
AcDbEllipse
 10
9566.74408275996
 20
-4984.255717192522
 30
0.0
 11
0.03310067962663
 21
0.0462405667664149
 31
0.0
210
0.0
220
0.0
230
0.9999999999999998
 40
0.9083744652357172
 41
1.804594242940831
 42
3.808998900156845
  0
ELLIPSE
  5
12D2B6
330
18
100
AcDbEntity
  8
姿図
100
AcDbEllipse
 10
9566.74408275996
 20
-4984.805009324925
 30
0.0
 11
0.03310067962663
 21
0.0462405667664149
 31
0.0
210
0.0
220
0.0
230
0.9999999999999998
 40
0.9083744652357172
 41
1.804594242940846
 42
3.808998900156899
  0
ELLIPSE
  5
12D2B7
330
18
100
AcDbEntity
  8
姿図
100
AcDbEllipse
 10
9566.74408275996
 20
-4982.607840795329
 30
0.0
 11
0.0331006796266311
 21
0.0462405667664164
 31
0.0
210
0.0
220
0.0
230
1.0
 40
0.908374465235718
 41
1.804594242940848
 42
3.808998900156911
  0
ELLIPSE
  5
12D2B8
330
18
100
AcDbEntity
  8
姿図
100
AcDbEllipse
 10
9566.74408275996
 20
-4983.15713292773
 30
0.0
 11
0.03310067962663
 21
0.0462405667664149
 31
0.0
210
0.0
220
0.0
230
0.9999999999999998
 40
0.9083744652357172
 41
1.804594242940722
 42
3.808998900156776
  0
ELLIPSE
  5
12D2B9
330
18
100
AcDbEntity
  8
姿図
100
AcDbEllipse
 10
9566.74408275996
 20
-4983.706425060127
 30
0.0
 11
0.03310067962663
 21
0.0462405667664149
 31
0.0
210
0.0
220
0.0
230
0.9999999999999998
 40
0.9083744652357172
 41
1.804594242940692
 42
3.808998900156467
  0
ELLIPSE
  5
12D2BA
330
18
100
AcDbEntity
  8
姿図
100
AcDbEllipse
 10
9566.74408275996
 20
-4980.959964398142
 30
0.0
 11
0.0331006796266311
 21
0.0462405667664164
 31
0.0
210
0.0
220
0.0
230
1.0
 40
0.908374465235718
 41
1.804594242940803
 42
3.808998900156824
  0
ELLIPSE
  5
12D2BB
330
18
100
AcDbEntity
  8
姿図
100
AcDbEllipse
 10
9566.74408275996
 20
-4981.509256530538
 30
0.0
 11
0.0331006796266311
 21
0.0462405667664164
 31
0.0
210
0.0
220
0.0
230
1.0
 40
0.908374465235718
 41
1.804594242940765
 42
3.808998900156787
  0
ELLIPSE
  5
12D2BC
330
18
100
AcDbEntity
  8
姿図
100
AcDbEllipse
 10
9566.74408275996
 20
-4982.058548662933
 30
0.0
 11
0.0331006796266311
 21
0.0462405667664164
 31
0.0
210
0.0
220
0.0
230
1.0
 40
0.908374465235718
 41
1.804594242940875
 42
3.808998900156855
  0
ELLIPSE
  5
12D2BD
330
18
100
AcDbEntity
  8
姿図
100
AcDbEllipse
 10
9565.103410379455
 20
-4984.224777203818
 30
0.0
 11
0.0331006796266275
 21
0.04624056676642
 31
0.0
210
0.0
220
0.0
230
1.0
 40
0.9083744652357211
 41
4.946186896530418
 42
6.950591553746441
  0
ELLIPSE
  5
12D2BE
330
18
100
AcDbEntity
  8
姿図
100
AcDbEllipse
 10
9565.103410379455
 20
-4984.774069336214
 30
0.0
 11
0.0331006796266275
 21
0.04624056676642
 31
0.0
210
0.0
220
0.0
230
1.0
 40
0.9083744652357211
 41
4.946186896530518
 42
6.950591553746821
  0
ELLIPSE
  5
12D2BF
330
18
100
AcDbEntity
  8
姿図
100
AcDbEllipse
 10
9565.103410379455
 20
-4980.929024409432
 30
0.0
 11
0.0331006796266369
 21
0.0462405667664331
 31
0.0
210
0.0
220
0.0
230
0.9999999999999998
 40
0.9083744652357204
 41
4.946186896530406
 42
6.950591553746625
  0
ELLIPSE
  5
12D2C0
330
18
100
AcDbEntity
  8
姿図
100
AcDbEllipse
 10
9565.103410379455
 20
-4982.576900806624
 30
0.0
 11
0.0331006796266275
 21
0.04624056676642
 31
0.0
210
0.0
220
0.0
230
1.0
 40
0.9083744652357211
 41
4.946186896530168
 42
6.950591553746752
  0
ELLIPSE
  5
12D2C1
330
18
100
AcDbEntity
  8
姿図
100
AcDbEllipse
 10
9565.103410379455
 20
-4983.126192939024
 30
0.0
 11
0.0331006796266275
 21
0.04624056676642
 31
0.0
210
0.0
220
0.0
230
1.0
 40
0.9083744652357211
 41
4.946186896530518
 42
6.95059155374654
  0
ELLIPSE
  5
12D2C2
330
18
100
AcDbEntity
  8
姿図
100
AcDbEllipse
 10
9565.103410379455
 20
-4983.675485071421
 30
0.0
 11
0.0331006796266275
 21
0.04624056676642
 31
0.0
210
0.0
220
0.0
230
1.0
 40
0.9083744652357211
 41
4.946186896530611
 42
6.950591553746912
  0
ELLIPSE
  5
12D2C3
330
18
100
AcDbEntity
  8
姿図
100
AcDbEllipse
 10
9565.103410379455
 20
-4981.478316541831
 30
0.0
 11
0.0331006796266275
 21
0.04624056676642
 31
0.0
210
0.0
220
0.0
230
1.0
 40
0.9083744652357211
 41
4.946186896530611
 42
6.950591553747201
  0
ELLIPSE
  5
12D2C4
330
18
100
AcDbEntity
  8
姿図
100
AcDbEllipse
 10
9565.103410379455
 20
-4982.027608674226
 30
0.0
 11
0.0331006796266275
 21
0.04624056676642
 31
0.0
210
0.0
220
0.0
230
1.0
 40
0.9083744652357211
 41
4.946186896530643
 42
6.950591553746943
  0
ELLIPSE
  5
12D2C5
330
18
100
AcDbEntity
  8
姿図
100
AcDbEllipse
 10
9565.103410379455
 20
-4979.83044014464
 30
0.0
 11
0.0331006796266369
 21
0.0462405667664331
 31
0.0
210
0.0
220
0.0
230
0.9999999999999998
 40
0.9083744652357204
 41
4.946186896530376
 42
6.950591553746025
  0
ELLIPSE
  5
12D2C6
330
18
100
AcDbEntity
  8
姿図
100
AcDbEllipse
 10
9565.103410379455
 20
-4980.379732277036
 30
0.0
 11
0.0331006796266369
 21
0.0462405667664331
 31
0.0
210
0.0
220
0.0
230
0.9999999999999998
 40
0.9083744652357204
 41
4.946186896530473
 42
6.950591553746981
  0
ELLIPSE
  5
12D2C7
330
18
100
AcDbEntity
  8
姿図
100
AcDbEllipse
 10
9566.824300791184
 20
-4985.45665315549
 30
0.0
 11
0.0331006796266273
 21
0.0462405667664202
 31
0.0
210
0.0
220
0.0
230
1.0
 40
0.9083744652357179
 41
6.006282980254767
 42
6.950591553746565
  0
ELLIPSE
  5
12D2C8
330
18
100
AcDbEntity
  8
姿図
100
AcDbEllipse
 10
9567.056177633549
 20
-4980.522323319435
 30
0.0
 11
0.0441432783734327
 21
-0.5099059656834989
 31
-0.0000000000000001
210
0.0
220
-0.0000000000000002
230
0.9999999999999998
 40
0.3301839125655837
 41
3.143887870131871
 42
4.437113948144753
  0
LINE
  5
12D2C9
330
18
100
AcDbEntity
  8
姿図
100
AcDbLine
 10
9566.881398735768
 20
-4980.51175076867
 30
0.0
 11
9566.882155007645
 21
-4980.397751593987
 31
0.0
  0
ELLIPSE
  5
12D2CA
330
18
100
AcDbEntity
  8
姿図
100
AcDbEllipse
 10
9566.824300791184
 20
-4984.358068890692
 30
0.0
 11
0.0331006796266273
 21
0.0462405667664202
 31
0.0
210
0.0
220
0.0
230
1.0
 40
0.9083744652357179
 41
4.94618689653042
 42
6.950591553746442
  0
ELLIPSE
  5
12D2CB
330
18
100
AcDbEntity
  8
姿図
100
AcDbEllipse
 10
9566.824300791184
 20
-4984.907361023087
 30
0.0
 11
0.0331006796266273
 21
0.0462405667664202
 31
0.0
210
0.0
220
0.0
230
1.0
 40
0.9083744652357179
 41
4.946186896530445
 42
6.950591553746508
  0
ELLIPSE
  5
12D2CC
330
18
100
AcDbEntity
  8
姿図
100
AcDbEllipse
 10
9566.824300791184
 20
-4981.062316096313
 30
0.0
 11
0.0331006796266366
 21
0.0462405667664333
 31
0.0
210
0.0
220
0.0
230
0.9999999999999998
 40
0.908374465235718
 41
4.946186896530443
 42
6.95059155374638
  0
ELLIPSE
  5
12D2CD
330
18
100
AcDbEntity
  8
姿図
100
AcDbEllipse
 10
9566.824300791184
 20
-4981.611608228707
 30
0.0
 11
0.0331006796266366
 21
0.0462405667664333
 31
0.0
210
0.0
220
0.0
230
0.9999999999999998
 40
0.908374465235718
 41
4.946186896530483
 42
6.950591553746504
  0
ELLIPSE
  5
12D2CE
330
18
100
AcDbEntity
  8
姿図
100
AcDbEllipse
 10
9566.824300791184
 20
-4982.160900361104
 30
0.0
 11
0.0331006796266366
 21
0.0462405667664333
 31
0.0
210
0.0
220
0.0
230
0.9999999999999998
 40
0.908374465235718
 41
4.94618689653029
 42
6.950591553746592
  0
LINE
  5
12D2CF
330
18
100
AcDbEntity
  8
姿図
100
AcDbLine
 10
9568.174218349714
 20
-4981.088807071163
 30
0.0
 11
9568.172049055544
 21
-4980.762217249022
 31
0.0
  0
LINE
  5
12D2D0
330
18
100
AcDbEntity
  8
姿図
100
AcDbLine
 10
9567.695818746376
 20
-4979.948428096186
 30
0.0
 11
9567.011648042827
 21
-4980.012452150517
 31
0.0
  0
LINE
  5
12D2D1
330
18
100
AcDbEntity
  8
姿図
100
AcDbLine
 10
9567.743378767708
 20
-4979.963652761083
 30
0.0
 11
9567.994744782904
 21
-4980.143589697845
 31
0.0
  0
LINE
  5
12D2D2
330
18
100
AcDbEntity
  8
姿図
100
AcDbLine
 10
9567.572637788536
 20
-4980.333136861359
 30
0.0
 11
9567.581202326724
 21
-4981.622538290103
 31
0.0
  0
LINE
  5
12D2D3
330
18
100
AcDbEntity
  8
姿図
100
AcDbLine
 10
9567.879966556196
 20
-4981.337693821235
 30
0.0
 11
9567.343375379801
 21
-4981.849284612773
 31
0.0
  0
ELLIPSE
  5
12D2D4
330
18
100
AcDbEntity
  8
姿図
100
AcDbEllipse
 10
9567.74666041444
 20
-4980.45770858681
 30
0.0
 11
0.0512185402514115
 21
-0.5092439049548339
 31
0.0
210
0.0
220
0.0
230
0.9999999999999996
 40
0.3266547503873699
 41
2.861757613225558
 42
4.4325539400205
  0
ELLIPSE
  5
12D2D5
330
18
100
AcDbEntity
  8
姿図
100
AcDbEllipse
 10
9567.998026429636
 20
-4980.637645523572
 30
0.0
 11
0.0512185402514115
 21
-0.5092439049548339
 31
0.0
210
0.0
220
0.0
230
0.9999999999999996
 40
0.3266547503873699
 41
1.290961286430781
 42
2.861757613225615
  0
ELLIPSE
  5
12D2D6
330
18
100
AcDbEntity
  8
姿図
100
AcDbEllipse
 10
9583.109347776055
 20
-4982.407722770101
 30
0.0
 11
-15.78056643601225
 21
-0.0000000000003
 31
-0.0000000000000018
210
-0.0000000000000001
220
0.0
230
1.0
 40
0.258819045102515
 41
5.28687662288746
 42
6.018106658722737
  0
ELLIPSE
  5
12D2D7
330
18
100
AcDbEntity
  8
姿図
100
AcDbEllipse
 10
9583.109347776055
 20
-4987.406281174916
 30
0.0
 11
-17.96292530891708
 21
-0.0000000000006691
 31
0.0
210
0.0
220
0.0
230
1.0
 40
0.2588190451024983
 41
5.241510706344443
 42
6.274432771330731
  0
ELLIPSE
  5
12D2D8
330
18
100
AcDbEntity
  8
姿図
100
AcDbEllipse
 10
9583.109347776055
 20
-4983.423913215036
 30
0.0
 11
-16.34923549676945
 21
-0.0000000000003113
 31
-0.0000000000000009
210
-0.0000000000000001
220
0.0
230
1.0
 40
0.258819045102515
 41
5.268090580583091
 42
6.550261017675985
  0
ELLIPSE
  5
12D2D9
330
18
100
AcDbEntity
  8
姿図
100
AcDbEllipse
 10
9583.109347776055
 20
-4982.957014902499
 30
0.0
 11
-16.33657804185923
 21
-0.0000000000003097
 31
-0.0000000000000009
210
-0.0000000000000001
220
0.0
230
1.0
 40
0.258819045102515
 41
5.266606351960422
 42
6.276168753067861
  0
ELLIPSE
  5
12D2DA
330
18
100
AcDbEntity
  8
姿図
100
AcDbEllipse
 10
9576.149775191025
 20
-5064.819566871818
 30
0.0
 11
-18.38327958101744
 21
-343.0138562197139
 31
0.0000000000000191
210
0.0
220
0.0000000000000001
230
1.0
 40
0.0186593157869327
 41
4.459498662982783
 42
4.472829220484885
  0
LINE
  5
12D2DB
330
18
100
AcDbEntity
  8
姿図
100
AcDbLine
 10
9575.511814337003
 20
-4980.191069825028
 30
0.0
 11
9575.526049986535
 21
-4978.27873775738
 31
0.0
  0
LINE
  5
12D2DC
330
18
100
AcDbEntity
  8
姿図
100
AcDbLine
 10
9578.601074516825
 20
-4977.990979838808
 30
0.0
 11
9578.586838867293
 21
-4979.903311906459
 31
0.0
  0
ELLIPSE
  5
12D2DD
330
18
100
AcDbEntity
  8
姿図
100
AcDbEllipse
 10
9574.515854479958
 20
-4777.423935221048
 30
0.0
 11
-21.1315594781569
 21
387.0160392319079
 31
0.0
210
0.0
220
0.0
230
0.9999999999999998
 40
0.0171889472793754
 41
2.115486356435118
 42
2.128957736158342
  0
ELLIPSE
  5
12D2DE
330
18
100
AcDbEntity
  8
姿図
100
AcDbEllipse
 10
9590.068920361092
 20
-5063.517026289475
 30
0.0
 11
-18.54276823274225
 21
339.5595730684463
 31
-0.0000000000000189
210
0.0
220
0.0000000000000001
230
1.0
 40
0.0174416807856973
 41
1.315822296819268
 42
1.32915285432137
  0
LINE
  5
12D2DF
330
18
100
AcDbEntity
  8
姿図
100
AcDbLine
 10
9575.676704823475
 20
-4978.386581969516
 30
0.0
 11
9575.69086756713
 21
-4980.169653122895
 31
0.0
  0
ELLIPSE
  5
12D2E0
330
18
100
AcDbEntity
  8
姿図
100
AcDbEllipse
 10
9565.335287221818
 20
-4979.290447367766
 30
0.0
 11
0.0441432783734327
 21
-0.5099059656834989
 31
-0.0000000000000001
210
0.0
220
-0.0000000000000002
230
0.9999999999999998
 40
0.3301839125655837
 41
3.143887870131943
 42
4.437113948144802
  0
ELLIPSE
  5
12D2E1
330
18
100
AcDbEntity
  8
姿図
100
AcDbEllipse
 10
9566.025770002713
 20
-4979.225832635139
 30
0.0
 11
0.0512185402514115
 21
-0.5092439049548339
 31
0.0
210
0.0
220
0.0
230
0.9999999999999996
 40
0.3266547503873699
 41
2.861757613225725
 42
4.432553940020589
  0
LINE
  5
12D2E2
330
18
100
AcDbEntity
  8
姿図
100
AcDbLine
 10
9566.022488355981
 20
-4978.731776809413
 30
0.0
 11
9566.273854371175
 21
-4978.911713746174
 31
0.0
  0
ELLIPSE
  5
12D2E3
330
18
100
AcDbEntity
  8
姿図
100
AcDbEllipse
 10
9583.109347776055
 20
-4982.407722770101
 30
0.0
 11
-15.78056643601225
 21
-0.0000000000003
 31
-0.0000000000000018
210
-0.0000000000000001
220
0.0
230
1.0
 40
0.258819045102515
 41
5.002357841538154
 42
5.202574393620891
  0
ELLIPSE
  5
12D2E4
330
18
100
AcDbEntity
  8
姿図
100
AcDbEllipse
 10
9583.109347776055
 20
-4982.957014902499
 30
0.0
 11
-16.33657804185923
 21
-0.0000000000003097
 31
-0.0000000000000009
210
-0.0000000000000001
220
0.0
230
1.0
 40
0.258819045102515
 41
3.563618606471713
 42
4.915675910959882
  0
ELLIPSE
  5
12D2E5
330
18
100
AcDbEntity
  8
姿図
100
AcDbEllipse
 10
9583.109347776055
 20
-4983.423913215036
 30
0.0
 11
-16.34923549676945
 21
-0.0000000000003113
 31
-0.0000000000000009
210
-0.0000000000000001
220
0.0
230
1.0
 40
0.258819045102515
 41
3.565790486621951
 42
4.913638423115042
  0
ELLIPSE
  5
12D2E6
330
18
100
AcDbEntity
  8
姿図
100
AcDbEllipse
 10
9583.109347776055
 20
-4982.407722770101
 30
0.0
 11
-15.78056643601225
 21
-0.0000000000003
 31
-0.0000000000000018
210
-0.0000000000000001
220
0.0
230
1.0
 40
0.258819045102515
 41
3.476409367365062
 42
4.924634818196501
  0
ELLIPSE
  5
12D2E7
330
18
100
AcDbEntity
  8
姿図
100
AcDbEllipse
 10
9583.109347776055
 20
-4987.406281174916
 30
0.0
 11
-17.96292530891708
 21
-0.0000000000003081
 31
-0.000000000000002
210
-0.0000000000000001
220
0.0
230
1.0
 40
0.2588190451025165
 41
3.844220094436217
 42
4.877142159422502
  0
LINE
  5
12D2E8
330
18
100
AcDbEntity
  8
姿図
100
AcDbLine
 10
9603.555825128564
 20
-4991.80061823409
 30
0.0
 11
9603.555825128564
 21
-4992.12828408701
 31
0.0
  0
ELLIPSE
  5
12D2E9
330
18
100
AcDbEntity
  8
姿図
100
AcDbEllipse
 10
9583.109347776055
 20
-4988.673461030797
 30
0.0
 11
13.51430367091304
 21
0.0
 31
0.0
210
0.0
220
0.0
230
1.0
 40
0.2673555525296201
 41
5.28076332886401
 42
5.96194421627353
  0
LINE
  5
12D2EA
330
18
100
AcDbEntity
  8
姿図
100
AcDbLine
 10
9564.9746628123
 20
-4988.498225518138
 30
0.0
 11
9565.130260814248
 21
-4988.138481464382
 31
0.0
  0
LINE
  5
12D2EB
330
18
100
AcDbEntity
  8
姿図
100
AcDbLine
 10
9565.103410379455
 20
-4988.014892917352
 30
0.0
 11
9565.023192348233
 21
-4988.022399645664
 31
0.0
  0
LINE
  5
12D2EC
330
18
100
AcDbEntity
  8
姿図
100
AcDbLine
 10
9564.9746628123
 20
-4987.948933385742
 30
0.0
 11
9565.142801707168
 21
-4987.560194668806
 31
0.0
  0
LINE
  5
12D2ED
330
18
100
AcDbEntity
  8
姿図
100
AcDbLine
 10
9564.990091668606
 20
-4988.013710999191
 30
0.0
 11
9565.130782560428
 21
-4988.114422656991
 31
0.0
  0
LINE
  5
12D2EE
330
18
100
AcDbEntity
  8
姿図
100
AcDbLine
 10
9564.969713660749
 20
-4989.386985236461
 30
0.0
 11
9564.969713660749
 21
-4988.521767050364
 31
0.0
  0
ELLIPSE
  5
12D2EF
330
18
100
AcDbEntity
  8
姿図
100
AcDbEllipse
 10
9565.023192348229
 20
-4988.516762564825
 30
0.0
 11
0.0331006796266313
 21
0.0462405667664162
 31
0.0
210
0.0
220
0.0
230
1.0
 40
0.9083744652357207
 41
1.8045942429404
 42
2.238202573361832
  0
ELLIPSE
  5
12D2F0
330
18
100
AcDbEntity
  8
姿図
100
AcDbEllipse
 10
9565.023192348229
 20
-4987.967470432423
 30
0.0
 11
0.0331006796266292
 21
0.0462405667664132
 31
0.0
210
0.0
220
0.0
230
1.0
 40
0.9083744652357207
 41
1.804594242940565
 42
3.808998900156902
  0
ELLIPSE
  5
12D2F1
330
18
100
AcDbEntity
  8
姿図
100
AcDbEllipse
 10
9565.103410379455
 20
-4988.069822130594
 30
0.0
 11
0.0331006796266275
 21
0.04624056676642
 31
0.0
210
0.0
220
0.0
230
1.0
 40
0.9083744652357211
 41
0.0854693314817033
 42
0.6674062465672338
  0
LINE
  5
12D2F2
330
18
100
AcDbEntity
  8
姿図
100
AcDbLine
 10
9562.662870423549
 20
-4991.80061823409
 30
0.0
 11
9562.662870423549
 21
-4992.12828408701
 31
0.0
  0
ELLIPSE
  5
12D2F3
330
18
100
AcDbEntity
  8
姿図
100
AcDbEllipse
 10
9583.109347776055
 20
-4988.673461030797
 30
0.0
 11
13.51430367091304
 21
0.0
 31
0.0
210
0.0
220
0.0
230
1.0
 40
0.2673555525296201
 41
3.462833744495848
 42
4.171550364110386
  0
ELLIPSE
  5
12D2F4
330
18
100
AcDbEntity
  8
姿図
100
AcDbEllipse
 10
9583.109347776055
 20
-4992.339926375876
 30
0.0
 11
16.8928795886413
 21
0.0
 31
0.0
210
0.0
220
0.0
230
1.0
 40
0.26735555252962
 41
5.180243681212036
 42
10.51443037292207
  0
ELLIPSE
  5
12D2F5
330
18
100
AcDbEntity
  8
姿図
100
AcDbEllipse
 10
9583.109347776055
 20
-4992.327480116149
 30
0.0
 11
15.89944312579247
 21
0.0
 31
0.0
210
0.0
220
0.0
230
1.0
 40
0.26735555252962
 41
5.209599264642355
 42
10.48566856919573
  0
ELLIPSE
  5
12D2F6
330
18
100
AcDbEntity
  8
姿図
100
AcDbEllipse
 10
9583.109347776055
 20
-4992.339926375876
 30
0.0
 11
16.8928795886413
 21
0.0
 31
0.0
210
0.0
220
0.0
230
1.0
 40
0.26735555252962
 41
4.427948996759584
 42
4.971841876265056
  0
ELLIPSE
  5
12D2F7
330
18
100
AcDbEntity
  8
姿図
100
AcDbEllipse
 10
9583.109347776055
 20
-4992.12828408701
 30
0.0
 11
20.44647735250701
 21
0.0
 31
0.0
210
0.0
220
0.0
230
0.9999999999999998
 40
0.2673555525296201
 41
4.470401134071082
 42
4.932249962681063
  0
ELLIPSE
  5
12D2F8
330
18
100
AcDbEntity
  8
姿図
100
AcDbEllipse
 10
9583.109347776055
 20
-4992.327480116149
 30
0.0
 11
15.89944312579247
 21
0.0
 31
0.0
210
0.0
220
0.0
230
1.0
 40
0.26735555252962
 41
4.413557965181503
 42
4.985392136879235
  0
ELLIPSE
  5
12D2F9
330
18
100
AcDbEntity
  8
姿図
100
AcDbEllipse
 10
9583.109347776055
 20
-4992.12828408701
 30
0.0
 11
20.44647735250701
 21
0.0
 31
0.0
210
0.0
220
0.0
230
0.9999999999999998
 40
0.2673555525296201
 41
5.099058613978903
 42
10.59507337388397
  0
ELLIPSE
  5
12D2FA
330
18
100
AcDbEntity
  8
姿図
100
AcDbEllipse
 10
9583.109347776055
 20
-4991.80061823409
 30
0.0
 11
20.44647735250701
 21
0.0
 31
0.0
210
0.0
220
0.0
230
0.9999999999999998
 40
0.2673555525296201
 41
6.253210353381122
 42
9.424777960769381
  0
LINE
  5
12D2FB
330
18
100
AcDbEntity
  8
姿図
100
AcDbLine
 10
9564.990091668606
 20
-4987.464418866793
 30
0.0
 11
9565.138330013793
 21
-4987.570533266239
 31
0.0
  0
LINE
  5
12D2FC
330
18
100
AcDbEntity
  8
姿図
100
AcDbLine
 10
9565.14884009641
 20
-4987.281751914653
 30
0.0
 11
9565.104718653509
 21
-4989.316283904571
 31
0.0
  0
LINE
  5
12D2FD
330
18
100
AcDbEntity
  8
姿図
100
AcDbLine
 10
9598.928680212631
 20
-4985.343918732248
 30
0.0
 11
9598.928680212631
 21
-4988.429125390357
 31
0.0
  0
LINE
  5
12D2FE
330
18
100
AcDbEntity
  8
姿図
100
AcDbLine
 10
9601.248981891364
 20
-4989.386985236461
 30
0.0
 11
9601.248981891364
 21
-4987.00487507158
 31
0.0
  0
SPLINE
  5
12D2FF
330
18
100
AcDbEntity
  8
姿図
100
AcDbSpline
210
0.0000000000000031
220
-0.0000000000001679
230
1.0
 70
     8
 71
     3
 72
    26
 73
    22
 74
     0
 42
0.0000000001
 43
0.0000000001
 40
5.061336783911484
 40
5.061336783911484
 40
5.061336783911484
 40
5.061336783911484
 40
5.424423750909745
 40
5.424423750909745
 40
5.597379662847512
 40
5.597379662847512
 40
5.659540508070472
 40
5.659540508070472
 40
5.681680215509581
 40
5.681680215509581
 40
5.695637545270647
 40
5.695637545270647
 40
5.707793438358561
 40
5.707793438358561
 40
5.722098011649362
 40
5.722098011649362
 40
5.746604578651287
 40
5.746604578651287
 40
5.804790417739905
 40
5.804790417739905
 40
5.95015367802265
 40
5.95015367802265
 40
5.95015367802265
 40
5.95015367802265
 10
9599.356207419909
 20
-4984.761903306044
 30
0.0000000000000141
 10
9599.334414839436
 20
-4984.754393407552
 30
-0.000000000000002
 10
9599.317419472475
 20
-4984.750375121147
 30
0.0000000000000061
 10
9599.299242727653
 20
-4984.74887847712
 30
0.0000000000000303
 10
9599.292286422217
 20
-4984.74890106861
 30
-0.000000000000002
 10
9599.285586910795
 20
-4984.751744296804
 30
0.0000000000000061
 10
9599.283739796758
 20
-4984.752903812037
 30
-0.000000000000002
 10
9599.282076140923
 20
-4984.755433123636
 30
0.0000000000000061
 10
9599.281663969994
 20
-4984.756269419493
 30
0.0000000000000141
 10
9599.281230444205
 20
-4984.757971274058
 30
0.0000000000000061
 10
9599.281120962483
 20
-4984.758711233538
 30
0.0000000000000222
 10
9599.281079118028
 20
-4984.760268691989
 30
0.0000000000000061
 10
9599.281126960731
 20
-4984.761017362643
 30
0.0000000000000061
 10
9599.281362949957
 20
-4984.762688858337
 30
0.0000000000000061
 10
9599.281568073164
 20
-4984.763574069659
 30
0.0000000000000141
 10
9599.282231384259
 20
-4984.765849010728
 30
0.0000000000000061
 10
9599.282786990912
 20
-4984.76722025568
 30
-0.000000000000002
 10
9599.284662523798
 20
-4984.771273731682
 30
0.0000000000000061
 10
9599.286396472058
 20
-4984.774062280099
 30
0.0000000000000061
 10
9599.292312361027
 20
-4984.782585804095
 30
0.0000000000000141
 10
9599.297730848471
 20
-4984.78856332885
 30
-0.000000000000002
 10
9599.302120799821
 20
-4984.793090388584
 30
-0.000000000000002
  0
SPLINE
  5
12D300
330
18
100
AcDbEntity
  8
姿図
100
AcDbSpline
210
-0.0000000000019494
220
-0.0000000000008988
230
1.0
 70
     8
 71
     3
 72
    10
 73
     6
 74
     0
 42
0.0000000001
 43
0.0000000001
 40
1.049331515521564
 40
1.049331515521564
 40
1.049331515521564
 40
1.049331515521564
 40
1.060416395005242
 40
1.060416395005242
 40
1.145877108045186
 40
1.145877108045186
 40
1.145877108045186
 40
1.145877108045186
 10
9600.639879450351
 20
-4986.549784913478
 30
0.0000000000000141
 10
9600.640130742476
 20
-4986.550530410728
 30
0.0000000000000141
 10
9600.640351504646
 20
-4986.551281135
 30
0.0000000000000141
 10
9600.642008124317
 20
-4986.557843240165
 30
-0.0000000000000101
 10
9600.641555155997
 20
-4986.563797867143
 30
0.0000000000000061
 10
9600.639902700697
 20
-4986.568874032506
 30
-0.000000000000002
  0
SPLINE
  5
12D301
330
18
100
AcDbEntity
  8
姿図
100
AcDbSpline
210
-0.0000000000000024
220
-0.0000000000000102
230
1.0
 70
    11
 71
     3
 72
    38
 73
    34
 74
     0
 42
0.0000000001
 43
0.0000000001
 40
0.0
 40
0.0
 40
0.0
 40
0.0
 40
0.4899871145494816
 40
0.4899871145494816
 40
0.979974229098963
 40
0.979974229098963
 40
1.469880324151053
 40
1.469880324151053
 40
1.959786419203144
 40
1.959786419203144
 40
2.449692514255234
 40
2.449692514255234
 40
2.939598609307322
 40
2.939598609307322
 40
3.429585723856796
 40
3.429585723856796
 40
3.919572838406268
 40
3.919572838406268
 40
4.409171093943909
 40
4.409171093943909
 40
4.89876934948155
 40
4.89876934948155
 40
5.388322667025808
 40
5.388322667025808
 40
5.877875984570068
 40
5.877875984570068
 40
6.36742930211432
 40
6.36742930211432
 40
6.856982619658573
 40
6.856982619658573
 40
7.346580875196199
 40
7.346580875196199
 40
7.836179130733825
 40
7.836179130733825
 40
7.836179130733825
 40
7.836179130733825
 10
9594.984346872784
 20
-4985.280781880548
 30
-0.000000000000002
 10
9594.984988757561
 20
-4985.325440610218
 30
0.0000000000000061
 10
9594.978703334716
 20
-4985.371487308356
 30
0.0000000000000061
 10
9594.951563752792
 20
-4985.452679682325
 30
-0.000000000000002
 10
9594.930703095764
 20
-4985.487827765051
 30
0.0000000000000061
 10
9594.882013829275
 20
-4985.539846344239
 30
0.0000000000000061
 10
9594.850939819945
 20
-4985.560186644836
 30
0.0000000000000061
 10
9594.782256752099
 20
-4985.581155004219
 30
0.0000000000000061
 10
9594.744640860026
 20
-4985.581784789648
 30
0.0000000000000141
 10
9594.673629496194
 20
-4985.566296119242
 30
-0.000000000000002
 10
9594.635507618956
 20
-4985.549146761695
 30
0.0000000000000141
 10
9594.564882573177
 20
-4985.497793160578
 30
0.0000000000000061
 10
9594.532385808697
 20
-4985.463587096669
 30
-0.000000000000002
 10
9594.480694730071
 20
-4985.389674020656
 30
0.0000000000000141
 10
9594.458057067816
 20
-4985.345038285612
 30
0.0000000000000222
 10
9594.427535048785
 20
-4985.251269029806
 30
-0.000000000000002
 10
9594.419657429991
 20
-4985.202133154498
 30
0.0000000000000141
 10
9594.418435258516
 20
-4985.112864461185
 30
0.0000000000000061
 10
9594.424998343498
 20
-4985.066779177143
 30
-0.000000000000002
 10
9594.453090206121
 20
-4984.985375840143
 30
0.0000000000000061
 10
9594.474612475222
 20
-4984.950060022134
 30
0.0000000000000141
 10
9594.524530404129
 20
-4984.897719568714
 30
0.0000000000000141
 10
9594.556251688379
 20
-4984.877204553318
 30
0.0000000000000061
 10
9594.625827774368
 20
-4984.855987103593
 30
0.0000000000000141
 10
9594.66367595394
 20
-4984.85528669434
 30
0.0000000000000141
 10
9594.734636183051
 20
-4984.870764211474
 30
0.0000000000000222
 10
9594.772479418569
 20
-4984.887974082274
 30
0.0000000000000141
 10
9594.842150691253
 20
-4984.939563522153
 30
0.0000000000000141
 10
9594.873985334464
 20
-4984.973941062635
 30
0.0000000000000061
 10
9594.924445569473
 20
-4985.048175537134
 30
0.0000000000000061
 10
9594.946435186022
 20
-4985.092981966492
 30
0.0000000000000141
 10
9594.976061794488
 20
-4985.186974589587
 30
0.0000000000000222
 10
9594.983705497414
 20
-4985.236158592527
 30
0.0000000000000061
 10
9594.984346872784
 20
-4985.280781880548
 30
-0.000000000000002
  0
SPLINE
  5
12D302
330
18
100
AcDbEntity
  8
姿図
100
AcDbSpline
210
-0.000000000000073
220
0.0000000000000536
230
-1.0
 70
     8
 71
     3
 72
    24
 73
    20
 74
     0
 42
0.0000000001
 43
0.0000000001
 40
9.158211213992672
 40
9.158211213992672
 40
9.158211213992672
 40
9.158211213992672
 40
9.170191443583112
 40
9.170191443583112
 40
9.737477062085199
 40
9.737477062085199
 40
10.30476268058729
 40
10.30476268058729
 40
10.87204829908938
 40
10.87204829908938
 40
11.43933391759147
 40
11.43933391759147
 40
12.01567227050256
 40
12.01567227050256
 40
12.59201062341365
 40
12.59201062341365
 40
13.16834897632474
 40
13.16834897632474
 40
13.72927459805347
 40
13.72927459805347
 40
13.72927459805347
 40
13.72927459805347
 10
9598.463001764015
 20
-4981.59738077225
 30
0.0000000000000222
 10
9598.46302457686
 20
-4981.598476713827
 30
0.0000000000000141
 10
9598.463046185887
 20
-4981.599571381115
 30
0.0000000000000141
 10
9598.46403303703
 20
-4981.652438074135
 30
0.0000000000000303
 10
9598.462334590772
 20
-4981.704771183753
 30
0.0000000000000141
 10
9598.452947041
 20
-4981.806162309207
 30
0.0000000000000141
 10
9598.445259880508
 20
-4981.855222296145
 30
-0.000000000000002
 10
9598.424151927565
 20
-4981.946462662136
 30
0.0000000000000061
 10
9598.410711730144
 20
-4981.988719826185
 30
0.0000000000000061
 10
9598.379115605659
 20
-4982.06390448017
 30
0.0000000000000303
 10
9598.3609553302
 20
-4982.096829202864
 30
-0.000000000000002
 10
9598.321521543146
 20
-4982.152568129419
 30
-0.000000000000002
 10
9598.298853581852
 20
-4982.177126199182
 30
0.0000000000000141
 10
9598.248954483755
 20
-4982.216193377891
 30
0.0000000000000141
 10
9598.221722847105
 20
-4982.230707983879
 30
0.0000000000000141
 10
9598.164350948971
 20
-4982.248449857421
 30
0.0000000000000061
 10
9598.134164595949
 20
-4982.251692269199
 30
0.0000000000000061
 10
9598.073724312813
 20
-4982.247349515173
 30
-0.000000000000002
 10
9598.043493269114
 20
-4982.240052248344
 30
0.0000000000000141
 10
9598.013973334722
 20
-4982.228577631205
 30
0.0000000000000061
  0
SPLINE
  5
12D303
330
18
100
AcDbEntity
  8
姿図
100
AcDbSpline
210
-0.0000000000036047
220
-0.0000000000011675
230
1.0
 70
     8
 71
     3
 72
    10
 73
     6
 74
     0
 42
0.0000000001
 43
0.0000000001
 40
0.0588189760599532
 40
0.0588189760599532
 40
0.0588189760599532
 40
0.0588189760599532
 40
0.3767108973350863
 40
0.3767108973350863
 40
0.456659258613309
 40
0.456659258613309
 40
0.456659258613309
 40
0.456659258613309
 10
9580.064944578907
 20
-4982.706392284491
 30
0.0000000000000141
 10
9580.066884862295
 20
-4982.736072848836
 30
-0.000000000000002
 10
9580.074069750967
 20
-4982.766537386811
 30
0.0000000000000061
 10
9580.089444537893
 20
-4982.801715284073
 30
0.0000000000000222
 10
9580.092862025576
 20
-4982.808635026239
 30
-0.0000000000000101
 10
9580.096538627769
 20
-4982.815390300659
 30
-0.000000000000002
  0
SPLINE
  5
12D304
330
18
100
AcDbEntity
  8
姿図
100
AcDbSpline
210
-0.0000000000000006
220
0.0000000000000057
230
1.0
 70
    11
 71
     3
 72
    38
 73
    34
 74
     0
 42
0.0000000001
 43
0.0000000001
 40
0.0
 40
0.0
 40
0.0
 40
0.0
 40
0.4899871145494814
 40
0.4899871145494814
 40
0.9799742290989627
 40
0.9799742290989627
 40
1.469880324151051
 40
1.469880324151051
 40
1.95978641920314
 40
1.95978641920314
 40
2.44969251425523
 40
2.44969251425523
 40
2.939598609307319
 40
2.939598609307319
 40
3.429585723856791
 40
3.429585723856791
 40
3.919572838406263
 40
3.919572838406263
 40
4.409171093943906
 40
4.409171093943906
 40
4.898769349481548
 40
4.898769349481548
 40
5.388322667025804
 40
5.388322667025804
 40
5.87787598457006
 40
5.87787598457006
 40
6.367429302114317
 40
6.367429302114317
 40
6.856982619658572
 40
6.856982619658572
 40
7.346580875196196
 40
7.346580875196196
 40
7.836179130733821
 40
7.836179130733821
 40
7.836179130733821
 40
7.836179130733821
 10
9577.340383931032
 20
-4984.368361640736
 30
0.0000000000000222
 10
9577.340072098584
 20
-4984.412971050936
 30
0.0000000000000061
 10
9577.330942991695
 20
-4984.46132113062
 30
0.0000000000000061
 10
9577.294593705175
 20
-4984.552000598291
 30
0.0000000000000061
 10
9577.267377165032
 20
-4984.594332820305
 30
0.0000000000000061
 10
9577.204859935056
 20
-4984.662968902338
 30
0.0000000000000061
 10
9577.165394016914
 20
-4984.693849931066
 30
0.0000000000000061
 10
9577.079219156642
 20
-4984.737958593785
 30
0.0000000000000141
 10
9577.032513442748
 20
-4984.751188493159
 30
0.0000000000000061
 10
9576.945181659571
 20
-4984.759360919728
 30
0.0000000000000141
 10
9576.898742923184
 20
-4984.754847390861
 30
0.0000000000000061
 10
9576.813592726203
 20
-4984.726771166711
 30
0.0000000000000061
 10
9576.774877509171
 20
-4984.703206255465
 30
0.0000000000000222
 10
9576.713944152347
 20
-4984.646122563844
 30
0.0000000000000061
 10
9576.687665229462
 20
-4984.608796397209
 30
0.0000000000000222
 10
9576.653100648675
 20
-4984.524752982895
 30
0.0000000000000222
 10
9576.644811646469
 20
-4984.478032873563
 30
0.0000000000000141
 10
9576.645510192475
 20
-4984.388842425206
 30
0.0000000000000141
 10
9576.654531235304
 20
-4984.340428416711
 30
-0.0000000000000101
 10
9576.690428035089
 20
-4984.249463302172
 30
-0.000000000000002
 10
9576.717307404122
 20
-4984.206914863904
 30
0.0000000000000061
 10
9576.779174427199
 20
-4984.137870469467
 30
0.0000000000000141
 10
9576.818285771862
 20
-4984.106770987786
 30
0.0000000000000141
 10
9576.903936053517
 20
-4984.06235817908
 30
0.0000000000000141
 10
9576.95047847045
 20
-4984.049047346677
 30
0.0000000000000061
 10
9577.0377473667
 20
-4984.040880805014
 30
0.0000000000000061
 10
9577.084292392315
 20
-4984.045480601638
 30
-0.000000000000002
 10
9577.169892449756
 20
-4984.073867963827
 30
0.0000000000000141
 10
9577.208943981812
 20
-4984.097653036634
 30
-0.000000000000002
 10
9577.270524863042
 20
-4984.15514529168
 30
-0.000000000000002
 10
9577.29715764133
 20
-4984.192686113273
 30
0.0000000000000141
 10
9577.332244649351
 20
-4984.27700862949
 30
0.0000000000000222
 10
9577.340695516008
 20
-4984.323787633041
 30
0.0000000000000061
 10
9577.340383931032
 20
-4984.368361640736
 30
0.0000000000000222
  0
SPLINE
  5
12D305
330
18
100
AcDbEntity
  8
姿図
100
AcDbSpline
210
0.0000000000001221
220
-0.0000000000001134
230
1.0
 70
     8
 71
     3
 72
    14
 73
    10
 74
     0
 42
0.0000000001
 43
0.0000000001
 40
1.516995086374685
 40
1.516995086374685
 40
1.516995086374685
 40
1.516995086374685
 40
1.894466177168911
 40
1.894466177168911
 40
2.274814964391461
 40
2.274814964391461
 40
2.651000233863916
 40
2.651000233863916
 40
2.975314369919598
 40
2.975314369919598
 40
2.975314369919598
 40
2.975314369919598
 10
9574.807359362429
 20
-4978.371152179651
 30
0.0000000000000061
 10
9574.775653365383
 20
-4978.375461744937
 30
0.0000000000000061
 10
9574.741836288064
 20
-4978.386847274999
 30
0.0000000000000061
 10
9574.679214147733
 20
-4978.423128848057
 30
0.0000000000000222
 10
9574.650447094724
 20
-4978.448133497678
 30
0.0000000000000061
 10
9574.605113288276
 20
-4978.502882494954
 30
0.0000000000000222
 10
9574.585440909912
 20
-4978.536179380393
 30
-0.000000000000002
 10
9574.560887172195
 20
-4978.602015899381
 30
0.0000000000000061
 10
9574.554270291674
 20
-4978.634032272523
 30
0.0000000000000141
 10
9574.552505860609
 20
-4978.664229363481
 30
-0.000000000000002
  0
SPLINE
  5
12D306
330
18
100
AcDbEntity
  8
姿図
100
AcDbSpline
 70
     4
 71
     2
 72
     6
 73
     3
 74
     0
 42
0.0000000001
 43
0.0000000001
 40
18.67224162152367
 40
18.67224162152367
 40
18.67224162152367
 40
24.03177626439027
 40
24.03177626439027
 40
24.03177626439027
 10
9565.841649623786
 20
-4986.125367804429
 30
-0.0000000000000101
 41
1.000007196260522
 10
9565.825048824397
 20
-4985.390025796752
 30
0.0000000000000061
 41
1.000006449331704
 10
9565.808415078832
 20
-4984.6531664428
 30
0.0000000000000141
 41
1.000004680735829
  0
SPLINE
  5
12D307
330
18
100
AcDbEntity
  8
姿図
100
AcDbSpline
210
-0.0000000000000245
220
0.0000000000000051
230
1.0
 70
     8
 71
     3
 72
    24
 73
    20
 74
     0
 42
0.0000000001
 43
0.0000000001
 40
0.0132670700154636
 40
0.0132670700154636
 40
0.0132670700154636
 40
0.0132670700154636
 40
0.5643354427835523
 40
0.5643354427835523
 40
1.128670885567105
 40
1.128670885567105
 40
1.693006328350656
 40
1.693006328350656
 40
2.257341771134209
 40
2.257341771134209
 40
2.838611106649443
 40
2.838611106649443
 40
3.419880442164677
 40
3.419880442164677
 40
4.001149777679911
 40
4.001149777679911
 40
4.582419113195146
 40
4.582419113195146
 40
4.59951105823255
 40
4.59951105823255
 40
4.59951105823255
 40
4.59951105823255
 10
9565.808415078837
 20
-4984.653166442804
 30
0.0000000000000141
 10
9565.809552992719
 20
-4984.703574962299
 30
0.0000000000000061
 10
9565.80997721204
 20
-4984.754311202499
 30
-0.000000000000002
 10
9565.809187157416
 20
-4984.853561845206
 30
0.0000000000000222
 10
9565.807933701854
 20
-4984.901994407285
 30
0.0000000000000222
 10
9565.803843536849
 20
-4984.991749906559
 30
0.0000000000000061
 10
9565.801005353094
 20
-4985.033145980264
 30
-0.000000000000002
 10
9565.794141600056
 20
-4985.106462932673
 30
0.0000000000000061
 10
9565.790118299725
 20
-4985.138380618749
 30
0.0000000000000141
 10
9565.781367506296
 20
-4985.19243221401
 30
-0.000000000000002
 10
9565.776312453058
 20
-4985.216149757198
 30
0.0000000000000061
 10
9565.765401163364
 20
-4985.253173091661
 30
-0.000000000000002
 10
9565.75954808189
 20
-4985.266484070372
 30
0.0000000000000222
 10
9565.747580036276
 20
-4985.281485472055
 30
-0.000000000000002
 10
9565.741457779411
 20
-4985.28318828599
 30
0.0000000000000061
 10
9565.729458441303
 20
-4985.27544091977
 30
0.0000000000000141
 10
9565.72358186821
 20
-4985.26598690189
 30
0.0000000000000303
 10
9565.717885799184
 20
-4985.251677127036
 30
0.0000000000000141
 10
9565.717723050537
 20
-4985.251263754096
 30
0.0000000000000222
 10
9565.717560265357
 20
-4985.250845749893
 30
0.0000000000000061
  0
SPLINE
  5
12D308
330
18
100
AcDbEntity
  8
姿図
100
AcDbSpline
210
0.0000000000000039
220
-0.0000000000000019
230
1.0
 70
    11
 71
     3
 72
    38
 73
    34
 74
     0
 42
0.0000000001
 43
0.0000000001
 40
0.0
 40
0.0
 40
0.0
 40
0.0
 40
0.4899871145494816
 40
0.4899871145494816
 40
0.979974229098963
 40
0.979974229098963
 40
1.469880324151051
 40
1.469880324151051
 40
1.95978641920314
 40
1.95978641920314
 40
2.44969251425523
 40
2.44969251425523
 40
2.939598609307319
 40
2.939598609307319
 40
3.429585723856791
 40
3.429585723856791
 40
3.919572838406263
 40
3.919572838406263
 40
4.409171093943906
 40
4.409171093943906
 40
4.898769349481551
 40
4.898769349481551
 40
5.388322667025808
 40
5.388322667025808
 40
5.877875984570062
 40
5.877875984570062
 40
6.367429302114317
 40
6.367429302114317
 40
6.856982619658572
 40
6.856982619658572
 40
7.346580875196195
 40
7.346580875196195
 40
7.836179130733819
 40
7.836179130733819
 40
7.836179130733819
 40
7.836179130733819
 10
9565.465384834306
 20
-4987.866937622181
 30
0.0000000000000141
 10
9565.46443111708
 20
-4987.911736142515
 30
0.0000000000000061
 10
9565.461587433041
 20
-4987.961875307312
 30
0.0000000000000061
 10
9565.452377728444
 20
-4988.059362620646
 30
0.0000000000000141
 10
9565.446021845326
 20
-4988.106711544539
 30
0.0000000000000141
 10
9565.432193881838
 20
-4988.186755831215
 30
0.0000000000000061
 10
9565.423801973031
 20
-4988.224788218907
 30
-0.000000000000002
 10
9565.4063101806
 20
-4988.284387711311
 30
0.0000000000000061
 10
9565.397220358782
 20
-4988.30595509548
 30
-0.0000000000000101
 10
9565.380899939437
 20
-4988.32961619245
 30
0.0000000000000061
 10
9565.372583080286
 20
-4988.333284750904
 30
0.0000000000000141
 10
9565.358057929085
 20
-4988.320102938814
 30
0.0000000000000061
 10
9565.351839476528
 20
-4988.303252431907
 30
0.0000000000000061
 10
9565.342597198327
 20
-4988.256655032468
 30
-0.000000000000002
 10
9565.338955937704
 20
-4988.223799816277
 30
0.0000000000000141
 10
9565.334913375947
 20
-4988.145525438139
 30
0.0000000000000222
 10
9565.334501992536
 20
-4988.100105420865
 30
0.0000000000000141
 10
9565.336422710016
 20
-4988.010523577944
 30
0.0000000000000222
 10
9565.338880667859
 20
-4987.960394271038
 30
0.0000000000000141
 10
9565.346685605025
 20
-4987.862898838928
 30
0.0000000000000141
 10
9565.352042704956
 20
-4987.815533329424
 30
0.0000000000000061
 10
9565.363991799125
 20
-4987.735458648292
 30
0.0000000000000141
 10
9565.37138185954
 20
-4987.697410496743
 30
0.0000000000000141
 10
9565.387456055203
 20
-4987.63779707616
 30
-0.000000000000002
 10
9565.396150292563
 20
-4987.616232272184
 30
0.0000000000000141
 10
9565.412458959709
 20
-4987.592588213392
 30
-0.000000000000002
 10
9565.421160749805
 20
-4987.588932520033
 30
0.0000000000000141
 10
9565.43708953456
 20
-4987.60214850395
 30
0.0000000000000061
 10
9565.444306423401
 20
-4987.619019721541
 30
-0.000000000000002
 10
9565.45542706962
 20
-4987.665648242207
 30
0.0000000000000141
 10
9565.460070231365
 20
-4987.698515523676
 30
-0.000000000000002
 10
9565.465530630923
 20
-4987.776779071377
 30
0.0000000000000061
 10
9565.466337794655
 20
-4987.822174654437
 30
0.0000000000000222
 10
9565.465384834306
 20
-4987.866937622181
 30
0.0000000000000141
  0
ARC
  5
12D309
330
18
100
AcDbEntity
  8
姿図
100
AcDbCircle
 10
9597.265504334114
 20
-5047.392633567818
 30
0.0
 40
39.33120301649688
100
AcDbArc
 50
106.8206178016646
 51
121.2112053710963
  0
ARC
  5
12D30A
330
18
100
AcDbEntity
  8
姿図
100
AcDbCircle
 10
9623.28045922397
 20
-5057.581008316002
 30
-0.0000000000000061
 40
50.70022945072626
100
AcDbArc
 50
123.5328987203788
 51
126.6224344031526
  0
ARC
  5
12D30B
330
18
100
AcDbEntity
  8
姿図
100
AcDbCircle
 10
9614.10958689909
 20
-4971.473725601741
 30
0.0
 40
47.55327128227507
100
AcDbArc
 50
233.5901345256645
 51
239.6115647317654
  0
ARC
  5
12D30C
330
18
100
AcDbEntity
  8
姿図
100
AcDbCircle
 10
9614.10958689909
 20
-4971.473725601741
 30
0.0
 40
47.55327128227507
100
AcDbArc
 50
243.2468135642899
 51
246.6642495118248
  0
ARC
  5
12D30D
330
18
100
AcDbEntity
  8
姿図
100
AcDbCircle
 10
9595.201912982357
 20
-5015.227995571439
 30
0.0
 40
0.1152954029574709
100
AcDbArc
 50
307.9750042488932
 51
52.02499575110675
  0
ARC
  5
12D30E
330
18
100
AcDbEntity
  8
姿図
100
AcDbCircle
 10
9623.28045922397
 20
-5057.581008316002
 30
-0.0000000000000061
 40
50.70022945072626
100
AcDbArc
 50
129.4874917266434
 51
135.2542785562878
  0
ENDSEC
  0
SECTION
  2
OBJECTS
  0
DICTIONARY
  5
C
330
0
100
AcDbDictionary
281
     1
  3
ACAD_COLOR
350
12D549
  3
ACAD_GROUP
350
D
  3
ACAD_IMAGE_VARS
350
12D4F6
  3
ACAD_LAYOUT
350
617
  3
ACAD_MATERIAL
350
12D51F
  3
ACAD_MLEADERSTYLE
350
12D54C
  3
ACAD_MLINESTYLE
350
E
  3
ACAD_PLOTSETTINGS
350
618
  3
ACAD_PLOTSTYLENAME
350
615
  3
ACAD_SCALELIST
350
A36
  3
ACAD_TABLESTYLE
350
12D54A
  3
ACAD_VISUALSTYLE
350
12D538
  3
AcadDim
350
AB4
  3
ACDB_RECOMPOSE_DATA
350
12D554
  3
AcDbVariableDictionary
350
6DE
  3
APPDATA
350
12D4F5
  3
DWGPROPS
350
12D555
  0
DICTIONARY
  5
8BF
330
2
100
AcDbDictionary
280
     1
281
     1
  3
ACAD_LAYERSTATES
360
8C0
  0
DICTIONARY
  5
A60
330
F
100
AcDbDictionary
280
     1
281
     1
  3
ADSK_XREC_LAYER_RECONCILED
360
A61
  0
DICTIONARY
  5
A66
330
34
100
AcDbDictionary
280
     1
281
     1
  3
ADSK_XREC_LAYER_RECONCILED
360
A67
  0
DICTIONARY
  5
A6E
330
2F4
100
AcDbDictionary
280
     1
281
     1
  3
ADSK_XREC_LAYER_RECONCILED
360
A6F
  0
DICTIONARY
  5
A72
330
305
100
AcDbDictionary
280
     1
281
     1
  3
ADSK_XREC_LAYER_RECONCILED
360
A73
  0
DICTIONARY
  5
143F
330
18
100
AcDbDictionary
280
     1
281
     1
  3
ACAD_SORTENTS
360
1440
  0
DICTIONARY
  5
12D549
102
{ACAD_REACTORS
330
C
102
}
330
C
100
AcDbDictionary
281
     1
  0
DICTIONARY
  5
D
102
{ACAD_REACTORS
330
C
102
}
330
C
100
AcDbDictionary
281
     1
  0
RASTERVARIABLES
  5
12D4F6
102
{ACAD_REACTORS
330
C
102
}
330
C
100
AcDbRasterVariables
 90
        0
 70
     1
 71
     1
 72
     0
  0
DICTIONARY
  5
617
102
{ACAD_REACTORS
330
C
102
}
330
C
100
AcDbDictionary
281
     1
  3
Model
350
619
  3
ﾚｲｱｳﾄ1
350
61A
  0
DICTIONARY
  5
12D51F
102
{ACAD_REACTORS
330
C
102
}
330
C
100
AcDbDictionary
281
     1
  3
ByBlock
350
12D528
  3
ByLayer
350
12D520
  3
Global
350
12D530
  0
DICTIONARY
  5
12D54C
102
{ACAD_REACTORS
330
C
102
}
330
C
100
AcDbDictionary
281
     1
  3
Standard
350
12D54D
  0
DICTIONARY
  5
E
102
{ACAD_REACTORS
330
C
102
}
330
C
100
AcDbDictionary
281
     1
  3
STANDARD
350
1B
  0
DICTIONARY
  5
618
102
{ACAD_REACTORS
330
C
102
}
330
C
100
AcDbDictionary
281
     1
  0
ACDBDICTIONARYWDFLT
  5
615
102
{ACAD_REACTORS
330
C
102
}
330
C
100
AcDbDictionary
281
     1
  3
Normal
350
616
100
AcDbDictionaryWithDefault
340
616
  0
DICTIONARY
  5
A36
102
{ACAD_REACTORS
330
C
102
}
330
C
100
AcDbDictionary
281
     1
  3
A0
350
A37
  3
A1
350
A38
  3
A2
350
A39
  3
A3
350
A3A
  3
A4
350
A3B
  3
A5
350
A3C
  3
A6
350
A3D
  3
A7
350
A3E
  3
A8
350
A3F
  3
A9
350
A40
  3
B0
350
A41
  3
B1
350
A42
  3
B2
350
A43
  3
B3
350
A44
  3
B4
350
A45
  3
B5
350
A46
  3
B6
350
A47
  3
B7
350
A48
  3
B8
350
A49
  3
B9
350
A4A
  3
C0
350
A4B
  3
C1
350
A4C
  3
C2
350
A4D
  3
C3
350
A4E
  3
C4
350
A4F
  3
C5
350
A50
  3
C6
350
A51
  3
C7
350
A52
  3
C8
350
A53
  3
C9
350
A54
  3
D0
350
A55
  3
D1
350
A56
  3
D2
350
A57
  0
DICTIONARY
  5
12D54A
102
{ACAD_REACTORS
330
C
102
}
330
C
100
AcDbDictionary
281
     1
  3
Standard
350
12D54B
  0
DICTIONARY
  5
12D538
102
{ACAD_REACTORS
330
C
102
}
330
C
100
AcDbDictionary
281
     1
  3
2dWireframe
350
12D53E
  3
3D Hidden
350
12D540
  3
3dWireframe
350
12D53F
  3
Basic
350
12D53D
  3
Brighten
350
12D544
  3
ColorChange
350
12D548
  3
Conceptual
350
12D541
  3
Dim
350
12D543
  3
Facepattern
350
12D547
  3
Flat
350
12D539
  3
FlatWithEdges
350
12D53A
  3
Gouraud
350
12D53B
  3
GouraudWithEdges
350
12D53C
  3
Linepattern
350
12D546
  3
Realistic
350
12D542
  3
Thicken
350
12D545
  0
XRECORD
  5
AB4
102
{ACAD_REACTORS
330
C
102
}
330
C
100
AcDbXrecord
280
     1
 90
   990106
  3
OPEN
 60
     0
 61
     0
 62
     1
 63
     3
 64
     1
 65
     0
 66
     0
 67
     3
 68
     1
 69
     0
 70
     0
 71
     0
 72
     0
 40
0.0
170
     2
  0
XRECORD
  5
12D554
102
{ACAD_REACTORS
330
C
102
}
330
C
100
AcDbXrecord
280
     1
 90
        1
330
12D54B
  0
DICTIONARY
  5
6DE
102
{ACAD_REACTORS
330
C
102
}
330
C
100
AcDbDictionary
281
     1
  3
CANNOSCALE
350
12D551
  3
CMLEADERSTYLE
350
12D550
  3
CTABLESTYLE
350
12D54F
  3
DIMASSOC
350
6DF
  3
INDEXCTL
350
A93
  3
PROJECTNAME
350
6E0
  3
SORTENTS
350
A92
  0
DICTIONARY
  5
12D4F5
102
{ACAD_REACTORS
330
C
102
}
330
C
100
AcDbDictionary
281
     1
  0
XRECORD
  5
12D555
102
{ACAD_REACTORS
330
C
102
}
330
C
100
AcDbXrecord
280
     1
  1
DWGPROPS COOKIE
  2

  3

  4

  6

  7

  8
SPAX
  9

300
=
301
=
302
=
303
=
304
=
305
=
306
=
307
=
308
=
309
=
 40
48.80696695601852
 41
2448636.61962963
 42
2457337.791574097
  1

 90
        0
  0
DICTIONARY
  5
8C0
102
{ACAD_REACTORS
330
8BF
102
}
330
8BF
100
AcDbDictionary
281
     1
  0
XRECORD
  5
A61
102
{ACAD_REACTORS
330
A60
102
}
330
A60
100
AcDbXrecord
280
     1
290
     1
  0
XRECORD
  5
A67
102
{ACAD_REACTORS
330
A66
102
}
330
A66
100
AcDbXrecord
280
     1
290
     1
  0
XRECORD
  5
A6F
102
{ACAD_REACTORS
330
A6E
102
}
330
A6E
100
AcDbXrecord
280
     1
290
     1
  0
XRECORD
  5
A73
102
{ACAD_REACTORS
330
A72
102
}
330
A72
100
AcDbXrecord
280
     1
290
     1
  0
SORTENTSTABLE
  5
1440
102
{ACAD_REACTORS
330
143F
102
}
330
143F
100
AcDbSortentsTable
330
18
331
F6D77
  5
F6D77
331
D0CC6
  5
D0CC6
331
F6D78
  5
F6D78
  0
LAYOUT
  5
619
102
{ACAD_XDICTIONARY
360
12D556
102
}
102
{ACAD_REACTORS
330
617
102
}
330
617
100
AcDbPlotSettings
  1

  2
JUST PDF 2
  4
A4
  6

 40
3.174999952316283
 41
3.174999952316283
 42
3.175003051757812
 43
3.17498779296875
 44
209.8886566162109
 45
297.0530090332031
 46
14.27171755861491
 47
9.855173074625783
 48
9535.330246266942
 49
-5472.288030791531
140
9885.320683256754
141
-4930.302680514198
142
1.0
143
2.0
 70
  3748
 72
     1
 73
     0
 74
     4
  7
spax form.ctb
 75
     0
147
2.049951397771953
148
-9535.330246266942
149
5472.288030791531
100
AcDbLayout
  1
Model
 70
     1
 71
     0
 10
0.0
 20
0.0
 11
12.0
 21
9.0
 12
0.0
 22
0.0
 32
0.0
 14
9541.97148292877
 24
-5064.376932514987
 34
-0.0000000000000122
 15
9611.30481626211
 25
-4975.639168873628
 35
0.0000000000000222
146
0.0
 13
0.0
 23
0.0
 33
0.0
 16
1.0
 26
0.0
 36
0.0
 17
0.0
 27
1.0
 37
0.0
 76
     0
330
18
331
12A532
1001
ACAD_PSEXT
1000
JUST PDF 2
1000
JUST PDF 2
1000
JUST PDF 2 Port:
1000

1070
     0
  0
LAYOUT
  5
61A
102
{ACAD_XDICTIONARY
360
12D558
102
}
102
{ACAD_REACTORS
330
617
102
}
330
617
100
AcDbPlotSettings
  1

  2
Canon LASER SHOT LBP-750
  4

  6

 40
0.0
 41
0.0
 42
0.0
 43
0.0
 44
0.0
 45
0.0
 46
0.0
 47
0.0
 48
0.0
 49
0.0
140
0.0
141
0.0
142
1.0
143
1.0
 70
   688
 72
     0
 73
     0
 74
     5
  7
spax form.ctb
 75
    16
147
1.0
148
0.0
149
0.0
100
AcDbLayout
  1
ﾚｲｱｳﾄ1
 70
     0
 71
     1
 10
0.0
 20
0.0
 11
0.0
 21
0.0
 12
0.0
 22
0.0
 32
0.0
 14
1.000000000000000E+20
 24
1.000000000000000E+20
 34
1.000000000000000E+20
 15
-1.000000000000000E+20
 25
-1.000000000000000E+20
 35
-1.000000000000000E+20
146
0.0
 13
0.0
 23
0.0
 33
0.0
 16
1.0
 26
0.0
 36
0.0
 17
0.0
 27
1.0
 37
0.0
 76
     0
330
15
  0
MATERIAL
  5
12D528
102
{ACAD_XDICTIONARY
360
12D529
102
}
102
{ACAD_REACTORS
330
12D51F
102
}
330
12D51F
100
AcDbMaterial
  1
ByBlock
 72
     0
 43
0.0208333333333333
 43
0.0
 43
0.0
 43
0.0
 43
0.0
 43
0.0208333333333333
 43
0.0
 43
0.0
 43
0.0
 43
0.0
 43
1.0
 43
0.0
 43
0.0
 43
0.0
 43
0.0
 43
1.0
 77
     0
 47
0.0208333333333333
 47
0.0
 47
0.0
 47
0.0
 47
0.0
 47
0.0208333333333333
 47
0.0
 47
0.0
 47
0.0
 47
0.0
 47
1.0
 47
0.0
 47
0.0
 47
0.0
 47
0.0
 47
1.0
171
     0
 49
0.0208333333333333
 49
0.0
 49
0.0
 49
0.0
 49
0.0
 49
0.0208333333333333
 49
0.0
 49
0.0
 49
0.0
 49
0.0
 49
1.0
 49
0.0
 49
0.0
 49
0.0
 49
0.0
 49
1.0
175
     0
142
0.0208333333333333
142
0.0
142
0.0
142
0.0
142
0.0
142
0.0208333333333333
142
0.0
142
0.0
142
0.0
142
0.0
142
1.0
142
0.0
142
0.0
142
0.0
142
0.0
142
1.0
179
     0
144
0.0208333333333333
144
0.0
144
0.0
144
0.0
144
0.0
144
0.0208333333333333
144
0.0
144
0.0
144
0.0
144
0.0
144
1.0
144
0.0
144
0.0
144
0.0
144
0.0
144
1.0
147
0.0208333333333333
147
0.0
147
0.0
147
0.0
147
0.0
147
0.0208333333333333
147
0.0
147
0.0
147
0.0
147
0.0
147
1.0
147
0.0
147
0.0
147
0.0
147
0.0
147
1.0
  0
MATERIAL
  5
12D520
102
{ACAD_XDICTIONARY
360
12D521
102
}
102
{ACAD_REACTORS
330
12D51F
102
}
330
12D51F
100
AcDbMaterial
  1
ByLayer
 72
     0
 43
0.0208333333333333
 43
0.0
 43
0.0
 43
0.0
 43
0.0
 43
0.0208333333333333
 43
0.0
 43
0.0
 43
0.0
 43
0.0
 43
1.0
 43
0.0
 43
0.0
 43
0.0
 43
0.0
 43
1.0
 77
     0
 47
0.0208333333333333
 47
0.0
 47
0.0
 47
0.0
 47
0.0
 47
0.0208333333333333
 47
0.0
 47
0.0
 47
0.0
 47
0.0
 47
1.0
 47
0.0
 47
0.0
 47
0.0
 47
0.0
 47
1.0
171
     0
 49
0.0208333333333333
 49
0.0
 49
0.0
 49
0.0
 49
0.0
 49
0.0208333333333333
 49
0.0
 49
0.0
 49
0.0
 49
0.0
 49
1.0
 49
0.0
 49
0.0
 49
0.0
 49
0.0
 49
1.0
175
     0
142
0.0208333333333333
142
0.0
142
0.0
142
0.0
142
0.0
142
0.0208333333333333
142
0.0
142
0.0
142
0.0
142
0.0
142
1.0
142
0.0
142
0.0
142
0.0
142
0.0
142
1.0
179
     0
144
0.0208333333333333
144
0.0
144
0.0
144
0.0
144
0.0
144
0.0208333333333333
144
0.0
144
0.0
144
0.0
144
0.0
144
1.0
144
0.0
144
0.0
144
0.0
144
0.0
144
1.0
147
0.0208333333333333
147
0.0
147
0.0
147
0.0
147
0.0
147
0.0208333333333333
147
0.0
147
0.0
147
0.0
147
0.0
147
1.0
147
0.0
147
0.0
147
0.0
147
0.0
147
1.0
  0
MATERIAL
  5
12D530
102
{ACAD_XDICTIONARY
360
12D531
102
}
102
{ACAD_REACTORS
330
12D51F
102
}
330
12D51F
100
AcDbMaterial
  1
Global
 72
     0
 43
0.0208333333333333
 43
0.0
 43
0.0
 43
0.0
 43
0.0
 43
0.0208333333333333
 43
0.0
 43
0.0
 43
0.0
 43
0.0
 43
1.0
 43
0.0
 43
0.0
 43
0.0
 43
0.0
 43
1.0
 77
     0
 47
0.0208333333333333
 47
0.0
 47
0.0
 47
0.0
 47
0.0
 47
0.0208333333333333
 47
0.0
 47
0.0
 47
0.0
 47
0.0
 47
1.0
 47
0.0
 47
0.0
 47
0.0
 47
0.0
 47
1.0
171
     0
 49
0.0208333333333333
 49
0.0
 49
0.0
 49
0.0
 49
0.0
 49
0.0208333333333333
 49
0.0
 49
0.0
 49
0.0
 49
0.0
 49
1.0
 49
0.0
 49
0.0
 49
0.0
 49
0.0
 49
1.0
175
     0
142
0.0208333333333333
142
0.0
142
0.0
142
0.0
142
0.0
142
0.0208333333333333
142
0.0
142
0.0
142
0.0
142
0.0
142
1.0
142
0.0
142
0.0
142
0.0
142
0.0
142
1.0
179
     0
144
0.0208333333333333
144
0.0
144
0.0
144
0.0
144
0.0
144
0.0208333333333333
144
0.0
144
0.0
144
0.0
144
0.0
144
1.0
144
0.0
144
0.0
144
0.0
144
0.0
144
1.0
147
0.0208333333333333
147
0.0
147
0.0
147
0.0
147
0.0
147
0.0208333333333333
147
0.0
147
0.0
147
0.0
147
0.0
147
1.0
147
0.0
147
0.0
147
0.0
147
0.0
147
1.0
  0
MLEADERSTYLE
  5
12D54D
102
{ACAD_REACTORS
330
12D54C
102
}
330
12D54C
100
AcDbMLeaderStyle
170
     2
171
     1
172
     0
 90
        2
 40
0.0
 41
0.0
173
     1
 91
-1056964608
340
12
 92
       -2
290
     1
 42
0.09
291
     1
 43
0.36
  3
Standard
 44
0.18
300

342
10
174
     1
178
     6
175
     1
176
     0
 93
-1056964608
 45
0.18
292
     0
297
     0
 46
0.18
 94
-1056964608
 47
1.0
 49
1.0
140
1.0
293
     1
141
0.0
294
     1
177
     0
142
1.0
295
     0
296
     0
143
0.125
1001
ACAD_MLEADERVER
1070
     2
  0
MLINESTYLE
  5
1B
102
{ACAD_REACTORS
330
E
102
}
330
E
100
AcDbMlineStyle
  2
STANDARD
 70
     0
  3

 62
     0
 51
90.0
 52
90.0
 71
     2
 49
0.5
 62
   256
  6
BYLAYER
 49
-0.5
 62
   256
  6
BYLAYER
  0
ACDBPLACEHOLDER
  5
616
102
{ACAD_REACTORS
330
615
102
}
330
615
  0
SCALE
  5
A37
102
{ACAD_REACTORS
330
A36
102
}
330
A36
100
AcDbScale
 70
     0
300
1:1
140
1.0
141
1.0
290
     1
  0
SCALE
  5
A38
102
{ACAD_REACTORS
330
A36
102
}
330
A36
100
AcDbScale
 70
     0
300
1:2
140
1.0
141
2.0
290
     0
  0
SCALE
  5
A39
102
{ACAD_REACTORS
330
A36
102
}
330
A36
100
AcDbScale
 70
     0
300
1:4
140
1.0
141
4.0
290
     0
  0
SCALE
  5
A3A
102
{ACAD_REACTORS
330
A36
102
}
330
A36
100
AcDbScale
 70
     0
300
1:5
140
1.0
141
5.0
290
     0
  0
SCALE
  5
A3B
102
{ACAD_REACTORS
330
A36
102
}
330
A36
100
AcDbScale
 70
     0
300
1:8
140
1.0
141
8.0
290
     0
  0
SCALE
  5
A3C
102
{ACAD_REACTORS
330
A36
102
}
330
A36
100
AcDbScale
 70
     0
300
1:10
140
1.0
141
10.0
290
     0
  0
SCALE
  5
A3D
102
{ACAD_REACTORS
330
A36
102
}
330
A36
100
AcDbScale
 70
     0
300
1:16
140
1.0
141
16.0
290
     0
  0
SCALE
  5
A3E
102
{ACAD_REACTORS
330
A36
102
}
330
A36
100
AcDbScale
 70
     0
300
1:20
140
1.0
141
20.0
290
     0
  0
SCALE
  5
A3F
102
{ACAD_REACTORS
330
A36
102
}
330
A36
100
AcDbScale
 70
     0
300
1:30
140
1.0
141
30.0
290
     0
  0
SCALE
  5
A40
102
{ACAD_REACTORS
330
A36
102
}
330
A36
100
AcDbScale
 70
     0
300
1:40
140
1.0
141
40.0
290
     0
  0
SCALE
  5
A41
102
{ACAD_REACTORS
330
A36
102
}
330
A36
100
AcDbScale
 70
     0
300
1:50
140
1.0
141
50.0
290
     0
  0
SCALE
  5
A42
102
{ACAD_REACTORS
330
A36
102
}
330
A36
100
AcDbScale
 70
     0
300
1:100
140
1.0
141
100.0
290
     0
  0
SCALE
  5
A43
102
{ACAD_REACTORS
330
A36
102
}
330
A36
100
AcDbScale
 70
     0
300
2:1
140
2.0
141
1.0
290
     0
  0
SCALE
  5
A44
102
{ACAD_REACTORS
330
A36
102
}
330
A36
100
AcDbScale
 70
     0
300
4:1
140
4.0
141
1.0
290
     0
  0
SCALE
  5
A45
102
{ACAD_REACTORS
330
A36
102
}
330
A36
100
AcDbScale
 70
     0
300
8:1
140
8.0
141
1.0
290
     0
  0
SCALE
  5
A46
102
{ACAD_REACTORS
330
A36
102
}
330
A36
100
AcDbScale
 70
     0
300
10:1
140
10.0
141
1.0
290
     0
  0
SCALE
  5
A47
102
{ACAD_REACTORS
330
A36
102
}
330
A36
100
AcDbScale
 70
     0
300
100:1
140
100.0
141
1.0
290
     0
  0
SCALE
  5
A48
102
{ACAD_REACTORS
330
A36
102
}
330
A36
100
AcDbScale
 70
     0
300
1/128" = 1'-0"
140
0.0078125
141
12.0
290
     0
  0
SCALE
  5
A49
102
{ACAD_REACTORS
330
A36
102
}
330
A36
100
AcDbScale
 70
     0
300
1/64" = 1'-0"
140
0.015625
141
12.0
290
     0
  0
SCALE
  5
A4A
102
{ACAD_REACTORS
330
A36
102
}
330
A36
100
AcDbScale
 70
     0
300
1/32" = 1'-0"
140
0.03125
141
12.0
290
     0
  0
SCALE
  5
A4B
102
{ACAD_REACTORS
330
A36
102
}
330
A36
100
AcDbScale
 70
     0
300
1/16" = 1'-0"
140
0.0625
141
12.0
290
     0
  0
SCALE
  5
A4C
102
{ACAD_REACTORS
330
A36
102
}
330
A36
100
AcDbScale
 70
     0
300
3/32" = 1'-0"
140
0.09375
141
12.0
290
     0
  0
SCALE
  5
A4D
102
{ACAD_REACTORS
330
A36
102
}
330
A36
100
AcDbScale
 70
     0
300
1/8" = 1'-0"
140
0.125
141
12.0
290
     0
  0
SCALE
  5
A4E
102
{ACAD_REACTORS
330
A36
102
}
330
A36
100
AcDbScale
 70
     0
300
3/16" = 1'-0"
140
0.1875
141
12.0
290
     0
  0
SCALE
  5
A4F
102
{ACAD_REACTORS
330
A36
102
}
330
A36
100
AcDbScale
 70
     0
300
1/4" = 1'-0"
140
0.25
141
12.0
290
     0
  0
SCALE
  5
A50
102
{ACAD_REACTORS
330
A36
102
}
330
A36
100
AcDbScale
 70
     0
300
3/8" = 1'-0"
140
0.375
141
12.0
290
     0
  0
SCALE
  5
A51
102
{ACAD_REACTORS
330
A36
102
}
330
A36
100
AcDbScale
 70
     0
300
1/2" = 1'-0"
140
0.5
141
12.0
290
     0
  0
SCALE
  5
A52
102
{ACAD_REACTORS
330
A36
102
}
330
A36
100
AcDbScale
 70
     0
300
3/4" = 1'-0"
140
0.75
141
12.0
290
     0
  0
SCALE
  5
A53
102
{ACAD_REACTORS
330
A36
102
}
330
A36
100
AcDbScale
 70
     0
300
1" = 1'-0"
140
1.0
141
12.0
290
     0
  0
SCALE
  5
A54
102
{ACAD_REACTORS
330
A36
102
}
330
A36
100
AcDbScale
 70
     0
300
1-1/2" = 1'-0"
140
1.5
141
12.0
290
     0
  0
SCALE
  5
A55
102
{ACAD_REACTORS
330
A36
102
}
330
A36
100
AcDbScale
 70
     0
300
3" = 1'-0"
140
3.0
141
12.0
290
     0
  0
SCALE
  5
A56
102
{ACAD_REACTORS
330
A36
102
}
330
A36
100
AcDbScale
 70
     0
300
6" = 1'-0"
140
6.0
141
12.0
290
     0
  0
SCALE
  5
A57
102
{ACAD_REACTORS
330
A36
102
}
330
A36
100
AcDbScale
 70
     0
300
1'-0" = 1'-0"
140
12.0
141
12.0
290
     0
  0
TABLESTYLE
  5
12D54B
102
{ACAD_XDICTIONARY
360
12D552
102
}
102
{ACAD_REACTORS
330
12D54A
102
}
330
12D54A
100
AcDbTableStyle
  3
Standard
 70
     0
 71
     0
 40
0.06
 41
0.06
280
     0
281
     0
  7
STANDARD
140
0.18
170
     2
 62
     0
 63
     7
283
     0
274
    -2
284
     1
 64
     0
275
    -2
285
     1
 65
     0
276
    -2
286
     1
 66
     0
277
    -2
287
     1
 67
     0
278
    -2
288
     1
 68
     0
279
    -2
289
     1
 69
     0
  7
STANDARD
140
0.25
170
     5
 62
     0
 63
     7
283
     0
274
    -2
284
     1
 64
     0
275
    -2
285
     1
 65
     0
276
    -2
286
     1
 66
     0
277
    -2
287
     1
 67
     0
278
    -2
288
     1
 68
     0
279
    -2
289
     1
 69
     0
  7
STANDARD
140
0.18
170
     5
 62
     0
 63
     7
283
     0
274
    -2
284
     1
 64
     0
275
    -2
285
     1
 65
     0
276
    -2
286
     1
 66
     0
277
    -2
287
     1
 67
     0
278
    -2
288
     1
 68
     0
279
    -2
289
     1
 69
     0
  0
VISUALSTYLE
  5
12D53E
102
{ACAD_REACTORS
330
12D538
102
}
330
12D538
100
AcDbVisualStyle
  2
2dWireframe
 70
     4
 71
     0
 72
     2
 73
     0
 90
        0
 40
-0.6
 41
-30.0
 62
     5
 63
     7
 74
     1
 91
        4
 64
     7
 65
   257
 75
     1
175
     1
 42
1.0
 92
        0
 66
   257
 43
1.0
 76
     1
 77
     6
 78
     2
 67
     7
 79
     5
170
     0
171
     0
290
     0
174
     0
 93
        1
 44
0.0
173
     0
291
     0
 45
0.0
1001
ACAD
1000
AcDbSavedByObjectVersion
1070
     0
  0
VISUALSTYLE
  5
12D540
102
{ACAD_REACTORS
330
12D538
102
}
330
12D538
100
AcDbVisualStyle
  2
3D Hidden
 70
     6
 71
     1
 72
     2
 73
     2
 90
        0
 40
-0.6
 41
-30.0
 62
     5
 63
     7
 74
     2
 91
        2
 64
     7
 65
   257
 75
     2
175
     1
 42
40.0
 92
        0
 66
   257
 43
1.0
 76
     1
 77
     6
 78
     2
 67
     7
 79
     3
170
     0
171
     0
290
     0
174
     0
 93
        1
 44
0.0
173
     0
291
     0
 45
0.0
1001
ACAD
1000
AcDbSavedByObjectVersion
1070
     0
  0
VISUALSTYLE
  5
12D53F
102
{ACAD_REACTORS
330
12D538
102
}
330
12D538
100
AcDbVisualStyle
  2
3dWireframe
 70
     5
 71
     0
 72
     2
 73
     0
 90
        0
 40
-0.6
 41
-30.0
 62
     5
 63
     7
 74
     1
 91
        4
 64
     7
 65
   257
 75
     1
175
     1
 42
1.0
 92
        0
 66
   257
 43
1.0
 76
     1
 77
     6
 78
     2
 67
     7
 79
     5
170
     0
171
     0
290
     0
174
     0
 93
        1
 44
0.0
173
     0
291
     0
 45
0.0
1001
ACAD
1000
AcDbSavedByObjectVersion
1070
     0
  0
VISUALSTYLE
  5
12D53D
102
{ACAD_REACTORS
330
12D538
102
}
330
12D538
100
AcDbVisualStyle
  2
Basic
 70
     7
 71
     1
 72
     0
 73
     1
 90
        0
 40
-0.6
 41
-30.0
 62
     5
 63
     7
 74
     0
 91
        4
 64
     7
 65
   257
 75
     1
175
     1
 42
1.0
 92
        8
 66
     7
 43
1.0
 76
     1
 77
     6
 78
     2
 67
     7
 79
     5
170
     0
171
     0
290
     0
174
     0
 93
        1
 44
0.0
173
     0
291
     1
 45
0.0
1001
ACAD
1000
AcDbSavedByObjectVersion
1070
     0
  0
VISUALSTYLE
  5
12D544
102
{ACAD_REACTORS
330
12D538
102
}
330
12D538
100
AcDbVisualStyle
  2
Brighten
 70
    12
 71
     2
 72
     2
 73
     0
 90
        0
 40
-0.6
 41
-30.0
 62
     5
 63
     7
 74
     1
 91
        4
 64
     7
 65
   257
 75
     1
175
     1
 42
1.0
 92
        8
 66
     7
 43
1.0
 76
     1
 77
     6
 78
     2
 67
     7
 79
     5
170
     0
171
     0
290
     0
174
     0
 93
        1
 44
50.0
173
     0
291
     1
 45
0.0
1001
ACAD
1000
AcDbSavedByObjectVersion
1070
     0
  0
VISUALSTYLE
  5
12D548
102
{ACAD_REACTORS
330
12D538
102
}
330
12D538
100
AcDbVisualStyle
  2
ColorChange
 70
    16
 71
     2
 72
     2
 73
     3
 90
        0
 40
-0.6
 41
-30.0
 62
     5
 63
     8
 74
     1
 91
        4
 64
     7
 65
   257
 75
     1
175
     1
 42
1.0
 92
        8
 66
     8
 43
1.0
 76
     1
 77
     6
 78
     2
 67
     7
 79
     5
170
     0
171
     0
290
     0
174
     0
 93
        1
 44
0.0
173
     0
291
     1
 45
0.0
1001
ACAD
1000
AcDbSavedByObjectVersion
1070
     0
  0
VISUALSTYLE
  5
12D541
102
{ACAD_REACTORS
330
12D538
102
}
330
12D538
100
AcDbVisualStyle
  2
Conceptual
 70
     9
 71
     3
 72
     2
 73
     0
 90
        0
 40
-0.6
 41
-30.0
 62
     5
 63
     7
 74
     2
 91
        2
 64
     7
 65
   257
 75
     1
175
     1
 42
40.0
 92
        8
 66
     7
 43
1.0
 76
     1
 77
     6
 78
     2
 67
     7
 79
     3
170
     0
171
     0
290
     0
174
     0
 93
        1
 44
0.0
173
     0
291
     0
 45
0.0
1001
ACAD
1000
AcDbSavedByObjectVersion
1070
     0
  0
VISUALSTYLE
  5
12D543
102
{ACAD_REACTORS
330
12D538
102
}
330
12D538
100
AcDbVisualStyle
  2
Dim
 70
    11
 71
     2
 72
     2
 73
     0
 90
        0
 40
-0.6
 41
-30.0
 62
     5
 63
     7
 74
     1
 91
        4
 64
     7
 65
   257
 75
     1
175
     1
 42
1.0
 92
        8
 66
     7
 43
1.0
 76
     1
 77
     6
 78
     2
 67
     7
 79
     5
170
     0
171
     0
290
     0
174
     0
 93
        1
 44
-50.0
173
     0
291
     1
 45
0.0
1001
ACAD
1000
AcDbSavedByObjectVersion
1070
     0
  0
VISUALSTYLE
  5
12D547
102
{ACAD_REACTORS
330
12D538
102
}
330
12D538
100
AcDbVisualStyle
  2
Facepattern
 70
    15
 71
     2
 72
     2
 73
     0
 90
        0
 40
-0.6
 41
-30.0
 62
     5
 63
     7
 74
     1
 91
        4
 64
     7
 65
   257
 75
     1
175
     1
 42
1.0
 92
        8
 66
     7
 43
1.0
 76
     1
 77
     6
 78
     2
 67
     7
 79
     5
170
     0
171
     0
290
     0
174
     0
 93
        1
 44
0.0
173
     0
291
     1
 45
0.0
1001
ACAD
1000
AcDbSavedByObjectVersion
1070
     0
  0
VISUALSTYLE
  5
12D539
102
{ACAD_REACTORS
330
12D538
102
}
330
12D538
100
AcDbVisualStyle
  2
Flat
 70
     0
 71
     2
 72
     1
 73
     1
 90
        2
 40
-0.6
 41
30.0
 62
     5
 63
     7
 74
     0
 91
        4
 64
     7
 65
   257
 75
     1
175
     1
 42
1.0
 92
        8
 66
     7
 43
1.0
 76
     1
 77
     6
 78
     2
 67
     7
 79
     5
170
     0
171
     0
290
     0
174
     0
 93
       13
 44
0.0
173
     0
291
     1
 45
0.0
1001
ACAD
1000
AcDbSavedByObjectVersion
1070
     0
  0
VISUALSTYLE
  5
12D53A
102
{ACAD_REACTORS
330
12D538
102
}
330
12D538
100
AcDbVisualStyle
  2
FlatWithEdges
 70
     1
 71
     2
 72
     1
 73
     1
 90
        2
 40
-0.6
 41
30.0
 62
     5
 63
     7
 74
     1
 91
        4
 64
     7
 65
   257
 75
     1
175
     1
 42
1.0
 92
        0
 66
   257
 43
1.0
 76
     1
 77
     6
 78
     2
 67
     7
 79
     5
170
     0
171
     0
290
     0
174
     0
 93
       13
 44
0.0
173
     0
291
     1
 45
0.0
1001
ACAD
1000
AcDbSavedByObjectVersion
1070
     0
  0
VISUALSTYLE
  5
12D53B
102
{ACAD_REACTORS
330
12D538
102
}
330
12D538
100
AcDbVisualStyle
  2
Gouraud
 70
     2
 71
     2
 72
     2
 73
     1
 90
        2
 40
-0.6
 41
30.0
 62
     5
 63
     7
 74
     0
 91
        4
 64
     7
 65
   257
 75
     1
175
     1
 42
1.0
 92
        0
 66
     7
 43
1.0
 76
     1
 77
     6
 78
     2
 67
     7
 79
     5
170
     0
171
     0
290
     0
174
     0
 93
       13
 44
0.0
173
     0
291
     1
 45
0.0
1001
ACAD
1000
AcDbSavedByObjectVersion
1070
     0
  0
VISUALSTYLE
  5
12D53C
102
{ACAD_REACTORS
330
12D538
102
}
330
12D538
100
AcDbVisualStyle
  2
GouraudWithEdges
 70
     3
 71
     2
 72
     2
 73
     1
 90
        2
 40
-0.6
 41
30.0
 62
     5
 63
     7
 74
     1
 91
        4
 64
     7
 65
   257
 75
     1
175
     1
 42
1.0
 92
        0
 66
   257
 43
1.0
 76
     1
 77
     6
 78
     2
 67
     7
 79
     5
170
     0
171
     0
290
     0
174
     0
 93
       13
 44
0.0
173
     0
291
     1
 45
0.0
1001
ACAD
1000
AcDbSavedByObjectVersion
1070
     0
  0
VISUALSTYLE
  5
12D546
102
{ACAD_REACTORS
330
12D538
102
}
330
12D538
100
AcDbVisualStyle
  2
Linepattern
 70
    14
 71
     2
 72
     2
 73
     0
 90
        0
 40
-0.6
 41
-30.0
 62
     5
 63
     7
 74
     1
 91
        4
 64
     7
 65
   257
 75
     7
175
     7
 42
1.0
 92
        8
 66
     7
 43
1.0
 76
     1
 77
     6
 78
     2
 67
     7
 79
     5
170
     0
171
     0
290
     0
174
     0
 93
        1
 44
0.0
173
     0
291
     1
 45
0.0
1001
ACAD
1000
AcDbSavedByObjectVersion
1070
     0
  0
VISUALSTYLE
  5
12D542
102
{ACAD_REACTORS
330
12D538
102
}
330
12D538
100
AcDbVisualStyle
  2
Realistic
 70
     8
 71
     2
 72
     2
 73
     0
 90
        0
 40
-0.6
 41
-30.0
 62
     5
 63
     7
 74
     1
 91
        0
 64
     7
 65
   257
 75
     1
175
     1
 42
1.0
 92
        8
 66
     8
 43
1.0
 76
     1
 77
     6
 78
     2
 67
     7
 79
     5
170
     0
171
     0
290
     0
174
     0
 93
       13
 44
0.0
173
     0
291
     0
 45
0.0
1001
ACAD
1000
AcDbSavedByObjectVersion
1070
     0
  0
VISUALSTYLE
  5
12D545
102
{ACAD_REACTORS
330
12D538
102
}
330
12D538
100
AcDbVisualStyle
  2
Thicken
 70
    13
 71
     2
 72
     2
 73
     0
 90
        0
 40
-0.6
 41
-30.0
 62
     5
 63
     7
 74
     1
 91
        4
 64
     7
 65
   257
 75
     1
175
     1
 42
1.0
 92
       12
 66
     7
 43
1.0
 76
     1
 77
     6
 78
     2
 67
     7
 79
     5
170
     0
171
     0
290
     0
174
     0
 93
        1
 44
0.0
173
     0
291
     1
 45
0.0
1001
ACAD
1000
AcDbSavedByObjectVersion
1070
     0
  0
DICTIONARYVAR
  5
12D551
102
{ACAD_REACTORS
330
6DE
102
}
330
6DE
100
DictionaryVariables
280
     0
  1
1:1
  0
DICTIONARYVAR
  5
12D550
102
{ACAD_REACTORS
330
6DE
102
}
330
6DE
100
DictionaryVariables
280
     0
  1
STANDARD
  0
DICTIONARYVAR
  5
12D54F
102
{ACAD_REACTORS
330
6DE
102
}
330
6DE
100
DictionaryVariables
280
     0
  1
STANDARD
  0
DICTIONARYVAR
  5
6DF
102
{ACAD_REACTORS
330
6DE
102
}
330
6DE
100
DictionaryVariables
280
     0
  1
1
  0
DICTIONARYVAR
  5
A93
102
{ACAD_REACTORS
330
6DE
102
}
330
6DE
100
DictionaryVariables
280
     0
  1
0
  0
DICTIONARYVAR
  5
6E0
102
{ACAD_REACTORS
330
6DE
102
}
330
6DE
100
DictionaryVariables
280
     0
  1

  0
DICTIONARYVAR
  5
A92
102
{ACAD_REACTORS
330
6DE
102
}
330
6DE
100
DictionaryVariables
280
     0
  1
127
  0
DICTIONARY
  5
12D556
330
619
100
AcDbDictionary
280
     1
281
     1
  3
ACAD_XREC_ROUNDTRIP
360
12D557
  0
DICTIONARY
  5
12D558
330
61A
100
AcDbDictionary
280
     1
281
     1
  3
ACAD_XREC_ROUNDTRIP
360
12D559
  0
DICTIONARY
  5
12D529
330
12D528
100
AcDbDictionary
280
     1
281
     1
  3
ACAD_XREC_ROUNDTRIP
360
12D55B
  3
BUMPTILE
360
12D52B
  3
DIFFUSETILE
360
12D52A
  3
OPACITYTILE
360
12D52E
  3
REFLECTIONTILE
360
12D52D
  3
REFRACTIONTILE
360
12D52F
  3
SPECULARTILE
360
12D52C
  0
DICTIONARY
  5
12D521
330
12D520
100
AcDbDictionary
280
     1
281
     1
  3
ACAD_XREC_ROUNDTRIP
360
12D55A
  3
BUMPTILE
360
12D523
  3
DIFFUSETILE
360
12D522
  3
OPACITYTILE
360
12D526
  3
REFLECTIONTILE
360
12D525
  3
REFRACTIONTILE
360
12D527
  3
SPECULARTILE
360
12D524
  0
DICTIONARY
  5
12D531
330
12D530
100
AcDbDictionary
280
     1
281
     1
  3
ACAD_XREC_ROUNDTRIP
360
12D55C
  3
BUMPTILE
360
12D533
  3
DIFFUSETILE
360
12D532
  3
OPACITYTILE
360
12D536
  3
REFLECTIONTILE
360
12D535
  3
REFRACTIONTILE
360
12D537
  3
SPECULARTILE
360
12D534
  0
DICTIONARY
  5
12D552
330
12D54B
100
AcDbDictionary
280
     1
281
     1
  3
ACAD_ROUNDTRIP_2008_TABLESTYLE_CELLSTYLEMAP
360
12D553
  3
ACAD_XREC_ROUNDTRIP
360
12D55D
  0
XRECORD
  5
12D557
102
{ACAD_REACTORS
330
12D556
102
}
330
12D556
100
AcDbXrecord
280
     1
102
SHADEPLOT
 70
     0
102
SHADEPLOTRESLEVEL
 70
     2
102
SHADEPLOTCUSTOMDPI
 70
   300
  0
XRECORD
  5
12D559
102
{ACAD_REACTORS
330
12D558
102
}
330
12D558
100
AcDbXrecord
280
     1
102
SHADEPLOT
 70
     0
102
SHADEPLOTRESLEVEL
 70
     2
102
SHADEPLOTCUSTOMDPI
 70
   300
  0
XRECORD
  5
12D55B
102
{ACAD_REACTORS
330
12D529
102
}
330
12D529
100
AcDbXrecord
280
     1
102
MATERIAL
148
0.0
149
0.0
149
0.0
 93
        0
 94
      127
282
     0
 72
     0
 77
     0
171
     0
175
     0
179
     0
273
     0
  0
XRECORD
  5
12D52B
102
{ACAD_REACTORS
330
12D529
102
}
330
12D529
100
AcDbXrecord
280
     1
270
     1
271
     1
  0
XRECORD
  5
12D52A
102
{ACAD_REACTORS
330
12D529
102
}
330
12D529
100
AcDbXrecord
280
     1
270
     1
271
     1
  0
XRECORD
  5
12D52E
102
{ACAD_REACTORS
330
12D529
102
}
330
12D529
100
AcDbXrecord
280
     1
270
     1
271
     1
  0
XRECORD
  5
12D52D
102
{ACAD_REACTORS
330
12D529
102
}
330
12D529
100
AcDbXrecord
280
     1
270
     1
271
     1
  0
XRECORD
  5
12D52F
102
{ACAD_REACTORS
330
12D529
102
}
330
12D529
100
AcDbXrecord
280
     1
270
     1
271
     1
  0
XRECORD
  5
12D52C
102
{ACAD_REACTORS
330
12D529
102
}
330
12D529
100
AcDbXrecord
280
     1
270
     1
271
     1
  0
XRECORD
  5
12D55A
102
{ACAD_REACTORS
330
12D521
102
}
330
12D521
100
AcDbXrecord
280
     1
102
MATERIAL
148
0.0
149
0.0
149
0.0
 93
        0
 94
      127
282
     0
 72
     0
 77
     0
171
     0
175
     0
179
     0
273
     0
  0
XRECORD
  5
12D523
102
{ACAD_REACTORS
330
12D521
102
}
330
12D521
100
AcDbXrecord
280
     1
270
     1
271
     1
  0
XRECORD
  5
12D522
102
{ACAD_REACTORS
330
12D521
102
}
330
12D521
100
AcDbXrecord
280
     1
270
     1
271
     1
  0
XRECORD
  5
12D526
102
{ACAD_REACTORS
330
12D521
102
}
330
12D521
100
AcDbXrecord
280
     1
270
     1
271
     1
  0
XRECORD
  5
12D525
102
{ACAD_REACTORS
330
12D521
102
}
330
12D521
100
AcDbXrecord
280
     1
270
     1
271
     1
  0
XRECORD
  5
12D527
102
{ACAD_REACTORS
330
12D521
102
}
330
12D521
100
AcDbXrecord
280
     1
270
     1
271
     1
  0
XRECORD
  5
12D524
102
{ACAD_REACTORS
330
12D521
102
}
330
12D521
100
AcDbXrecord
280
     1
270
     1
271
     1
  0
XRECORD
  5
12D55C
102
{ACAD_REACTORS
330
12D531
102
}
330
12D531
100
AcDbXrecord
280
     1
102
MATERIAL
148
0.0
149
0.0
149
0.0
 93
        0
 94
      127
282
     0
 72
     0
 77
     0
171
     0
175
     0
179
     0
273
     0
  0
XRECORD
  5
12D533
102
{ACAD_REACTORS
330
12D531
102
}
330
12D531
100
AcDbXrecord
280
     1
270
     1
271
     1
  0
XRECORD
  5
12D532
102
{ACAD_REACTORS
330
12D531
102
}
330
12D531
100
AcDbXrecord
280
     1
270
     1
271
     1
  0
XRECORD
  5
12D536
102
{ACAD_REACTORS
330
12D531
102
}
330
12D531
100
AcDbXrecord
280
     1
270
     1
271
     1
  0
XRECORD
  5
12D535
102
{ACAD_REACTORS
330
12D531
102
}
330
12D531
100
AcDbXrecord
280
     1
270
     1
271
     1
  0
XRECORD
  5
12D537
102
{ACAD_REACTORS
330
12D531
102
}
330
12D531
100
AcDbXrecord
280
     1
270
     1
271
     1
  0
XRECORD
  5
12D534
102
{ACAD_REACTORS
330
12D531
102
}
330
12D531
100
AcDbXrecord
280
     1
270
     1
271
     1
  0
CELLSTYLEMAP
  5
12D553
102
{ACAD_REACTORS
330
12D552
102
}
330
12D552
100
AcDbCellStyleMap
 90
        3
300
CELLSTYLE
  1
TABLEFORMAT_BEGIN
 90
        5
170
     1
 91
        0
 92
    32768
 62
   257
 93
        1
300
CONTENTFORMAT
  1
CONTENTFORMAT_BEGIN
 90
        0
 91
        0
 92
      512
 93
        0
300

 40
0.0
140
1.0
 94
        5
 62
     0
340
10
144
0.25
309
CONTENTFORMAT_END
171
     0
 94
        0
309
TABLEFORMAT_END
  1
CELLSTYLE_BEGIN
 90
        1
 91
        1
300
_TITLE
309
CELLSTYLE_END
300
CELLSTYLE
  1
TABLEFORMAT_BEGIN
 90
        5
170
     1
 91
        0
 92
        0
 62
   257
 93
        1
300
CONTENTFORMAT
  1
CONTENTFORMAT_BEGIN
 90
        0
 91
        0
 92
      512
 93
        0
300

 40
0.0
140
1.0
 94
        5
 62
     0
340
10
144
0.18
309
CONTENTFORMAT_END
171
     0
 94
        0
309
TABLEFORMAT_END
  1
CELLSTYLE_BEGIN
 90
        2
 91
        1
300
_HEADER
309
CELLSTYLE_END
300
CELLSTYLE
  1
TABLEFORMAT_BEGIN
 90
        5
170
     1
 91
        0
 92
        0
 62
   257
 93
        1
300
CONTENTFORMAT
  1
CONTENTFORMAT_BEGIN
 90
        0
 91
        0
 92
      512
 93
        0
300

 40
0.0
140
1.0
 94
        2
 62
     0
340
10
144
0.18
309
CONTENTFORMAT_END
171
     0
 94
        0
309
TABLEFORMAT_END
  1
CELLSTYLE_BEGIN
 90
        3
 91
        2
300
_DATA
309
CELLSTYLE_END
  0
XRECORD
  5
12D55D
102
{ACAD_REACTORS
330
12D552
102
}
330
12D552
100
AcDbXrecord
280
     1
102
ACAD_ROUNDTRIP_PRE2007_TABLESTYLE
 90
      512
 91
        0
  1

 92
      512
 93
        0
  2

 94
      512
 95
        0
  3

  0
ENDSEC
  0
EOF
